  0
SECTION
  2
HEADER
  9
$ACADVER
  1
AC1009
  9
$INSBASE
 10
0.0
 20
0.0
 30
0.0
  9
$EXTMIN
 10
605.46221967347572
 20
-1116.3016818904221
 30
0.0
  9
$EXTMAX
 10
979.48466541040591
 20
-956.75356760804402
 30
0.0
  9
$LIMMIN
 10
0.0
 20
0.0
  9
$LIMMAX
 10
420.0
 20
297.0
  9
$ORTHOMODE
 70
     0
  9
$REGENMODE
 70
     1
  9
$FILLMODE
 70
     1
  9
$QTEXTMODE
 70
     0
  9
$MIRRTEXT
 70
     0
  9
$DRAGMODE
 70
     2
  9
$LTSCALE
 40
0.5
  9
$OSMODE
 70
  2175
  9
$ATTMODE
 70
     1
  9
$TEXTSIZE
 40
4.0
  9
$TRACEWID
 40
1.0
  9
$TEXTSTYLE
  7
STANDARD
  9
$CLAYER
  8
1TEXT
  9
$CELTYPE
  6
BYLAYER
  9
$CECOLOR
 62
   256
  9
$DIMSCALE
 40
1.0
  9
$DIMASZ
 40
2.0
  9
$DIMEXO
 40
0.0
  9
$DIMDLI
 40
7.0
  9
$DIMRND
 40
0.0
  9
$DIMDLE
 40
0.0
  9
$DIMEXE
 40
1.0
  9
$DIMTP
 40
0.0
  9
$DIMTM
 40
0.0
  9
$DIMTXT
 40
3.5
  9
$DIMCEN
 40
0.0
  9
$DIMTSZ
 40
0.0
  9
$DIMTOL
 70
     0
  9
$DIMLIM
 70
     0
  9
$DIMTIH
 70
     0
  9
$DIMTOH
 70
     0
  9
$DIMSE1
 70
     0
  9
$DIMSE2
 70
     0
  9
$DIMTAD
 70
     1
  9
$DIMZIN
 70
     8
  9
$DIMBLK
  1

  9
$DIMASO
 70
     1
  9
$DIMSHO
 70
     1
  9
$DIMPOST
  1
 
  9
$DIMAPOST
  1

  9
$DIMALT
 70
     0
  9
$DIMALTD
 70
     2
  9
$DIMALTF
 40
25.399999999999999
  9
$DIMLFAC
 40
1.0
  9
$DIMTOFL
 70
     1
  9
$DIMTVP
 40
0.0
  9
$DIMTIX
 70
     0
  9
$DIMSOXD
 70
     0
  9
$DIMSAH
 70
     1
  9
$DIMBLK1
  1
OPEN30
  9
$DIMBLK2
  1
OPEN30
  9
$DIMSTYLE
  2
NEWX10
  9
$DIMCLRD
 70
   256
  9
$DIMCLRE
 70
   256
  9
$DIMCLRT
 70
   201
  9
$DIMTFAC
 40
0.7
  9
$DIMGAP
 40
0.7
  9
$LUNITS
 70
     2
  9
$LUPREC
 70
     4
  9
$SKETCHINC
 40
1.0
  9
$FILLETRAD
 40
0.0
  9
$AUNITS
 70
     0
  9
$AUPREC
 70
     2
  9
$MENU
  1
acad
  9
$ELEVATION
 40
0.0
  9
$PELEVATION
 40
0.0
  9
$THICKNESS
 40
0.0
  9
$LIMCHECK
 70
     0
  9
$BLIPMODE
 70
     0
  9
$CHAMFERA
 40
1.0
  9
$CHAMFERB
 40
1.0
  9
$SKPOLY
 70
     0
  9
$TDCREATE
 40
2453033.7326634838
  9
$TDUPDATE
 40
2455142.820581771
  9
$TDINDWG
 40
1.8435143287
  9
$TDUSRTIMER
 40
1.8435143287
  9
$USRTIMER
 70
     1
  9
$ANGBASE
 50
0.0
  9
$ANGDIR
 70
     0
  9
$PDMODE
 70
     0
  9
$PDSIZE
 40
0.0
  9
$PLINEWID
 40
0.0
  9
$COORDS
 70
     2
  9
$SPLFRAME
 70
     0
  9
$SPLINETYPE
 70
     6
  9
$SPLINESEGS
 70
     8
  9
$ATTDIA
 70
     0
  9
$ATTREQ
 70
     1
  9
$HANDLING
 70
     1
  9
$HANDSEED
  5
1C767
  9
$SURFTAB1
 70
     6
  9
$SURFTAB2
 70
     6
  9
$SURFTYPE
 70
     6
  9
$SURFU
 70
     6
  9
$SURFV
 70
     6
  9
$UCSNAME
  2

  9
$UCSORG
 10
0.0
 20
0.0
 30
0.0
  9
$UCSXDIR
 10
1.0
 20
0.0
 30
0.0
  9
$UCSYDIR
 10
0.0
 20
1.0
 30
0.0
  9
$PUCSNAME
  2

  9
$PUCSORG
 10
0.0
 20
0.0
 30
0.0
  9
$PUCSXDIR
 10
1.0
 20
0.0
 30
0.0
  9
$PUCSYDIR
 10
0.0
 20
1.0
 30
0.0
  9
$USERI1
 70
     0
  9
$USERI2
 70
     0
  9
$USERI3
 70
     0
  9
$USERI4
 70
     0
  9
$USERI5
 70
     0
  9
$USERR1
 40
0.0
  9
$USERR2
 40
0.0
  9
$USERR3
 40
0.0
  9
$USERR4
 40
0.0
  9
$USERR5
 40
0.0
  9
$WORLDVIEW
 70
     1
  9
$SHADEDGE
 70
     3
  9
$SHADEDIF
 70
    70
  9
$TILEMODE
 70
     1
  9
$MAXACTVP
 70
    48
  9
$PLIMCHECK
 70
     0
  9
$PEXTMIN
 10
1.0000000000000000E+020
 20
1.0000000000000000E+020
 30
1.0000000000000000E+020
  9
$PEXTMAX
 10
-1.0000000000000000E+020
 20
-1.0000000000000000E+020
 30
-1.0000000000000000E+020
  9
$PLIMMIN
 10
0.0
 20
0.0
  9
$PLIMMAX
 10
420.0
 20
297.0
  9
$UNITMODE
 70
     0
  9
$VISRETAIN
 70
     1
  9
$PLINEGEN
 70
     0
  9
$PSLTSCALE
 70
     1
  0
ENDSEC
  0
SECTION
  2
TABLES
  0
TABLE
  2
VPORT
 70
     1
  0
VPORT
  2
*ACTIVE
 70
     0
 10
0.0
 20
0.0
 11
1.0
 21
1.0
 12
792.46849955153846
 22
-1036.4993893845699
 13
0.0
 23
0.0
 14
10.0
 24
10.0
 15
10.0
 25
10.0
 16
0.0
 26
0.0
 36
1.0
 17
0.0
 27
0.0
 37
0.0
 40
280.3028877182482
 41
1.4123581336696089
 42
50.0
 43
0.0
 44
0.0
 50
0.0
 51
0.0
 71
     0
 72
   100
 73
     1
 74
     1
 75
     0
 76
     0
 77
     0
 78
     0
  0
ENDTAB
  0
TABLE
  2
LTYPE
 70
    18
  0
LTYPE
  2
CONTINUOUS
 70
     0
  3
Solid line
 72
    65
 73
     0
 40
0.0
  0
LTYPE
  2
CENTER2
 70
     0
  3
Center (.5x) ___ _ ___ _ ___ _ ___ _ ___ _ ___
 72
    65
 73
     4
 40
28.574999999999999
 49
19.050000000000001
 49
-3.1749999999999989
 49
3.1749999999999989
 49
-3.1749999999999989
  0
LTYPE
  2
PHANTOM2
 70
     0
  3
Phantom (.5x) ___ _ _ ___ _ _ ___ _ _ ___ _ _
 72
    65
 73
     6
 40
31.75
 49
15.875
 49
-3.1749999999999989
 49
3.1749999999999989
 49
-3.1749999999999989
 49
3.1749999999999989
 49
-3.1749999999999989
  0
ENDTAB
  0
TABLE
  2
LAYER
 70
    44
  0
LAYER
  2
0
 70
     0
 62
     7
  6
CONTINUOUS
  0
LAYER
  2
1CENTER
 70
     0
 62
     7
  6
CENTER2
  0
LAYER
  2
1TEXT
 70
     0
 62
     7
  6
CONTINUOUS
  0
LAYER
  2
1DIM
 70
     0
 62
     7
  6
CONTINUOUS
  0
LAYER
  2
1PHANTOM
 70
     0
 62
     7
  6
PHANTOM2
  0
LAYER
  2
01
 70
     0
 62
     1
  6
CONTINUOUS
  0
LAYER
  2
1HATCH
 70
     0
 62
     7
  6
CONTINUOUS
  0
ENDTAB
  0
TABLE
  2
STYLE
 70
    23
  0
STYLE
  2
STANDARD
 70
     0
 40
0.0
 41
1.0
 50
0.0
 71
     0
 42
4.0
  3
txt.shx
  4
extfont.shx
  0
ENDTAB
  0
TABLE
  2
VIEW
 70
     0
  0
ENDTAB
  0
TABLE
  2
UCS
 70
     0
  0
ENDTAB
  0
TABLE
  2
APPID
 70
    12
  0
APPID
  2
ACAD
 70
     0
  0
APPID
  2
DRAWINGVARIABLESXDATA
 70
     0
  0
APPID
  2
CONTENTTABDATA
 70
     0
  0
APPID
  2
CONTENTCURRENTTAB
 70
     0
  0
APPID
  2
CONTENTBLOCKDESCRIPTION
 70
     0
  0
APPID
  2
CONTENTBLOCKICON
 70
     0
  0
APPID
  2
CONTENTLONGBLOCKNAME
 70
     0
  0
APPID
  2
ACAD_PSEXT
 70
     0
  0
APPID
  2
ACAD_DSTYLE_DIMTEXT_FILL
 70
     0
  0
APPID
  2
ACAD_MLEADERVER
 70
     0
  0
APPID
  2
ACAD_DSTYLE_DIMRADIAL_EXTENSION
 70
     0
  0
APPID
  2
ACADANNOTATIVE
 70
     0
  0
ENDTAB
  0
TABLE
  2
DIMSTYLE
 70
    10
  0
DIMSTYLE
  2
NEWX10
 70
     0
  3
 
  4

  5

  6
OPEN30
  7
OPEN30
 40
1.0
 41
2.0
 42
0.0
 43
7.0
 44
1.0
 45
0.0
 46
0.0
 47
0.0
 48
0.0
140
3.5
141
0.0
142
0.0
143
25.399999999999999
144
1.0
145
0.0
146
0.7
147
0.7
 71
     0
 72
     0
 73
     0
 74
     0
 75
     0
 76
     0
 77
     1
 78
     8
170
     0
171
     2
172
     1
173
     1
174
     0
175
     0
176
   256
177
   256
178
   201
  0
ENDTAB
  0
ENDSEC
  0
SECTION
  2
BLOCKS
  0
BLOCK
  8
0
  2
$MODEL_SPACE
 70
     0
 10
0.0
 20
0.0
 30
0.0
  3
$MODEL_SPACE
  1

  0
ENDBLK
  5
1A
  8
0
  0
BLOCK
 67
     1
  8
0
  2
$PAPER_SPACE
 70
     0
 10
0.0
 20
0.0
 30
0.0
  3
$PAPER_SPACE
  1

  0
ENDBLK
  5
17
 67
     1
  8
0
  0
BLOCK
  8
0
  2
_OPEN30
 70
     0
 10
0.0
 20
0.0
 30
0.0
  3
_OPEN30
  1

  0
LINE
  5
44
  8
0
  6
BYBLOCK
 62
     0
 10
-1.0
 20
0.26794919
 30
0.0
 11
0.0
 21
0.0
 31
0.0
  0
LINE
  5
45
  8
0
  6
BYBLOCK
 62
     0
 10
0.0
 20
0.0
 30
0.0
 11
-1.0
 21
-0.26794919
 31
0.0
  0
LINE
  5
46
  8
0
  6
BYBLOCK
 62
     0
 10
0.0
 20
0.0
 30
0.0
 11
-1.0
 21
0.0
 31
0.0
  0
ENDBLK
  5
47
  8
0
  0
BLOCK
  8
0
  2
*X78
 70
     1
 10
0.0
 20
0.0
 30
0.0
  3
*X78
  1

  0
LINE
  5
1C39B
  8
0
 62
     0
 10
9.7770988726544452
 20
7.7925254709365239
 30
0.0
 11
9.0307181557708205
 21
8.5389061878201495
 31
0.0
  0
LINE
  5
1C39C
  8
0
 62
     0
 10
10.322251332597521
 20
6.5738538019132688
 30
0.0
 11
8.8225373759713577
 21
8.0735677585394292
 31
0.0
  0
LINE
  5
1C39D
  8
0
 62
     0
 10
10.867403792540591
 20
5.3551821328900138
 30
0.0
 11
8.6143565961718984
 21
7.6082293292587053
 31
0.0
  0
LINE
  5
1C39E
  8
0
 62
     0
 10
11.412556252483659
 20
4.136510463866756
 30
0.0
 11
8.4061758163724356
 21
7.1428908999779814
 31
0.0
  0
LINE
  5
1C39F
  8
0
 62
     0
 10
6.2911286292475204
 20
8.5844188780227135
 30
0.0
 11
6.1124475072789997
 21
8.7630999999912298
 31
0.0
  0
LINE
  5
1C3A0
  8
0
 62
     0
 10
11.957708712426729
 20
2.9178387948435001
 30
0.0
 11
8.1979950365729728
 21
6.6775524706972567
 31
0.0
  0
LINE
  5
1C3A1
  8
0
 62
     0
 10
9.0654651928517787
 20
5.1365631053382614
 30
0.0
 11
7.989814256773502
 21
6.2122140414165399
 31
0.0
  0
LINE
  5
1C3A2
  8
0
 62
     0
 10
5.9930398744017381
 20
8.2089884237883055
 30
0.0
 11
5.438928298198813
 21
8.7630999999912262
 31
0.0
  0
LINE
  5
1C3A3
  8
0
 62
     0
 10
12.5028611723698
 20
1.6991671258202381
 30
0.0
 11
9.6861187725028461
 21
4.5159095256871922
 31
0.0
  0
LINE
  5
1C3A4
  8
0
 62
     0
 10
8.8573263393301218
 20
4.6711827497797351
 30
0.0
 11
7.7816334769740427
 21
5.7468756121358133
 31
0.0
  0
LINE
  5
1C3A5
  8
0
 62
     0
 10
5.6949511195559586
 20
7.833557969553901
 30
0.0
 11
4.7654090891186227
 21
8.7630999999912333
 31
0.0
  0
LINE
  5
1C3A6
  8
0
 62
     0
 10
13.04801363231287
 20
0.4804954567969837
 30
0.0
 11
9.8575090891135417
 21
3.6709999999963152
 31
0.0
  0
LINE
  5
1C3A7
  8
0
 62
     0
 10
8.6491874858084685
 20
4.2058023942212079
 30
0.0
 11
7.5734526971745844
 21
5.2815371828550894
 31
0.0
  0
LINE
  5
1C3A8
  8
0
 62
     0
 10
10.486589880032041
 20
2.3683999999976271
 30
0.0
 11
9.1839898800333586
 21
3.6709999999963152
 31
0.0
  0
LINE
  5
1C3A9
  8
0
 62
     0
 10
5.3968623647101772
 20
7.4581275153194957
 30
0.0
 11
4.3851460338715276
 21
8.4698438461581453
 31
0.0
  0
LINE
  5
1C3AA
  8
0
 62
     0
 10
12.85498988002967
 20
0.0000000000000036
 30
0.0
 11
10.776724564353451
 21
2.0782653156762221
 31
0.0
  0
LINE
  5
1C3AB
  8
0
 62
     0
 10
8.4410486322868046
 20
3.740422038662675
 30
0.0
 11
7.3652719173751144
 21
4.8161987535743647
 31
0.0
  0
LINE
  5
1C3AC
  8
0
 62
     0
 10
9.813070670951852
 20
2.3683999999976271
 30
0.0
 11
8.5104706709531648
 21
3.6709999999963152
 31
0.0
  0
LINE
  5
1C3AD
  8
0
 62
     0
 10
5.0987736098643914
 20
7.0826970610850877
 30
0.0
 11
4.0870494697762574
 21
8.0944212011732262
 31
0.0
  0
LINE
  5
1C3AE
  8
0
 62
     0
 10
12.181470670949469
 20
0.0000000000000036
 30
0.0
 11
11.321403329084941
 21
0.8600673418645357
 31
0.0
  0
LINE
  5
1C3AF
  8
0
 62
     0
 10
4.8006848550186119
 20
6.7072666068506797
 30
0.0
 11
3.788952905680989
 21
7.7189985561883034
 31
0.0
  0
LINE
  5
1C3B0
  8
0
 62
     0
 10
9.1395514618716671
 20
2.368399999997624
 30
0.0
 11
7.1570911375756507
 21
4.3508603242936408
 31
0.0
  0
LINE
  5
1C3B1
  8
0
 62
     0
 10
4.5025961001728367
 20
6.3318361526162716
 30
0.0
 11
3.490856341585729
 21
7.3435759112033798
 31
0.0
  0
LINE
  5
1C3B2
  8
0
 62
     0
 10
8.4660322527914822
 20
2.3683999999976271
 30
0.0
 11
6.9489103577761924
 21
3.8855218950129169
 31
0.0
  0
LINE
  5
1C3B3
  8
0
 62
     0
 10
4.2045073453270581
 20
5.9564056983818681
 30
0.0
 11
3.1927597774904579
 21
6.9681532662184678
 31
0.0
  0
LINE
  5
1C3B4
  8
0
 62
     0
 10
7.8163375605411778
 20
2.3445754831677479
 30
0.0
 11
6.7407295779767287
 21
3.420183465732197
 31
0.0
  0
LINE
  5
1C3B5
  8
0
 62
     0
 10
3.9064185904812798
 20
5.58097524414746
 30
0.0
 11
2.8946632133951939
 21
6.5927306212335486
 31
0.0
  0
LINE
  5
1C3B6
  8
0
 62
     0
 10
7.608103533524992
 20
1.879290301103747
 30
0.0
 11
6.5325487981772703
 21
2.95484503645147
 31
0.0
  0
LINE
  5
1C3B7
  8
0
 62
     0
 10
3.608329835635494
 20
5.2055447899130591
 30
0.0
 11
2.596566649299926
 21
6.2173079762486259
 31
0.0
  0
LINE
  5
1C3B8
  8
0
 62
     0
 10
7.3998695065088071
 20
1.414005119039746
 30
0.0
 11
6.3243680183778066
 21
2.4895066071707461
 31
0.0
  0
LINE
  5
1C3B9
  8
0
 62
     0
 10
3.3102410807897189
 20
4.830114335678644
 30
0.0
 11
2.2984700852046478
 21
5.8418853312637138
 31
0.0
  0
LINE
  5
1C3BA
  8
0
 62
     0
 10
7.1916354794926098
 20
0.9487199369757526
 30
0.0
 11
6.1161872385783367
 21
2.0241681778900249
 31
0.0
  0
LINE
  5
1C3BB
  8
0
 62
     0
 10
3.9787458917354419
 20
3.488090315652737
 30
0.0
 11
2.0003735211093878
 21
5.4664626862787946
 31
0.0
  0
LINE
  5
1C3BC
  8
0
 62
     0
 10
6.9834014524764241
 20
0.4834347549117553
 30
0.0
 11
5.9080064587788739
 21
1.558829748609309
 31
0.0
  0
LINE
  5
1C3BD
  8
0
 62
     0
 10
5.377063484962445
 20
1.4162535133455481
 30
0.0
 11
1.702276957014117
 21
5.091040041293879
 31
0.0
  0
LINE
  5
1C3BE
  8
0
 62
     0
 10
6.7751674254602392
 20
0.0181495728477543
 30
0.0
 11
5.6998256789794146
 21
1.093491319328578
 31
0.0
  0
LINE
  5
1C3BF
  8
0
 62
     0
 10
6.1197977892278033
 20
0.0
 30
0.0
 11
1.4998967256424749
 21
4.6199010635853313
 31
0.0
  0
LINE
  5
1C3C0
  8
0
 62
     0
 10
5.446278580147613
 20
0.0000000000000036
 30
0.0
 11
2.8981959083357078
 21
2.5480826718119109
 31
0.0
  0
LINE
  5
1C3C1
  8
0
 62
     0
 10
4.7727593710674334
 20
0.0
 30
0.0
 11
4.2964950910289303
 21
0.4762642800385031
 31
0.0
  0
LINE
  5
1C3C2
  8
0
 62
     0
 10
13.00415357385187
 20
-0.0000000000000018
 30
0.0
 11
13.182966351006311
 21
0.1788127771544303
 31
0.0
  0
LINE
  5
1C3C3
  8
0
 62
     0
 10
12.330634364771679
 20
-0.0000000000000018
 30
0.0
 11
12.9747989676379
 21
0.6441646028662138
 31
0.0
  0
LINE
  5
1C3C4
  8
0
 62
     0
 10
11.690865076542529
 20
0.0337499208510312
 30
0.0
 11
12.766631584269501
 21
1.109516428577997
 31
0.0
  0
LINE
  5
1C3C5
  8
0
 62
     0
 10
11.482766800126511
 20
0.4991708535151976
 30
0.0
 11
12.55846420090109
 21
1.5748682542897781
 31
0.0
  0
LINE
  5
1C3C6
  8
0
 62
     0
 10
11.27466852371049
 20
0.9645917861793603
 30
0.0
 11
12.350296817532691
 21
2.040220080001558
 31
0.0
  0
LINE
  5
1C3C7
  8
0
 62
     0
 10
11.06657024729447
 20
1.430012718843531
 30
0.0
 11
12.142129434164289
 21
2.5055719057133472
 31
0.0
  0
LINE
  5
1C3C8
  8
0
 62
     0
 10
10.858471970878449
 20
1.8954336515076911
 30
0.0
 11
11.933962050795881
 21
2.9709237314251289
 31
0.0
  0
LINE
  5
1C3C9
  8
0
 62
     0
 10
10.650373694462431
 20
2.3608545841718618
 30
0.0
 11
11.725794667427479
 21
3.436275557136911
 31
0.0
  0
LINE
  5
1C3CA
  8
0
 62
     0
 10
9.9843999012080111
 20
2.3683999999976271
 30
0.0
 11
11.517627284059071
 21
3.9016273828486918
 31
0.0
  0
LINE
  5
1C3CB
  8
0
 62
     0
 10
9.3108806921278227
 20
2.368399999997624
 30
0.0
 11
11.309459900690671
 21
4.3669792085604717
 31
0.0
  0
LINE
  5
1C3CC
  8
0
 62
     0
 10
8.6373614830476342
 20
2.3683999999976222
 30
0.0
 11
9.9399614830463161
 21
3.6709999999963041
 31
0.0
  0
LINE
  5
1C3CD
  8
0
 62
     0
 10
10.02566815382859
 20
3.756706670778577
 30
0.0
 11
11.101292517322261
 21
4.8323310342722561
 31
0.0
  0
LINE
  5
1C3CE
  8
0
 62
     0
 10
6.2689614830500089
 20
-0.0000000000000036
 30
0.0
 11
7.1705359785639722
 21
0.9015744955139624
 31
0.0
  0
LINE
  5
1C3CF
  8
0
 62
     0
 10
7.9638422739674493
 20
2.368399999997624
 30
0.0
 11
9.2664422739661312
 21
3.670999999996309
 31
0.0
  0
LINE
  5
1C3D0
  8
0
 62
     0
 10
9.8175293003069317
 20
4.2220870263371078
 30
0.0
 11
10.893125133953861
 21
5.2976828599840413
 31
0.0
  0
LINE
  5
1C3D1
  8
0
 62
     0
 10
5.5954422739698186
 20
-0.0000000000000036
 30
0.0
 11
7.7161457314298563
 21
2.120703457460031
 31
0.0
  0
LINE
  5
1C3D2
  8
0
 62
     0
 10
9.6093904467852731
 20
4.6874673818956341
 30
0.0
 11
10.68495775058545
 21
5.7630346856958168
 31
0.0
  0
LINE
  5
1C3D3
  8
0
 62
     0
 10
4.9219230648896364
 20
-0.0000000000000036
 30
0.0
 11
8.5929230648859445
 21
3.6709999999963059
 31
0.0
  0
LINE
  5
1C3D4
  8
0
 62
     0
 10
5.9895866546067298
 20
1.741182798797277
 30
0.0
 11
8.8069504072332272
 21
4.5585465514237731
 31
0.0
  0
LINE
  5
1C3D5
  8
0
 62
     0
 10
9.4012515932636127
 20
5.1528477374541568
 30
0.0
 11
10.47679036721706
 21
6.228386511407602
 31
0.0
  0
LINE
  5
1C3D6
  8
0
 62
     0
 10
4.4690293080327272
 20
0.220625452223274
 30
0.0
 11
5.4929510052665789
 21
1.2445471494571221
 31
0.0
  0
LINE
  5
1C3D7
  8
0
 62
     0
 10
6.5348309996187073
 20
2.9599463528894439
 30
0.0
 11
10.268622983848649
 21
6.6937383371193881
 31
0.0
  0
LINE
  5
1C3D8
  8
0
 62
     0
 10
4.1976317719622713
 20
0.6227471252330084
 30
0.0
 11
5.2215527756531692
 21
1.646668128923906
 31
0.0
  0
LINE
  5
1C3D9
  8
0
 62
     0
 10
7.0800753446306919
 20
4.1787099069816112
 30
0.0
 11
10.06045560048025
 21
7.1590901628311663
 31
0.0
  0
LINE
  5
1C3DA
  8
0
 62
     0
 10
3.9262342358918261
 20
1.024868798242742
 30
0.0
 11
4.9501545460397622
 21
2.048789108390682
 31
0.0
  0
LINE
  5
1C3DB
  8
0
 62
     0
 10
7.6253196896426738
 20
5.3974734610737833
 30
0.0
 11
9.8522882171118429
 21
7.6244419885429506
 31
0.0
  0
LINE
  5
1C3DC
  8
0
 62
     0
 10
3.6548366998213728
 20
1.4269904712524799
 30
0.0
 11
4.6787563164263526
 21
2.4509100878574621
 31
0.0
  0
LINE
  5
1C3DD
  8
0
 62
     0
 10
8.1705640346546602
 20
6.6162370151659511
 30
0.0
 11
9.6441208337434432
 21
8.0897938142547368
 31
0.0
  0
LINE
  5
1C3DE
  8
0
 62
     0
 10
3.3834391637509209
 20
1.829112144262214
 30
0.0
 11
4.4073580868129509
 21
2.8530310673242449
 31
0.0
  0
LINE
  5
1C3DF
  8
0
 62
     0
 10
8.7158083796666457
 20
7.8350005692581242
 30
0.0
 11
9.4359534503750382
 21
8.5551456399665184
 31
0.0
  0
LINE
  5
1C3E0
  8
0
 62
     0
 10
3.1120416276804721
 20
2.2312338172719488
 30
0.0
 11
4.135959857199544
 21
3.2551520467910229
 31
0.0
  0
LINE
  5
1C3E1
  8
0
 62
     0
 10
2.8406440916100268
 20
2.6333554902816898
 30
0.0
 11
3.8645616275861392
 21
3.6572730262578061
 31
0.0
  0
LINE
  5
1C3E2
  8
0
 62
     0
 10
2.569246555539574
 20
3.0354771632914281
 30
0.0
 11
3.5931633979727291
 21
4.0593940057245801
 31
0.0
  0
LINE
  5
1C3E3
  8
0
 62
     0
 10
2.2978490194691221
 20
3.4375988363011589
 30
0.0
 11
3.3217651683593248
 21
4.4615149851913642
 31
0.0
  0
LINE
  5
1C3E4
  8
0
 62
     0
 10
2.0264514833986729
 20
3.8397205093108968
 30
0.0
 11
4.4410409048522244
 21
6.2543099307644487
 31
0.0
  0
LINE
  5
1C3E5
  8
0
 62
     0
 10
1.755053947328221
 20
4.2418421823206351
 30
0.0
 11
6.2763117649988143
 21
8.7630999999912262
 31
0.0
  0
LINE
  5
1C3E6
  8
0
 62
     0
 10
1.4836564112577759
 20
4.6439638553303757
 30
0.0
 11
5.6027925559186293
 21
8.763099999991228
 31
0.0
  0
LINE
  5
1C3E7
  8
0
 62
     0
 10
3.4180230436981311
 20
7.2518496968509156
 30
0.0
 11
4.92927334683844
 21
8.7630999999912262
 31
0.0
  0
ENDBLK
  5
1C3E9
  8
0
  0
BLOCK
  8
0
  2
*X79
 70
     1
 10
0.0
 20
0.0
 30
0.0
  3
*X79
  1

  0
LINE
  5
1C3EB
  8
0
 62
     0
 10
22.35085874201091
 20
8.6891497831837885
 30
0.0
 11
22.276908525203481
 21
8.7630999999912245
 31
0.0
  0
LINE
  5
1C3EC
  8
0
 62
     0
 10
22.151277991235791
 20
8.2152113248787302
 30
0.0
 11
21.603389316123291
 21
8.7630999999912298
 31
0.0
  0
LINE
  5
1C3ED
  8
0
 62
     0
 10
21.951697240460661
 20
7.7412728665736728
 30
0.0
 11
20.929870107043101
 21
8.7630999999912333
 31
0.0
  0
LINE
  5
1C3EE
  8
0
 62
     0
 10
21.75211648968552
 20
7.2673344082686171
 30
0.0
 11
20.702990440798828
 21
8.316460457155312
 31
0.0
  0
LINE
  5
1C3EF
  8
0
 62
     0
 10
21.5525357389104
 20
6.7933959499635597
 30
0.0
 11
20.503465933167231
 21
7.8424657557067263
 31
0.0
  0
LINE
  5
1C3F0
  8
0
 62
     0
 10
21.35295498813527
 20
6.3194574916584996
 30
0.0
 11
20.30394142553563
 21
7.3684710542581371
 31
0.0
  0
LINE
  5
1C3F1
  8
0
 62
     0
 10
21.15337423736014
 20
5.845519033353443
 30
0.0
 11
20.104416917904029
 21
6.8944763528095541
 31
0.0
  0
LINE
  5
1C3F2
  8
0
 62
     0
 10
20.95379348658501
 20
5.3715805750483874
 30
0.0
 11
19.904892410272438
 21
6.4204816513609622
 31
0.0
  0
LINE
  5
1C3F3
  8
0
 62
     0
 10
20.75421273580988
 20
4.8976421167433299
 30
0.0
 11
19.70536790264083
 21
5.9464869499123756
 31
0.0
  0
LINE
  5
1C3F4
  8
0
 62
     0
 10
16.751727645058011
 20
8.2266079984150124
 30
0.0
 11
16.329146420583751
 21
8.6491892228892837
 31
0.0
  0
LINE
  5
1C3F5
  8
0
 62
     0
 10
20.554631985034749
 20
4.4237036584382743
 30
0.0
 11
19.50584339500924
 21
5.4724922484637899
 31
0.0
  0
LINE
  5
1C3F6
  8
0
 62
     0
 10
17.157498711507898
 20
7.1473177228849449
 30
0.0
 11
16.1451172495203
 21
8.1596991848725438
 31
0.0
  0
LINE
  5
1C3F7
  8
0
 62
     0
 10
20.355051234259619
 20
3.9497652001332169
 30
0.0
 11
19.306318887377628
 21
4.9984975470152051
 31
0.0
  0
LINE
  5
1C3F8
  8
0
 62
     0
 10
17.563269777957782
 20
6.0680274473548748
 30
0.0
 11
15.96108807845685
 21
7.6702091468558073
 31
0.0
  0
LINE
  5
1C3F9
  8
0
 62
     0
 10
20.1554704834845
 20
3.4758267418281572
 30
0.0
 11
19.106794379746042
 21
4.524502845566615
 31
0.0
  0
LINE
  5
1C3FA
  8
0
 62
     0
 10
17.969040844407651
 20
4.9887371718248117
 30
0.0
 11
15.777058907393389
 21
7.1807191088390701
 31
0.0
  0
LINE
  5
1C3FB
  8
0
 62
     0
 10
19.955889732709359
 20
3.0018882835231011
 30
0.0
 11
18.90726987211443
 21
4.0505081441180302
 31
0.0
  0
LINE
  5
1C3FC
  8
0
 62
     0
 10
18.374811910857531
 20
3.9094468962947531
 30
0.0
 11
15.593029736329941
 21
6.6912290708223408
 31
0.0
  0
LINE
  5
1C3FD
  8
0
 62
     0
 10
19.756308981934229
 20
2.5279498252180441
 30
0.0
 11
18.707745364482829
 21
3.576513442669444
 31
0.0
  0
LINE
  5
1C3FE
  8
0
 62
     0
 10
16.383620680228649
 20
5.2271189178434412
 30
0.0
 11
15.40900056526649
 21
6.2017390328056008
 31
0.0
  0
LINE
  5
1C3FF
  8
0
 62
     0
 10
19.556728231159099
 20
2.054011366912988
 30
0.0
 11
16.631513964169631
 21
4.9792256339024661
 31
0.0
  0
LINE
  5
1C400
  8
0
 62
     0
 10
16.199567903464452
 20
4.7376524855274553
 30
0.0
 11
15.22497139420304
 21
5.7122489947888679
 31
0.0
  0
LINE
  5
1C401
  8
0
 62
     0
 10
19.357147480383979
 20
1.580072908607931
 30
0.0
 11
17.037094792289292
 21
3.900125596702618
 31
0.0
  0
LINE
  5
1C402
  8
0
 62
     0
 10
16.015515126700251
 20
4.248186053211473
 30
0.0
 11
15.04094222313959
 21
5.222758956772128
 31
0.0
  0
LINE
  5
1C403
  8
0
 62
     0
 10
12.41513331849073
 20
7.8485678614209879
 30
0.0
 11
11.500601179920491
 21
8.7630999999912298
 31
0.0
  0
LINE
  5
1C404
  8
0
 62
     0
 10
19.157566729608849
 20
1.1061344503028709
 30
0.0
 11
17.442675620408959
 21
2.8210255595027638
 31
0.0
  0
LINE
  5
1C405
  8
0
 62
     0
 10
15.83146234993605
 20
3.7587196208954872
 30
0.0
 11
14.856913052076131
 21
4.7332689187553987
 31
0.0
  0
LINE
  5
1C406
  8
0
 62
     0
 10
12.905113043106191
 20
6.685068927725343
 30
0.0
 11
10.8270819708403
 21
8.7630999999912298
 31
0.0
  0
LINE
  5
1C407
  8
0
 62
     0
 10
18.957985978833712
 20
0.6321959919978184
 30
0.0
 11
17.848256448528609
 21
1.7419255223029211
 31
0.0
  0
LINE
  5
1C408
  8
0
 62
     0
 10
15.64740957317184
 20
3.269253188579504
 30
0.0
 11
14.67288388101268
 21
4.2437788807386703
 31
0.0
  0
LINE
  5
1C409
  8
0
 62
     0
 10
13.39509276772166
 20
5.5215699940296901
 30
0.0
 11
10.81938524622541
 21
8.0972775155259402
 31
0.0
  0
LINE
  5
1C40A
  8
0
 62
     0
 10
18.758405228058589
 20
0.1582575336927618
 30
0.0
 11
18.25383727664828
 21
0.6628254851030704
 31
0.0
  0
LINE
  5
1C40B
  8
0
 62
     0
 10
13.88507249233713
 20
4.3580710603340327
 30
0.0
 11
11.309334920393139
 21
6.9338086322780192
 31
0.0
  0
LINE
  5
1C40C
  8
0
 62
     0
 10
15.463356796407639
 20
2.7797867562635221
 30
0.0
 11
14.48885470994923
 21
3.7542888427219259
 31
0.0
  0
LINE
  5
1C40D
  8
0
 62
     0
 10
15.27930401964343
 20
2.2903203239475398
 30
0.0
 11
11.799284594560859
 21
5.7703397490301027
 31
0.0
  0
LINE
  5
1C40E
  8
0
 62
     0
 10
15.095251242879231
 20
1.8008538916315571
 30
0.0
 11
12.289234268728601
 21
4.6068708657821844
 31
0.0
  0
LINE
  5
1C40F
  8
0
 62
     0
 10
14.91119846611503
 20
1.3113874593155721
 30
0.0
 11
12.77918394289633
 21
3.4434019825342679
 31
0.0
  0
LINE
  5
1C410
  8
0
 62
     0
 10
14.727145689350831
 20
0.8219210269995863
 30
0.0
 11
13.26913361706406
 21
2.2799330992863531
 31
0.0
  0
LINE
  5
1C411
  8
0
 62
     0
 10
14.543092912586619
 20
0.3324545946836075
 30
0.0
 11
13.759083291231789
 21
1.116464216038433
 31
0.0
  0
LINE
  5
1C412
  8
0
 62
     0
 10
14.35904013582242
 20
-0.1570118376323784
 30
0.0
 11
14.24903296539952
 21
-0.0470046672094817
 31
0.0
  0
LINE
  5
1C413
  8
0
 62
     0
 10
18.472732853319201
 20
0.0804256068258322
 30
0.0
 11
18.909598183420702
 21
0.5172909369273402
 31
0.0
  0
LINE
  5
1C414
  8
0
 62
     0
 10
18.288742822226251
 20
0.5699547848130706
 30
0.0
 11
19.399547857588441
 21
1.6807598201752609
 31
0.0
  0
LINE
  5
1C415
  8
0
 62
     0
 10
18.104752791133301
 20
1.0594839628003101
 30
0.0
 11
19.88949753175617
 21
2.8442287034231848
 31
0.0
  0
LINE
  5
1C416
  8
0
 62
     0
 10
17.920762760040351
 20
1.5490131407875469
 30
0.0
 11
20.37944720592391
 21
4.0076975866711049
 31
0.0
  0
LINE
  5
1C417
  8
0
 62
     0
 10
17.7367727289474
 20
2.03854231877478
 30
0.0
 11
20.869396880091649
 21
5.1711664699190258
 31
0.0
  0
LINE
  5
1C418
  8
0
 62
     0
 10
18.78517998154943
 20
3.7604687804569989
 30
0.0
 11
21.359346554259389
 21
6.3346353531669521
 31
0.0
  0
LINE
  5
1C419
  8
0
 62
     0
 10
17.552782697854461
 20
2.5280714967620241
 30
0.0
 11
18.527644990681829
 21
3.5029337895893979
 31
0.0
  0
LINE
  5
1C41A
  8
0
 62
     0
 10
17.368792666761511
 20
3.0176006747492572
 30
0.0
 11
18.343615819618378
 21
3.992423827606133
 31
0.0
  0
LINE
  5
1C41B
  8
0
 62
     0
 10
19.274790844948878
 20
4.923598852936629
 30
0.0
 11
21.849296228427121
 21
7.4981042364148713
 31
0.0
  0
LINE
  5
1C41C
  8
0
 62
     0
 10
14.26537659496468
 20
-0.0858153970475737
 30
0.0
 11
14.458390432740149
 21
0.1071984407278972
 31
0.0
  0
LINE
  5
1C41D
  8
0
 62
     0
 10
17.184802635668561
 20
3.5071298527365
 30
0.0
 11
18.159586648554932
 21
4.481913865622869
 31
0.0
  0
LINE
  5
1C41E
  8
0
 62
     0
 10
19.76440170834832
 20
6.0867289254162618
 30
0.0
 11
22.339245902594861
 21
8.6615731196627976
 31
0.0
  0
LINE
  5
1C41F
  8
0
 62
     0
 10
14.065795844189539
 20
0.3881230612574828
 30
0.0
 11
14.864276280939301
 21
1.1866034980072371
 31
0.0
  0
LINE
  5
1C420
  8
0
 62
     0
 10
17.000812604575611
 20
3.9966590307237371
 30
0.0
 11
17.975557477491481
 21
4.9714039036396018
 31
0.0
  0
LINE
  5
1C421
  8
0
 62
     0
 10
20.254012571747769
 20
7.2498589978958936
 30
0.0
 11
21.76725357384311
 21
8.7630999999912262
 31
0.0
  0
LINE
  5
1C422
  8
0
 62
     0
 10
13.86621509341442
 20
0.8620615195625411
 30
0.0
 11
15.27016212913845
 21
2.266008555286573
 31
0.0
  0
LINE
  5
1C423
  8
0
 62
     0
 10
16.816822573482661
 20
4.4861882087109741
 30
0.0
 11
17.791528306428031
 21
5.46089394165634
 31
0.0
  0
LINE
  5
1C424
  8
0
 62
     0
 10
20.743623435147221
 20
8.4129890703755272
 30
0.0
 11
21.09373436476292
 21
8.7630999999912262
 31
0.0
  0
LINE
  5
1C425
  8
0
 62
     0
 10
13.66663434263929
 20
1.3359999778676039
 30
0.0
 11
15.6760479773376
 21
3.3454136125659151
 31
0.0
  0
LINE
  5
1C426
  8
0
 62
     0
 10
16.632832542389721
 20
4.9757173866982116
 30
0.0
 11
17.607499135364581
 21
5.9503839796730746
 31
0.0
  0
LINE
  5
1C427
  8
0
 62
     0
 10
13.467053591864159
 20
1.8099384361726569
 30
0.0
 11
16.081933825536751
 21
4.4248186698452487
 31
0.0
  0
LINE
  5
1C428
  8
0
 62
     0
 10
14.338823056022481
 20
3.355227109411163
 30
0.0
 11
17.42346996430113
 21
6.439874017689811
 31
0.0
  0
LINE
  5
1C429
  8
0
 62
     0
 10
13.267472841089029
 20
2.283876894477717
 30
0.0
 11
14.316709015467771
 21
3.3331130688564552
 31
0.0
  0
LINE
  5
1C42A
  8
0
 62
     0
 10
14.74459412247235
 20
4.4345173849412234
 30
0.0
 11
17.23944079323768
 21
6.9293640557065457
 31
0.0
  0
LINE
  5
1C42B
  8
0
 62
     0
 10
13.067892090313901
 20
2.757815352782774
 30
0.0
 11
14.11712327849466
 21
3.807046540963531
 31
0.0
  0
LINE
  5
1C42C
  8
0
 62
     0
 10
15.15036518892223
 20
5.5138076604712882
 30
0.0
 11
17.055411622174219
 21
7.4188540937232821
 31
0.0
  0
LINE
  5
1C42D
  8
0
 62
     0
 10
12.86831133953878
 20
3.231753811087839
 30
0.0
 11
13.917537541521551
 21
4.2809800130706073
 31
0.0
  0
LINE
  5
1C42E
  8
0
 62
     0
 10
15.55613625537211
 20
6.5930979360013513
 30
0.0
 11
16.871382451110769
 21
7.908344131740014
 31
0.0
  0
LINE
  5
1C42F
  8
0
 62
     0
 10
12.668730588763649
 20
3.7056922693928889
 30
0.0
 11
13.71795180454844
 21
4.7549134851776813
 31
0.0
  0
LINE
  5
1C430
  8
0
 62
     0
 10
15.96190732182199
 20
7.6723882115314179
 30
0.0
 11
16.687353280047319
 21
8.3978341697567522
 31
0.0
  0
LINE
  5
1C431
  8
0
 62
     0
 10
12.469149837988519
 20
4.1796307276979494
 30
0.0
 11
13.518366067575331
 21
5.228846957284758
 31
0.0
  0
LINE
  5
1C432
  8
0
 62
     0
 10
16.367678388271859
 20
8.7516784870614792
 30
0.0
 11
16.503324108983868
 21
8.8873242077734886
 31
0.0
  0
LINE
  5
1C433
  8
0
 62
     0
 10
12.269569087213389
 20
4.6535691860030042
 30
0.0
 11
13.31878033060222
 21
5.7027804293918312
 31
0.0
  0
LINE
  5
1C434
  8
0
 62
     0
 10
12.069988336438261
 20
5.127507644308066
 30
0.0
 11
13.119194593629111
 21
6.1767139014989079
 31
0.0
  0
LINE
  5
1C435
  8
0
 62
     0
 10
11.870407585663131
 20
5.6014461026131244
 30
0.0
 11
12.919608856655991
 21
6.6506473736059819
 31
0.0
  0
LINE
  5
1C436
  8
0
 62
     0
 10
11.670826834888009
 20
6.0753845609181818
 30
0.0
 11
12.72002311968288
 21
7.1245808457130604
 31
0.0
  0
LINE
  5
1C437
  8
0
 62
     0
 10
11.47124608411287
 20
6.5493230192232348
 30
0.0
 11
12.520437382709771
 21
7.5985143178201344
 31
0.0
  0
LINE
  5
1C438
  8
0
 62
     0
 10
11.271665333337751
 20
7.0232614775282949
 30
0.0
 11
12.32085164573666
 21
8.0724477899272067
 31
0.0
  0
LINE
  5
1C439
  8
0
 62
     0
 10
11.072084582562621
 20
7.4971999358333523
 30
0.0
 11
12.121265908763551
 21
8.5463812620342843
 31
0.0
  0
LINE
  5
1C43A
  8
0
 62
     0
 10
10.87250383178749
 20
7.9711383941384097
 30
0.0
 11
11.66446543764031
 21
8.7630999999912262
 31
0.0
  0
LINE
  5
1C43B
  8
0
 62
     0
 10
10.67292308101236
 20
8.4450768524434672
 30
0.0
 11
10.99094622856011
 21
8.7630999999912245
 31
0.0
  0
ENDBLK
  5
1C43D
  8
0
  0
BLOCK
  8
0
  2
*X80
 70
     1
 10
0.0
 20
0.0
 30
0.0
  3
*X80
  1

  0
LINE
  5
1C43F
  8
0
 62
     0
 10
30.741999999969259
 20
8.3802390341876851
 30
0.0
 11
30.359139034165711
 21
8.7630999999912333
 31
0.0
  0
LINE
  5
1C440
  8
0
 62
     0
 10
30.741999999969259
 20
7.7067198251075002
 30
0.0
 11
29.685619825085521
 21
8.7630999999912316
 31
0.0
  0
LINE
  5
1C441
  8
0
 62
     0
 10
30.741999999969249
 20
7.0332006160273179
 30
0.0
 11
29.301999999969301
 21
8.4732006160272721
 31
0.0
  0
LINE
  5
1C442
  8
0
 62
     0
 10
30.741999999969241
 20
6.3596814069471366
 30
0.0
 11
29.30199999996929
 21
7.7996814069470846
 31
0.0
  0
LINE
  5
1C443
  8
0
 62
     0
 10
30.741999999969241
 20
5.6861621978669517
 30
0.0
 11
29.301999999969301
 21
7.1261621978668996
 31
0.0
  0
LINE
  5
1C444
  8
0
 62
     0
 10
30.741999999969241
 20
5.0126429887867694
 30
0.0
 11
29.30199999996929
 21
6.45264298878672
 31
0.0
  0
LINE
  5
1C445
  8
0
 62
     0
 10
30.741999999969241
 20
4.3391237797065862
 30
0.0
 11
29.301999999969301
 21
5.7791237797065298
 31
0.0
  0
LINE
  5
1C446
  8
0
 62
     0
 10
30.741999999969231
 20
3.6656045706263991
 30
0.0
 11
29.30199999996929
 21
5.1056045706263431
 31
0.0
  0
LINE
  5
1C447
  8
0
 62
     0
 10
30.741999999969231
 20
2.9920853615462182
 30
0.0
 11
29.30199999996929
 21
4.4320853615461591
 31
0.0
  0
LINE
  5
1C448
  8
0
 62
     0
 10
30.74137885356642
 20
2.3191872988688451
 30
0.0
 11
29.30199999996929
 21
3.7585661524659741
 31
0.0
  0
LINE
  5
1C449
  8
0
 62
     0
 10
23.710791431224379
 20
8.6762555121307035
 30
0.0
 11
23.510711655846691
 21
8.8763352875083879
 31
0.0
  0
LINE
  5
1C44A
  8
0
 62
     0
 10
30.653036364041888
 20
1.7340105793131939
 30
0.0
 11
29.301999999969301
 21
3.0850469433857848
 31
0.0
  0
LINE
  5
1C44B
  8
0
 62
     0
 10
24.25604244399905
 20
7.4574852902758373
 30
0.0
 11
23.302508550376061
 21
8.4110191838988264
 31
0.0
  0
LINE
  5
1C44C
  8
0
 62
     0
 10
30.457920628587861
 20
1.2556071056870299
 30
0.0
 11
29.30199999996929
 21
2.4115277343055999
 31
0.0
  0
LINE
  5
1C44D
  8
0
 62
     0
 10
24.801293456773731
 20
6.2387150684209711
 30
0.0
 11
23.094305444905441
 21
7.9457030802892676
 31
0.0
  0
LINE
  5
1C44E
  8
0
 62
     0
 10
30.183774082486231
 20
0.8562344427084749
 30
0.0
 11
29.190608894965969
 21
1.8493996302287361
 31
0.0
  0
LINE
  5
1C44F
  8
0
 62
     0
 10
25.346544469548409
 20
5.0199448465661041
 30
0.0
 11
22.8861023394348
 21
7.4803869766797142
 31
0.0
  0
LINE
  5
1C450
  8
0
 62
     0
 10
29.839662784186881
 20
0.526826531927636
 30
0.0
 11
28.85882922779124
 21
1.5076600883232769
 31
0.0
  0
LINE
  5
1C451
  8
0
 62
     0
 10
25.89179548232309
 20
3.8011746247112401
 30
0.0
 11
22.677899233964169
 21
7.0150708730701608
 31
0.0
  0
LINE
  5
1C452
  8
0
 62
     0
 10
29.42460021066384
 20
0.2683698963704924
 30
0.0
 11
28.30987010704311
 21
1.383099999991223
 31
0.0
  0
LINE
  5
1C453
  8
0
 62
     0
 10
26.437046495097771
 20
2.5824044028563722
 30
0.0
 11
23.619927020197391
 21
5.399523877756752
 31
0.0
  0
LINE
  5
1C454
  8
0
 62
     0
 10
23.545403308011299
 20
5.4740475899428409
 30
0.0
 11
22.469696128493538
 21
6.5497547694606011
 31
0.0
  0
LINE
  5
1C455
  8
0
 62
     0
 10
28.926753096604909
 20
0.0926978013492281
 30
0.0
 11
27.636350897962942
 21
1.3830999999912019
 31
0.0
  0
LINE
  5
1C456
  8
0
 62
     0
 10
23.337264454489642
 20
5.008667234384319
 30
0.0
 11
22.261493023022911
 21
6.084438665851045
 31
0.0
  0
LINE
  5
1C457
  8
0
 62
     0
 10
28.312831688882731
 20
0.0330999999912241
 30
0.0
 11
24.16488385994823
 21
4.1810478289257267
 31
0.0
  0
LINE
  5
1C458
  8
0
 62
     0
 10
23.129125600967981
 20
4.5432868788257892
 30
0.0
 11
22.053289917552281
 21
5.6191225622414862
 31
0.0
  0
LINE
  5
1C459
  8
0
 62
     0
 10
27.639312479802548
 20
0.0330999999912223
 30
0.0
 11
24.001412479797459
 21
3.6709999999963112
 31
0.0
  0
LINE
  5
1C45A
  8
0
 62
     0
 10
24.630493270715959
 20
2.368399999997624
 30
0.0
 11
23.327893270717269
 21
3.6709999999963112
 31
0.0
  0
LINE
  5
1C45B
  8
0
 62
     0
 10
22.920986747446321
 20
4.077906523267262
 30
0.0
 11
21.84508681208165
 21
5.1538064586319328
 31
0.0
  0
LINE
  5
1C45C
  8
0
 62
     0
 10
26.965793270722362
 20
0.0330999999912223
 30
0.0
 11
25.25541323119716
 21
1.7434800395164269
 31
0.0
  0
LINE
  5
1C45D
  8
0
 62
     0
 10
23.95697406163578
 20
2.368399999997624
 30
0.0
 11
21.63688370661102
 21
4.6884903550223767
 31
0.0
  0
LINE
  5
1C45E
  8
0
 62
     0
 10
26.292274061642178
 20
0.0330999999912223
 30
0.0
 11
25.800091995928678
 21
0.5252820657047224
 31
0.0
  0
LINE
  5
1C45F
  8
0
 62
     0
 10
23.283454852555579
 20
2.368399999997624
 30
0.0
 11
21.428680601140389
 21
4.2231742514128214
 31
0.0
  0
LINE
  5
1C460
  8
0
 62
     0
 10
22.609935643475399
 20
2.3683999999976271
 30
0.0
 11
21.220477495669758
 21
3.757858147803268
 31
0.0
  0
LINE
  5
1C461
  8
0
 62
     0
 10
22.088110666590779
 20
2.2167057678020612
 30
0.0
 11
21.012274390199131
 21
3.2925420441937092
 31
0.0
  0
LINE
  5
1C462
  8
0
 62
     0
 10
21.87987663957459
 20
1.75142058573806
 30
0.0
 11
20.804071284728501
 21
2.8272259405841531
 31
0.0
  0
LINE
  5
1C463
  8
0
 62
     0
 10
21.671642612558401
 20
1.286135403674066
 30
0.0
 11
20.59586817925787
 21
2.3619098369745961
 31
0.0
  0
LINE
  5
1C464
  8
0
 62
     0
 10
21.463408585542211
 20
0.820850221610069
 30
0.0
 11
20.38766507378724
 21
1.89659373336504
 31
0.0
  0
LINE
  5
1C465
  8
0
 62
     0
 10
21.255174558526019
 20
0.3555650395460681
 30
0.0
 11
20.179461968316609
 21
1.4312776297554839
 31
0.0
  0
LINE
  5
1C466
  8
0
 62
     0
 10
20.937220388991911
 20
0.0
 30
0.0
 11
19.971258862845978
 21
0.9659615261459286
 31
0.0
  0
LINE
  5
1C467
  8
0
 62
     0
 10
20.263701179911731
 20
-0.0000000000000036
 30
0.0
 11
19.763055757375351
 21
0.5006454225363691
 31
0.0
  0
LINE
  5
1C468
  8
0
 62
     0
 10
19.59018197083153
 20
0.0
 30
0.0
 11
19.55485265190471
 21
0.0353293189268129
 31
0.0
  0
LINE
  5
1C469
  8
0
 62
     0
 10
29.449030297223398
 20
0.2804157054470497
 30
0.0
 11
30.494684294513409
 21
1.326069702737052
 31
0.0
  0
LINE
  5
1C46A
  8
0
 62
     0
 10
28.531798056793392
 20
0.0367026740972145
 30
0.0
 11
30.738397325863239
 21
2.2433019431670731
 31
0.0
  0
LINE
  5
1C46B
  8
0
 62
     0
 10
27.854676173607199
 20
0.0330999999912205
 30
0.0
 11
30.741999999969231
 21
2.9204238263532529
 31
0.0
  0
LINE
  5
1C46C
  8
0
 62
     0
 10
29.291023385505738
 20
2.1429664209699419
 30
0.0
 11
30.741999999969241
 21
3.5939430354334392
 31
0.0
  0
LINE
  5
1C46D
  8
0
 62
     0
 10
27.181156964527009
 20
0.0330999999912178
 30
0.0
 11
28.542133578990569
 21
1.3940766144547789
 31
0.0
  0
LINE
  5
1C46E
  8
0
 62
     0
 10
29.301999999969301
 20
2.8274622445136872
 30
0.0
 11
30.741999999969241
 21
4.2674622445136281
 31
0.0
  0
LINE
  5
1C46F
  8
0
 62
     0
 10
26.507637755446829
 20
0.0330999999912196
 30
0.0
 11
27.85763775544682
 21
1.383099999991207
 31
0.0
  0
LINE
  5
1C470
  8
0
 62
     0
 10
29.30199999996929
 20
3.5009814535938699
 30
0.0
 11
30.741999999969241
 21
4.9409814535938184
 31
0.0
  0
LINE
  5
1C471
  8
0
 62
     0
 10
25.962675489584221
 20
0.1616569432088069
 30
0.0
 11
27.184118546366602
 21
1.3830999999911811
 31
0.0
  0
LINE
  5
1C472
  8
0
 62
     0
 10
29.30199999996929
 20
4.1745006626740588
 30
0.0
 11
30.741999999969241
 21
5.6145006626740086
 31
0.0
  0
LINE
  5
1C473
  8
0
 62
     0
 10
25.754577213168211
 20
0.6270778758729732
 30
0.0
 11
26.830480932483631
 21
1.7029815951884011
 31
0.0
  0
LINE
  5
1C474
  8
0
 62
     0
 10
29.30199999996929
 20
4.8480198717542438
 30
0.0
 11
30.741999999969241
 21
6.2880198717541962
 31
0.0
  0
LINE
  5
1C475
  8
0
 62
     0
 10
25.54647893675218
 20
1.0924988085371361
 30
0.0
 11
26.622299180662889
 21
2.1683190524478411
 31
0.0
  0
LINE
  5
1C476
  8
0
 62
     0
 10
29.301999999969301
 20
5.5215390808344331
 30
0.0
 11
30.741999999969249
 21
6.9615390808343891
 31
0.0
  0
LINE
  5
1C477
  8
0
 62
     0
 10
25.33838066033616
 20
1.5579197412012999
 30
0.0
 11
26.41411742884215
 21
2.6336565097072859
 31
0.0
  0
LINE
  5
1C478
  8
0
 62
     0
 10
29.301999999969301
 20
6.1950582899146172
 30
0.0
 11
30.741999999969259
 21
7.6350582899145767
 31
0.0
  0
LINE
  5
1C479
  8
0
 62
     0
 10
25.130282383920139
 20
2.02334067386546
 30
0.0
 11
26.205935677021401
 21
3.0989939669667259
 31
0.0
  0
LINE
  5
1C47A
  8
0
 62
     0
 10
29.301999999969301
 20
6.8685774989948047
 30
0.0
 11
30.741999999969259
 21
8.3085774989947652
 31
0.0
  0
LINE
  5
1C47B
  8
0
 62
     0
 10
24.801822500972111
 20
2.368399999997624
 30
0.0
 11
25.997753925200652
 21
3.5643314242261681
 31
0.0
  0
LINE
  5
1C47C
  8
0
 62
     0
 10
29.301999999969301
 20
7.5420967080749897
 30
0.0
 11
30.52300329188553
 21
8.763099999991228
 31
0.0
  0
LINE
  5
1C47D
  8
0
 62
     0
 10
24.128303291891928
 20
2.3683999999976222
 30
0.0
 11
25.789572173379909
 21
4.0296688814856072
 31
0.0
  0
LINE
  5
1C47E
  8
0
 62
     0
 10
23.454784082811742
 20
2.368399999997624
 30
0.0
 11
25.58139042155916
 21
4.4950063387450481
 31
0.0
  0
LINE
  5
1C47F
  8
0
 62
     0
 10
29.301999999969301
 20
8.2156159171551781
 30
0.0
 11
29.84948408280534
 21
8.763099999991228
 31
0.0
  0
LINE
  5
1C480
  8
0
 62
     0
 10
21.08638408281411
 20
-0.0000000000000018
 30
0.0
 11
21.103870746784189
 21
0.0174866639700735
 31
0.0
  0
LINE
  5
1C481
  8
0
 62
     0
 10
22.781264873731551
 20
2.3683999999976209
 30
0.0
 11
24.083864873730239
 21
3.6709999999963099
 31
0.0
  0
LINE
  5
1C482
  8
0
 62
     0
 10
24.297467415466471
 20
3.8846025417325389
 30
0.0
 11
25.373208669738421
 21
4.960343796004488
 31
0.0
  0
LINE
  5
1C483
  8
0
 62
     0
 10
20.41286487373392
 20
-0.0000000000000036
 30
0.0
 11
21.64948049965006
 21
1.2366156259161309
 31
0.0
  0
LINE
  5
1C484
  8
0
 62
     0
 10
24.089328561944811
 20
4.3499828972910661
 30
0.0
 11
25.165026917917672
 21
5.4256812532639316
 31
0.0
  0
LINE
  5
1C485
  8
0
 62
     0
 10
19.73934566465374
 20
0.0
 30
0.0
 11
23.410345664650048
 21
3.670999999996309
 31
0.0
  0
LINE
  5
1C486
  8
0
 62
     0
 10
23.88118970842314
 20
4.8153632528495853
 30
0.0
 11
24.956845166096929
 21
5.8910187105233707
 31
0.0
  0
LINE
  5
1C487
  8
0
 62
     0
 10
19.922244030410109
 20
0.8564175748365538
 30
0.0
 11
22.740758654927749
 21
3.6749321993541981
 31
0.0
  0
LINE
  5
1C488
  8
0
 62
     0
 10
23.673050854901479
 20
5.2807436084081099
 30
0.0
 11
24.74866341427618
 21
6.3563561677828151
 31
0.0
  0
LINE
  5
1C489
  8
0
 62
     0
 10
20.467641547998259
 20
2.0753343015048951
 30
0.0
 11
23.285715494678559
 21
4.8934082481851924
 31
0.0
  0
LINE
  5
1C48A
  8
0
 62
     0
 10
21.013039065586419
 20
3.2942510281732309
 30
0.0
 11
24.540481662455441
 21
6.8216936250422533
 31
0.0
  0
LINE
  5
1C48B
  8
0
 62
     0
 10
21.558436583174561
 20
4.513167754841569
 30
0.0
 11
24.332299910634688
 21
7.2870310823016951
 31
0.0
  0
LINE
  5
1C48C
  8
0
 62
     0
 10
22.103834100762711
 20
5.7320844815099052
 30
0.0
 11
24.12411815881395
 21
7.752368539561135
 31
0.0
  0
LINE
  5
1C48D
  8
0
 62
     0
 10
22.649231618350871
 20
6.9510012081782424
 30
0.0
 11
23.9159364069932
 21
8.2177059968205732
 31
0.0
  0
LINE
  5
1C48E
  8
0
 62
     0
 10
23.194629135939021
 20
8.1699179348465805
 30
0.0
 11
23.707754655172462
 21
8.6830434540800177
 31
0.0
  0
ENDBLK
  5
1C490
  8
0
  0
BLOCK
  8
0
  2
*X81
 70
     1
 10
0.0
 20
0.0
 30
0.0
  3
*X81
  1

  0
LINE
  5
1C492
  8
0
 62
     0
 10
37.671999999968321
 20
8.1854311249904796
 30
0.0
 11
37.094331124967553
 21
8.7630999999912564
 31
0.0
  0
LINE
  5
1C493
  8
0
 62
     0
 10
37.671999999968328
 20
7.5119119159102867
 30
0.0
 11
36.420811915887363
 21
8.7630999999912547
 31
0.0
  0
LINE
  5
1C494
  8
0
 62
     0
 10
37.671999999968328
 20
6.8383927068301
 30
0.0
 11
36.231999999968373
 21
8.2783927068300578
 31
0.0
  0
LINE
  5
1C495
  8
0
 62
     0
 10
37.671999999968328
 20
6.164873497749908
 30
0.0
 11
36.231999999968373
 21
7.6048734977498764
 31
0.0
  0
LINE
  5
1C496
  8
0
 62
     0
 10
37.671999999968328
 20
5.4913542886697231
 30
0.0
 11
36.231999999968359
 21
6.9313542886696951
 31
0.0
  0
LINE
  5
1C497
  8
0
 62
     0
 10
37.671999999968328
 20
4.8178350795895302
 30
0.0
 11
36.231999999968359
 21
6.257835079589511
 31
0.0
  0
LINE
  5
1C498
  8
0
 62
     0
 10
33.081999999968353
 20
8.7343158705093451
 30
0.0
 11
33.053215870486461
 21
8.7630999999912262
 31
0.0
  0
LINE
  5
1C499
  8
0
 62
     0
 10
37.671999999968342
 20
4.1443158705093426
 30
0.0
 11
36.231999999968352
 21
5.5843158705093341
 31
0.0
  0
LINE
  5
1C49A
  8
0
 62
     0
 10
33.081999999968353
 20
8.0607966614291566
 30
0.0
 11
32.379696661406257
 21
8.7630999999912458
 31
0.0
  0
LINE
  5
1C49B
  8
0
 62
     0
 10
37.671999999968349
 20
3.4707966614291532
 30
0.0
 11
36.231999999968352
 21
4.9107966614291536
 31
0.0
  0
LINE
  5
1C49C
  8
0
 62
     0
 10
33.081999999968339
 20
7.3872774523489682
 30
0.0
 11
31.706177452326049
 21
8.7630999999912582
 31
0.0
  0
LINE
  5
1C49D
  8
0
 62
     0
 10
37.671999999968342
 20
2.7972774523489639
 30
0.0
 11
36.231999999968338
 21
4.2372774523489731
 31
0.0
  0
LINE
  5
1C49E
  8
0
 62
     0
 10
33.081999999968353
 20
6.7137582432687832
 30
0.0
 11
31.641999999968348
 21
8.1537582432687792
 31
0.0
  0
LINE
  5
1C49F
  8
0
 62
     0
 10
37.65026559515578
 20
2.1454926480813441
 30
0.0
 11
36.231999999968323
 21
3.5637582432687971
 31
0.0
  0
LINE
  5
1C4A0
  8
0
 62
     0
 10
33.081999999968353
 20
6.0402390341885939
 30
0.0
 11
31.641999999968348
 21
7.480239034188588
 31
0.0
  0
LINE
  5
1C4A1
  8
0
 62
     0
 10
37.519554401194739
 20
1.6026846329622011
 30
0.0
 11
36.23199999996833
 21
2.8902390341886099
 31
0.0
  0
LINE
  5
1C4A2
  8
0
 62
     0
 10
33.081999999968353
 20
5.3667198251084089
 30
0.0
 11
31.641999999968348
 21
6.806719825108404
 31
0.0
  0
LINE
  5
1C4A3
  8
0
 62
     0
 10
37.303753463824641
 20
1.144966361252125
 30
0.0
 11
36.207116671148931
 21
2.2416031539278261
 31
0.0
  0
LINE
  5
1C4A4
  8
0
 62
     0
 10
33.081999999968353
 20
4.6932006160282231
 30
0.0
 11
31.641999999968348
 21
6.1332006160282191
 31
0.0
  0
LINE
  5
1C4A5
  8
0
 62
     0
 10
37.019703335426037
 20
0.755497280570534
 30
0.0
 11
35.996962457455652
 21
1.7782381585409219
 31
0.0
  0
LINE
  5
1C4A6
  8
0
 62
     0
 10
33.081999999968353
 20
4.0196814069480364
 30
0.0
 11
31.641999999968348
 21
5.4596814069480297
 31
0.0
  0
LINE
  5
1C4A7
  8
0
 62
     0
 10
36.673303541984843
 20
0.4283778649315333
 30
0.0
 11
35.638303382158099
 21
1.463378024758281
 31
0.0
  0
LINE
  5
1C4A8
  8
0
 62
     0
 10
33.081999999968353
 20
3.3461621978678489
 30
0.0
 11
31.641999999968348
 21
4.7861621978678448
 31
0.0
  0
LINE
  5
1C4A9
  8
0
 62
     0
 10
36.263996276060482
 20
0.1641659217757083
 30
0.0
 11
35.160083583595231
 21
1.2680786142409679
 31
0.0
  0
LINE
  5
1C4AA
  8
0
 62
     0
 10
33.081999999968353
 20
2.6726429887876622
 30
0.0
 11
31.641999999968348
 21
4.1126429887876599
 31
0.0
  0
LINE
  5
1C4AB
  8
0
 62
     0
 10
35.796224120707834
 20
-0.0415811319518231
 30
0.0
 11
34.548571908367997
 21
1.2060710803880119
 31
0.0
  0
LINE
  5
1C4AC
  8
0
 62
     0
 10
33.38374578259382
 20
1.697377997082012
 30
0.0
 11
31.641999999968348
 21
3.4391237797074719
 31
0.0
  0
LINE
  5
1C4AD
  8
0
 62
     0
 10
35.2637678033404
 20
-0.1826440236645763
 30
0.0
 11
33.467758574123401
 21
1.613365205552423
 31
0.0
  0
LINE
  5
1C4AE
  8
0
 62
     0
 10
34.644481659876348
 20
-0.2368770892807164
 30
0.0
 11
31.641999999968348
 21
2.7656045706272852
 31
0.0
  0
LINE
  5
1C4AF
  8
0
 62
     0
 10
33.882022784935067
 20
-0.1479374234196293
 30
0.0
 11
31.6767103736743
 21
2.05737498784115
 31
0.0
  0
LINE
  5
1C4B0
  8
0
 62
     0
 10
32.597736685481571
 20
0.4628294669536924
 30
0.0
 11
32.233210043993921
 21
0.8273561084413412
 31
0.0
  0
LINE
  5
1C4B1
  8
0
 62
     0
 10
35.901292898140767
 20
-0.0025137844374483
 30
0.0
 11
37.526682373606427
 21
1.6228756910282169
 31
0.0
  0
LINE
  5
1C4B2
  8
0
 62
     0
 10
35.011846013067
 20
-0.2184414604310323
 30
0.0
 11
37.671690137183113
 21
2.4414026636850732
 31
0.0
  0
LINE
  5
1C4B3
  8
0
 62
     0
 10
34.335055261422497
 20
-0.2217130029953505
 30
0.0
 11
37.671999999968357
 21
3.1152317355505081
 31
0.0
  0
LINE
  5
1C4B4
  8
0
 62
     0
 10
36.22341799578475
 20
2.34016894044708
 30
0.0
 11
37.671999999968349
 21
3.7887509446306882
 31
0.0
  0
LINE
  5
1C4B5
  8
0
 62
     0
 10
33.764781759205142
 20
-0.1184672961325277
 30
0.0
 11
35.14826070499295
 21
1.2650116496552899
 31
0.0
  0
LINE
  5
1C4B6
  8
0
 62
     0
 10
36.23199999996833
 20
3.0222701537108612
 30
0.0
 11
37.671999999968342
 21
4.4622701537108727
 31
0.0
  0
LINE
  5
1C4B7
  8
0
 62
     0
 10
33.267721159564204
 20
0.0579913133067343
 30
0.0
 11
34.426314137477831
 21
1.2165842912203599
 31
0.0
  0
LINE
  5
1C4B8
  8
0
 62
     0
 10
36.231999999968338
 20
3.6957893627910541
 30
0.0
 11
37.671999999968328
 21
5.135789362791054
 31
0.0
  0
LINE
  5
1C4B9
  8
0
 62
     0
 10
32.829526961020242
 20
0.2933163238429541
 30
0.0
 11
33.892750351957297
 21
1.356539714780016
 31
0.0
  0
LINE
  5
1C4BA
  8
0
 62
     0
 10
36.231999999968352
 20
4.3693085718712412
 30
0.0
 11
37.671999999968342
 21
5.8093085718712381
 31
0.0
  0
LINE
  5
1C4BB
  8
0
 62
     0
 10
32.453183968618852
 20
0.5904925405217468
 30
0.0
 11
33.472128987242357
 21
1.6094375591452561
 31
0.0
  0
LINE
  5
1C4BC
  8
0
 62
     0
 10
36.231999999968352
 20
5.0428277809514341
 30
0.0
 11
37.671999999968328
 21
6.4828277809514168
 31
0.0
  0
LINE
  5
1C4BD
  8
0
 62
     0
 10
32.138870317392751
 20
0.949698098375844
 30
0.0
 11
33.186799660921331
 21
1.9976274419044211
 31
0.0
  0
LINE
  5
1C4BE
  8
0
 62
     0
 10
36.231999999968352
 20
5.7163469900316271
 30
0.0
 11
37.671999999968328
 21
7.1563469900316017
 31
0.0
  0
LINE
  5
1C4BF
  8
0
 62
     0
 10
31.888990894616189
 20
1.373337884679465
 30
0.0
 11
33.081999999968353
 21
2.5663469900316218
 31
0.0
  0
LINE
  5
1C4C0
  8
0
 62
     0
 10
36.231999999968359
 20
6.3898661991118217
 30
0.0
 11
37.671999999968328
 21
7.8298661991117866
 31
0.0
  0
LINE
  5
1C4C1
  8
0
 62
     0
 10
31.714181567551108
 20
1.8720477666945701
 30
0.0
 11
33.081999999968353
 21
3.2398661991118081
 31
0.0
  0
LINE
  5
1C4C2
  8
0
 62
     0
 10
36.231999999968373
 20
7.0633854081920138
 30
0.0
 11
37.671999999968321
 21
8.5033854081919689
 31
0.0
  0
LINE
  5
1C4C3
  8
0
 62
     0
 10
31.642012947499701
 20
2.4733983557233419
 30
0.0
 11
33.081999999968353
 21
3.9133854081919939
 31
0.0
  0
LINE
  5
1C4C4
  8
0
 62
     0
 10
36.23199999996838
 20
7.7369046172722067
 30
0.0
 11
37.258195382687433
 21
8.7630999999912547
 31
0.0
  0
LINE
  5
1C4C5
  8
0
 62
     0
 10
31.641999999968348
 20
3.1469046172721851
 30
0.0
 11
33.08199999996836
 21
4.5869046172721806
 31
0.0
  0
LINE
  5
1C4C6
  8
0
 62
     0
 10
36.23199999996838
 20
8.4104238263524014
 30
0.0
 11
36.584676173607242
 21
8.7630999999912564
 31
0.0
  0
LINE
  5
1C4C7
  8
0
 62
     0
 10
31.641999999968348
 20
3.82042382635237
 30
0.0
 11
33.081999999968353
 21
5.2604238263523682
 31
0.0
  0
LINE
  5
1C4C8
  8
0
 62
     0
 10
31.641999999968348
 20
4.4939430354325562
 30
0.0
 11
33.081999999968353
 21
5.9339430354325531
 31
0.0
  0
LINE
  5
1C4C9
  8
0
 62
     0
 10
31.641999999968348
 20
5.1674622445127421
 30
0.0
 11
33.081999999968353
 21
6.6074622445127398
 31
0.0
  0
LINE
  5
1C4CA
  8
0
 62
     0
 10
31.641999999968348
 20
5.840981453592927
 30
0.0
 11
33.081999999968339
 21
7.2809814535929247
 31
0.0
  0
LINE
  5
1C4CB
  8
0
 62
     0
 10
31.641999999968348
 20
6.5145006626731163
 30
0.0
 11
33.081999999968353
 21
7.9545006626731141
 31
0.0
  0
LINE
  5
1C4CC
  8
0
 62
     0
 10
31.641999999968348
 20
7.1880198717533013
 30
0.0
 11
33.081999999968353
 21
8.6280198717532972
 31
0.0
  0
LINE
  5
1C4CD
  8
0
 62
     0
 10
31.641999999968348
 20
7.861539080833488
 30
0.0
 11
32.543560919126101
 21
8.7630999999912405
 31
0.0
  0
LINE
  5
1C4CE
  8
0
 62
     0
 10
31.641999999968348
 20
8.5350582899136729
 30
0.0
 11
31.870041710045928
 21
8.7630999999912493
 31
0.0
  0
ENDBLK
  5
1C4D0
  8
0
  0
BLOCK
  8
0
  2
*X82
 70
     1
 10
0.0
 20
0.0
 30
0.0
  3
*X82
  1

  0
LINE
  5
1C4D2
  8
0
 62
     0
 10
44.999999999955008
 20
8.2661424248858424
 30
0.0
 11
44.503042424849617
 21
8.763099999991228
 31
0.0
  0
LINE
  5
1C4D3
  8
0
 62
     0
 10
44.999999999955008
 20
7.5926232158056557
 30
0.0
 11
43.829523215769441
 21
8.7630999999912316
 31
0.0
  0
LINE
  5
1C4D4
  8
0
 62
     0
 10
44.999999999955008
 20
6.919104006725469
 30
0.0
 11
43.578999999956388
 21
8.3401040067240864
 31
0.0
  0
LINE
  5
1C4D5
  8
0
 62
     0
 10
44.999999999955008
 20
6.245584797645285
 30
0.0
 11
43.578999999956388
 21
7.6665847976438997
 31
0.0
  0
LINE
  5
1C4D6
  8
0
 62
     0
 10
44.999999999955008
 20
5.5720655885650991
 30
0.0
 11
43.578999999956388
 21
6.993065588563713
 31
0.0
  0
LINE
  5
1C4D7
  8
0
 62
     0
 10
44.999999999955008
 20
4.8985463794849098
 30
0.0
 11
43.578999999956388
 21
6.3195463794835272
 31
0.0
  0
LINE
  5
1C4D8
  8
0
 62
     0
 10
44.999999999955008
 20
4.2250271704047249
 30
0.0
 11
43.578999999956388
 21
5.6460271704033396
 31
0.0
  0
LINE
  5
1C4D9
  8
0
 62
     0
 10
44.999999999955008
 20
3.5515079613245391
 30
0.0
 11
43.578999999956388
 21
4.9725079613231529
 31
0.0
  0
LINE
  5
1C4DA
  8
0
 62
     0
 10
44.999999999955008
 20
2.8779887522443528
 30
0.0
 11
43.578999999956388
 21
4.2989887522429671
 31
0.0
  0
LINE
  5
1C4DB
  8
0
 62
     0
 10
41.898767309847742
 20
5.3057022332714263
 30
0.0
 11
38.604999999961379
 21
8.5994695431577952
 31
0.0
  0
LINE
  5
1C4DC
  8
0
 62
     0
 10
44.999999999955008
 20
2.2044695431641661
 30
0.0
 11
43.578999999956388
 21
3.625469543162783
 31
0.0
  0
LINE
  5
1C4DD
  8
0
 62
     0
 10
44.999999999955008
 20
1.530950334083981
 30
0.0
 11
38.604999999961393
 21
7.9259503340776041
 31
0.0
  0
LINE
  5
1C4DE
  8
0
 62
     0
 10
44.999999999955008
 20
0.857431125003794
 30
0.0
 11
38.604999999961379
 21
7.2524311249974209
 31
0.0
  0
LINE
  5
1C4DF
  8
0
 62
     0
 10
40.025999999959957
 20
5.1579119159186542
 30
0.0
 11
38.604999999961393
 21
6.5789119159172307
 31
0.0
  0
LINE
  5
1C4E0
  8
0
 62
     0
 10
44.999999999955008
 20
0.1839119159236073
 30
0.0
 11
41.538583645063312
 21
3.645328270815305
 31
0.0
  0
LINE
  5
1C4E1
  8
0
 62
     0
 10
40.025999999959957
 20
4.4843927068384648
 30
0.0
 11
38.604999999961393
 21
5.9053927068370484
 31
0.0
  0
LINE
  5
1C4E2
  8
0
 62
     0
 10
40.025999999959957
 20
3.8108734977582781
 30
0.0
 11
38.604999999961393
 21
5.2318734977568608
 31
0.0
  0
LINE
  5
1C4E3
  8
0
 62
     0
 10
40.025999999959957
 20
3.1373542886780941
 30
0.0
 11
38.604999999961379
 21
4.558354288676675
 31
0.0
  0
LINE
  5
1C4E4
  8
0
 62
     0
 10
40.025999999959957
 20
2.4638350795979052
 30
0.0
 11
38.604999999961379
 21
3.884835079596491
 31
0.0
  0
LINE
  5
1C4E5
  8
0
 62
     0
 10
40.025999999959957
 20
1.79031587051772
 30
0.0
 11
38.604999999961379
 21
3.2113158705163061
 31
0.0
  0
LINE
  5
1C4E6
  8
0
 62
     0
 10
40.025999999959957
 20
1.1167966614375331
 30
0.0
 11
38.604999999961379
 21
2.5377966614361198
 31
0.0
  0
LINE
  5
1C4E7
  8
0
 62
     0
 10
40.025999999959957
 20
0.4432774523573473
 30
0.0
 11
38.604999999961379
 21
1.8642774523559329
 31
0.0
  0
LINE
  5
1C4E8
  8
0
 62
     0
 10
39.795758243237117
 20
-0.0000000000000009
 30
0.0
 11
38.604999999961379
 21
1.190758243275746
 31
0.0
  0
LINE
  5
1C4E9
  8
0
 62
     0
 10
39.122239034156941
 20
-0.0000000000000027
 30
0.0
 11
38.604999999961379
 21
0.5172390341955602
 31
0.0
  0
LINE
  5
1C4EA
  8
0
 62
     0
 10
44.727869922999538
 20
0.0683135223788982
 30
0.0
 11
44.999999999955008
 21
0.3404435993343693
 31
0.0
  0
LINE
  5
1C4EB
  8
0
 62
     0
 10
44.410407610419362
 20
0.4243704188789037
 30
0.0
 11
44.999999999955008
 21
1.0139628084145551
 31
0.0
  0
LINE
  5
1C4EC
  8
0
 62
     0
 10
44.092945297839179
 20
0.7804273153789119
 30
0.0
 11
44.999999999955008
 21
1.6874820174947409
 31
0.0
  0
LINE
  5
1C4ED
  8
0
 62
     0
 10
43.775482985258989
 20
1.136484211878916
 30
0.0
 11
44.999999999955008
 21
2.3610012265749258
 31
0.0
  0
LINE
  5
1C4EE
  8
0
 62
     0
 10
43.458020672678813
 20
1.4925411083789251
 30
0.0
 11
44.999999999955008
 21
3.034520435655113
 31
0.0
  0
LINE
  5
1C4EF
  8
0
 62
     0
 10
43.14055836009863
 20
1.8485980048789299
 30
0.0
 11
44.999999999955008
 21
3.7080396447352988
 31
0.0
  0
LINE
  5
1C4F0
  8
0
 62
     0
 10
42.823096047518469
 20
2.20465490137894
 30
0.0
 11
44.999999999955008
 21
4.381558853815485
 31
0.0
  0
LINE
  5
1C4F1
  8
0
 62
     0
 10
42.505633734938279
 20
2.5607117978789451
 30
0.0
 11
43.478660230526117
 21
3.533738293466774
 31
0.0
  0
LINE
  5
1C4F2
  8
0
 62
     0
 10
43.578999999956402
 20
3.6340780628970579
 30
0.0
 11
44.999999999955008
 21
5.0550780628956717
 31
0.0
  0
LINE
  5
1C4F3
  8
0
 62
     0
 10
39.944921937059341
 20
-0.0000000000000018
 30
0.0
 11
40.025999999959971
 21
0.0810780629006303
 31
0.0
  0
LINE
  5
1C4F4
  8
0
 62
     0
 10
42.188171422358103
 20
2.9167686943789528
 30
0.0
 11
43.161197917945927
 21
3.8897951899667791
 31
0.0
  0
LINE
  5
1C4F5
  8
0
 62
     0
 10
43.578999999956388
 20
4.3075972719772446
 30
0.0
 11
44.999999999955008
 21
5.7285972719758584
 31
0.0
  0
LINE
  5
1C4F6
  8
0
 62
     0
 10
39.271402727979151
 20
-0.0000000000000031
 30
0.0
 11
40.025999999959957
 21
0.7545972719808161
 31
0.0
  0
LINE
  5
1C4F7
  8
0
 62
     0
 10
41.87070910977792
 20
3.2728255908789592
 30
0.0
 11
42.843735605365737
 21
4.2458520864667886
 31
0.0
  0
LINE
  5
1C4F8
  8
0
 62
     0
 10
43.578999999956388
 20
4.9811164810574331
 30
0.0
 11
44.999999999955008
 21
6.4021164810560451
 31
0.0
  0
LINE
  5
1C4F9
  8
0
 62
     0
 10
38.604999999961379
 20
0.0071164810624182
 30
0.0
 11
40.025999999959957
 21
1.428116481061001
 31
0.0
  0
LINE
  5
1C4FA
  8
0
 62
     0
 10
41.553246797197737
 20
3.6288824873789678
 30
0.0
 11
42.526273292785568
 21
4.6019089829667976
 31
0.0
  0
LINE
  5
1C4FB
  8
0
 62
     0
 10
43.578999999956388
 20
5.654635690137618
 30
0.0
 11
44.999999999955008
 21
7.0756356901362301
 31
0.0
  0
LINE
  5
1C4FC
  8
0
 62
     0
 10
38.604999999961393
 20
0.6806356901426051
 30
0.0
 11
40.025999999959957
 21
2.1016356901411881
 31
0.0
  0
LINE
  5
1C4FD
  8
0
 62
     0
 10
41.235784484617547
 20
3.9849393838789742
 30
0.0
 11
42.208810980205392
 21
4.9579658794668049
 31
0.0
  0
LINE
  5
1C4FE
  8
0
 62
     0
 10
43.57899999995638
 20
6.3281548992178029
 30
0.0
 11
44.999999999955001
 21
7.7491548992164168
 31
0.0
  0
LINE
  5
1C4FF
  8
0
 62
     0
 10
38.604999999961379
 20
1.354154899222791
 30
0.0
 11
40.025999999959957
 21
2.7751548992213748
 31
0.0
  0
LINE
  5
1C500
  8
0
 62
     0
 10
40.918322172037378
 20
4.3409962803789819
 30
0.0
 11
41.891348667625209
 21
5.3140227759668131
 31
0.0
  0
LINE
  5
1C501
  8
0
 62
     0
 10
43.578999999956388
 20
7.0016741082979914
 30
0.0
 11
44.999999999955008
 21
8.4226741082966026
 31
0.0
  0
LINE
  5
1C502
  8
0
 62
     0
 10
38.604999999961379
 20
2.0276741083029779
 30
0.0
 11
40.025999999959957
 21
3.4486741083015611
 31
0.0
  0
LINE
  5
1C503
  8
0
 62
     0
 10
40.600859859457202
 20
4.6970531768789874
 30
0.0
 11
41.57388635504504
 21
5.670079672466823
 31
0.0
  0
LINE
  5
1C504
  8
0
 62
     0
 10
43.578999999956388
 20
7.6751933173781781
 30
0.0
 11
44.66690668256944
 21
8.7630999999912298
 31
0.0
  0
LINE
  5
1C505
  8
0
 62
     0
 10
38.604999999961379
 20
2.701193317383165
 30
0.0
 11
40.025999999959957
 21
4.1221933173817469
 31
0.0
  0
LINE
  5
1C506
  8
0
 62
     0
 10
40.283397546877019
 20
5.0531100733789964
 30
0.0
 11
41.256424042464857
 21
6.0261365689668294
 31
0.0
  0
LINE
  5
1C507
  8
0
 62
     0
 10
43.578999999956388
 20
8.3487125264583621
 30
0.0
 11
43.993387473489257
 21
8.7630999999912316
 31
0.0
  0
LINE
  5
1C508
  8
0
 62
     0
 10
38.604999999961393
 20
3.3747125264633522
 30
0.0
 11
40.025999999959957
 21
4.7957125264619354
 31
0.0
  0
LINE
  5
1C509
  8
0
 62
     0
 10
38.604999999961393
 20
4.0482317355435384
 30
0.0
 11
40.938961729884682
 21
6.3821934654668402
 31
0.0
  0
LINE
  5
1C50A
  8
0
 62
     0
 10
38.6049999999614
 20
4.7217509446237287
 30
0.0
 11
40.621499417304513
 21
6.7382503619668492
 31
0.0
  0
LINE
  5
1C50B
  8
0
 62
     0
 10
38.604999999961393
 20
5.3952701537039163
 30
0.0
 11
40.30403710472433
 21
7.0943072584668556
 31
0.0
  0
LINE
  5
1C50C
  8
0
 62
     0
 10
38.604999999961393
 20
6.0687893627841021
 30
0.0
 11
39.986574792144147
 21
7.4503641549668638
 31
0.0
  0
LINE
  5
1C50D
  8
0
 62
     0
 10
38.604999999961393
 20
6.742308571864287
 30
0.0
 11
39.669112479563971
 21
7.8064210514668684
 31
0.0
  0
LINE
  5
1C50E
  8
0
 62
     0
 10
38.604999999961393
 20
7.4158277809444746
 30
0.0
 11
39.351650166983788
 21
8.1624779479668774
 31
0.0
  0
LINE
  5
1C50F
  8
0
 62
     0
 10
38.604999999961393
 20
8.0893469900246604
 30
0.0
 11
39.034187854403612
 21
8.5185348444668882
 31
0.0
  0
LINE
  5
1C510
  8
0
 62
     0
 10
38.6049999999614
 20
8.7628661991048489
 30
0.0
 11
38.716725541823443
 21
8.8745917409668955
 31
0.0
  0
ENDBLK
  5
1C512
  8
0
  0
BLOCK
  8
0
  2
*X83
 70
     1
 10
0.0
 20
0.0
 30
0.0
  3
*X83
  1

  0
LINE
  5
1C514
  8
0
 62
     0
 10
1.4209999999985781
 20
8.7399130437103523
 30
0.0
 11
1.397813043717697
 21
8.7630999999912333
 31
0.0
  0
LINE
  5
1C515
  8
0
 62
     0
 10
1.4209999999985781
 20
8.0663938346301585
 30
0.0
 11
0.7242938346375141
 21
8.7630999999912298
 31
0.0
  0
LINE
  5
1C516
  8
0
 62
     0
 10
1.420999999998585
 20
7.3928746255499709
 30
0.0
 11
0.0507746255573238
 21
8.7630999999912262
 31
0.0
  0
LINE
  5
1C517
  8
0
 62
     0
 10
1.4209999999985781
 20
6.7193554164697877
 30
0.0
 11
0.0
 21
8.1403554164683598
 31
0.0
  0
LINE
  5
1C518
  8
0
 62
     0
 10
1.4209999999985781
 20
6.0458362073895984
 30
0.0
 11
0.0000000000000071
 21
7.4668362073881758
 31
0.0
  0
LINE
  5
1C519
  8
0
 62
     0
 10
1.420999999998581
 20
5.3723169983094108
 30
0.0
 11
0.0000000000000071
 21
6.7933169983079891
 31
0.0
  0
LINE
  5
1C51A
  8
0
 62
     0
 10
1.4209999999985781
 20
4.6987977892292276
 30
0.0
 11
0.0
 21
6.1197977892278059
 31
0.0
  0
LINE
  5
1C51B
  8
0
 62
     0
 10
1.4209999999985781
 20
4.0252785801490383
 30
0.0
 11
0.0
 21
5.446278580147613
 31
0.0
  0
LINE
  5
1C51C
  8
0
 62
     0
 10
1.420999999998581
 20
3.3517593710688551
 30
0.0
 11
0.0000000000000071
 21
4.772759371067429
 31
0.0
  0
LINE
  5
1C51D
  8
0
 62
     0
 10
1.420999999998581
 20
2.678240161988664
 30
0.0
 11
0.0000000000000071
 21
4.0992401619872387
 31
0.0
  0
LINE
  5
1C51E
  8
0
 62
     0
 10
1.420999999998581
 20
2.0047209529084808
 30
0.0
 11
0.0000000000000071
 21
3.425720952907056
 31
0.0
  0
LINE
  5
1C51F
  8
0
 62
     0
 10
1.420999999998581
 20
1.331201743828295
 30
0.0
 11
0.0000000000000071
 21
2.7522017438268689
 31
0.0
  0
LINE
  5
1C520
  8
0
 62
     0
 10
1.420999999998581
 20
0.6576825347481085
 30
0.0
 11
0.0000000000000071
 21
2.0786825347466831
 31
0.0
  0
LINE
  5
1C521
  8
0
 62
     0
 10
1.405163325666503
 20
0.0000000000000036
 30
0.0
 11
0.0000000000000036
 21
1.405163325666503
 31
0.0
  0
LINE
  5
1C522
  8
0
 62
     0
 10
0.7316441165863097
 20
0.0000000000000071
 30
0.0
 11
0.0000000000000071
 21
0.7316441165863097
 31
0.0
  0
LINE
  5
1C523
  8
0
 62
     0
 10
0.0581249075061265
 20
0.0000000000000036
 30
0.0
 11
0.0000000000000036
 21
0.0581249075061301
 31
0.0
  0
LINE
  5
1C524
  8
0
 62
     0
 10
0.8808078104085197
 20
0.0
 30
0.0
 11
1.420999999998581
 21
0.5401921895900621
 31
0.0
  0
LINE
  5
1C525
  8
0
 62
     0
 10
0.207288601328333
 20
-0.0000000000000036
 30
0.0
 11
1.4209999999985781
 21
1.213711398670245
 31
0.0
  0
LINE
  5
1C526
  8
0
 62
     0
 10
0.0000000000000071
 20
0.4662306077518572
 30
0.0
 11
1.420999999998581
 21
1.8872306077504351
 31
0.0
  0
LINE
  5
1C527
  8
0
 62
     0
 10
0.0000000000000036
 20
1.139749816832043
 30
0.0
 11
1.4209999999985781
 21
2.5607498168306182
 31
0.0
  0
LINE
  5
1C528
  8
0
 62
     0
 10
0.0000000000000071
 20
1.8132690259122339
 30
0.0
 11
1.420999999998581
 21
3.234269025910808
 31
0.0
  0
LINE
  5
1C529
  8
0
 62
     0
 10
0.0000000000000036
 20
2.4867882349924129
 30
0.0
 11
1.4209999999985781
 21
3.907788234990992
 31
0.0
  0
LINE
  5
1C52A
  8
0
 62
     0
 10
0.0000000000000036
 20
3.1603074440726031
 30
0.0
 11
1.420999999998581
 21
4.5813074440711823
 31
0.0
  0
LINE
  5
1C52B
  8
0
 62
     0
 10
0.0000000000000036
 20
3.8338266531527871
 30
0.0
 11
1.4209999999985781
 21
5.2548266531513654
 31
0.0
  0
LINE
  5
1C52C
  8
0
 62
     0
 10
0.0
 20
4.507345862232973
 30
0.0
 11
1.420999999998581
 21
5.928345862231553
 31
0.0
  0
LINE
  5
1C52D
  8
0
 62
     0
 10
0.0
 20
5.1808650713131561
 30
0.0
 11
1.4209999999985801
 21
6.6018650713117353
 31
0.0
  0
LINE
  5
1C52E
  8
0
 62
     0
 10
0.0000000000000036
 20
5.8543842803933472
 30
0.0
 11
1.4209999999985801
 21
7.2753842803919246
 31
0.0
  0
LINE
  5
1C52F
  8
0
 62
     0
 10
0.0000000000000036
 20
6.527903489473533
 30
0.0
 11
1.420999999998581
 21
7.9489034894721096
 31
0.0
  0
LINE
  5
1C530
  8
0
 62
     0
 10
0.0000000000000053
 20
7.201422698553718
 30
0.0
 11
1.420999999998583
 21
8.6224226985522954
 31
0.0
  0
LINE
  5
1C531
  8
0
 62
     0
 10
0.0
 20
7.8749419076339029
 30
0.0
 11
0.8881580923573242
 21
8.7630999999912262
 31
0.0
  0
LINE
  5
1C532
  8
0
 62
     0
 10
0.0000000000000018
 20
8.5484611167140958
 30
0.0
 11
0.2146388832771393
 21
8.7630999999912316
 31
0.0
  0
ENDBLK
  5
1C534
  8
0
  0
BLOCK
  8
0
  2
*U84
 70
     1
 10
0.0
 20
0.0
 30
0.0
  3
*U84
  1

  0
LINE
  5
1C536
  8
0
 10
-23.468911086754559
 20
-1.75
 30
0.0
 11
0.0000000000000284
 21
-1.75
 31
0.0
  0
LINE
  5
1C537
  8
0
 10
0.0000000000000284
 20
-1.75
 30
0.0
 11
0.0000000000000284
 21
-4.5
 31
0.0
  0
LINE
  5
1C538
  8
0
 10
-29.999999999999972
 20
0.0
 30
0.0
 11
-23.468911086754559
 21
-1.75
 31
0.0
  0
LINE
  5
1C539
  8
0
 10
0.0000000000000284
 20
-4.5
 30
0.0
 11
0.7999999999998125
 21
-4.5
 31
0.0
  0
LINE
  5
1C53A
  8
0
 10
-29.999999999999972
 20
0.0
 30
0.0
 11
-23.468911086754499
 21
1.75
 31
0.0
  0
ARC
  5
1C53B
  8
0
 10
0.8000000000000113
 20
-2.0
 30
0.0
 40
2.5
 50
269.9999999999954
 51
0.0
  0
LINE
  5
1C53C
  8
0
 10
-23.468911086754499
 20
1.75
 30
0.0
 11
0.0000000000000284
 21
1.75
 31
0.0
  0
LINE
  5
1C53D
  8
0
 10
3.3000000000000389
 20
2.0
 30
0.0
 11
3.3000000000000109
 21
-2.0
 31
0.0
  0
LINE
  5
1C53E
  8
0
 10
0.0000000000000284
 20
4.5
 30
0.0
 11
0.0000000000000284
 21
1.75
 31
0.0
  0
ARC
  5
1C53F
  8
0
 10
0.8000000000000397
 20
2.0
 30
0.0
 40
2.5
 50
0.0
 51
90.0
  0
LINE
  5
1C540
  8
0
 10
0.0000000000000284
 20
4.5
 30
0.0
 11
0.8000000000000397
 21
4.5
 31
0.0
  0
ENDBLK
  5
1C542
  8
0
  0
BLOCK
  8
0
  2
*X85
 70
     1
 10
0.0
 20
0.0
 30
0.0
  3
*X85
  1

  0
LINE
  5
1C544
  8
0
 62
     0
 10
4.999963781330016
 20
0.6648318481563891
 30
0.0
 11
4.6648058190850739
 21
0.9999898104013169
 31
0.0
  0
LINE
  5
1C545
  8
0
 62
     0
 10
4.9999616918183198
 20
0.2158211316146108
 30
0.0
 11
4.215790923500478
 21
0.9999918999324464
 31
0.0
  0
LINE
  5
1C546
  8
0
 62
     0
 10
2.4999712361998969
 20
2.266798781179574
 30
0.0
 11
2.383370684454845
 21
2.383399332924625
 31
0.0
  0
LINE
  5
1C547
  8
0
 62
     0
 10
4.9999596023066308
 20
-0.2331895849271461
 30
0.0
 11
3.7667760279159088
 21
0.9999939894635758
 31
0.0
  0
LINE
  5
1C548
  8
0
 62
     0
 10
2.4999691466882008
 20
1.8177880646378091
 30
0.0
 11
2.1588632366674139
 21
2.1588939746586102
 31
0.0
  0
LINE
  5
1C549
  8
0
 62
     0
 10
4.9999575127949347
 20
-0.6822003014689173
 30
0.0
 11
3.3177611323312979
 21
0.9999960789947266
 31
0.0
  0
LINE
  5
1C54A
  8
0
 62
     0
 10
2.4999670571765189
 20
1.368777348096045
 30
0.0
 11
1.9343557888799829
 21
1.934388616392581
 31
0.0
  0
LINE
  5
1C54B
  8
0
 62
     0
 10
4.8687555439913117
 20
-1.0000111387187469
 30
0.0
 11
2.86874623674673
 21
0.9999981685258205
 31
0.0
  0
LINE
  5
1C54C
  8
0
 62
     0
 10
4.4197406484067079
 20
-1.000009049187589
 30
0.0
 11
1.709848341092552
 21
1.7098832581265659
 31
0.0
  0
LINE
  5
1C54D
  8
0
 62
     0
 10
3.970725752822104
 20
-1.000006959656452
 30
0.0
 11
1.4853408933051071
 21
1.4853778998605369
 31
0.0
  0
LINE
  5
1C54E
  8
0
 62
     0
 10
3.521710857237522
 20
-1.0000048701253299
 30
0.0
 11
1.2608334455176899
 21
1.2608725415945079
 31
0.0
  0
LINE
  5
1C54F
  8
0
 62
     0
 10
3.072695961652939
 20
-1.000002780594186
 30
0.0
 11
1.036325997730259
 21
1.0363671833284931
 31
0.0
  0
LINE
  5
1C550
  8
0
 62
     0
 10
2.6236810660683281
 20
-1.0000006910630499
 30
0.0
 11
0.8118185499428136
 21
0.8118618250624649
 31
0.0
  0
LINE
  5
1C551
  8
0
 62
     0
 10
2.4999545201063849
 20
-1.3252869511545811
 30
0.0
 11
0.5873111021553683
 21
0.5873564667964361
 31
0.0
  0
LINE
  5
1C552
  8
0
 62
     0
 10
2.4999524305947101
 20
-1.7742976676963591
 30
0.0
 11
0.3628036543679514
 21
0.3628511085304069
 31
0.0
  0
LINE
  5
1C553
  8
0
 62
     0
 10
2.4999503410830348
 20
-2.2233083842381229
 30
0.0
 11
0.1382962065805202
 21
0.1383457502643921
 31
0.0
  0
LINE
  5
1C554
  8
0
 62
     0
 10
4.6010502818750387
 20
-1.000009892928265
 30
0.0
 11
4.9999578901918467
 21
-0.6011022846114571
 31
0.0
  0
LINE
  5
1C555
  8
0
 62
     0
 10
4.152039565333272
 20
-1.0000078034165789
 30
0.0
 11
4.9999599797229841
 21
-0.1520873890268675
 31
0.0
  0
LINE
  5
1C556
  8
0
 62
     0
 10
3.703028848791504
 20
-1.000005713904887
 30
0.0
 11
4.9999620692541198
 21
0.2969275065577292
 31
0.0
  0
LINE
  5
1C557
  8
0
 62
     0
 10
2.3514924413035621
 20
-2.351542121392824
 30
0.0
 11
2.499950435198417
 21
-2.2030841274979731
 31
0.0
  0
LINE
  5
1C558
  8
0
 62
     0
 10
3.254018132249743
 20
-1.0000036243931869
 30
0.0
 11
4.9999641587852457
 21
0.7459424021423189
 31
0.0
  0
LINE
  5
1C559
  8
0
 62
     0
 10
2.1269870830375481
 20
-2.1270346736053831
 30
0.0
 11
2.4999525247295402
 21
-1.754069231913391
 31
0.0
  0
LINE
  5
1C55A
  8
0
 62
     0
 10
2.805007415707979
 20
-1.0000015348814979
 30
0.0
 11
4.8049981085933799
 21
0.9999891580039027
 31
0.0
  0
LINE
  5
1C55B
  8
0
 62
     0
 10
1.9024817247715189
 20
-1.9025272258179591
 30
0.0
 11
2.4999546142606759
 21
-1.305054336328801
 31
0.0
  0
LINE
  5
1C55C
  8
0
 62
     0
 10
1.6779763665055001
 20
-1.6780197780305171
 30
0.0
 11
4.3559873920516132
 21
0.9999912475155952
 31
0.0
  0
LINE
  5
1C55D
  8
0
 62
     0
 10
1.453471008239468
 20
-1.453512330243089
 30
0.0
 11
3.906976675509831
 21
0.9999933370272736
 31
0.0
  0
LINE
  5
1C55E
  8
0
 62
     0
 10
1.228965649973442
 20
-1.2290048824556541
 30
0.0
 11
3.4579659589680598
 21
0.9999954265389625
 31
0.0
  0
LINE
  5
1C55F
  8
0
 62
     0
 10
1.0044602917074099
 20
-1.0044974346682269
 30
0.0
 11
3.008955242426274
 21
0.9999975160506373
 31
0.0
  0
LINE
  5
1C560
  8
0
 62
     0
 10
0.7799549334414025
 20
-0.7799899868807892
 30
0.0
 11
2.5599445258845068
 21
0.9999996055623157
 31
0.0
  0
LINE
  5
1C561
  8
0
 62
     0
 10
0.555449575175377
 20
-0.5554825390933509
 30
0.0
 11
2.499967151447489
 21
1.389035037178757
 31
0.0
  0
LINE
  5
1C562
  8
0
 62
     0
 10
0.3309442169093444
 20
-0.3309750913059233
 30
0.0
 11
2.4999692409786181
 21
1.838049932763347
 31
0.0
  0
LINE
  5
1C563
  8
0
 62
     0
 10
0.106438858643326
 20
-0.1064676435184815
 30
0.0
 11
2.4999713305097719
 21
2.2870648283479609
 31
0.0
  0
ENDBLK
  5
1C565
  8
0
  0
BLOCK
  8
0
  2
*U86
 70
     1
 10
0.0
 20
0.0
 30
0.0
  3
*U86
  1

  0
LINE
  5
1C567
  8
0
 10
-29.999999999837598
 20
0.0000465358979227
 30
0.0
 11
-24.700003489975941
 21
-1.4999534641020771
 31
0.0
  0
LINE
  5
1C568
  8
0
 10
-24.700003489975941
 20
-1.4999534641020771
 30
0.0
 11
-0.0000034900840618
 21
-1.499953464101849
 31
0.0
  0
LINE
  5
1C569
  8
0
 10
-29.999999999837598
 20
0.0000465358979227
 30
0.0
 11
-24.6999965095923
 21
1.5000465358980359
 31
0.0
  0
LINE
  5
1C56A
  8
0
 10
-0.0000081437821464
 20
-3.4999999999998859
 30
0.0
 11
-0.0000034900840618
 21
-1.499953464101849
 31
0.0
  0
LINE
  5
1C56B
  8
0
 10
-24.6999965095923
 20
1.5000465358980359
 30
0.0
 11
0.0000034903006139
 21
1.500046535897922
 31
0.0
  0
LINE
  5
1C56C
  8
0
 10
-0.0000081437821464
 20
-3.4999999999998859
 30
0.0
 11
1.0999953464131731
 21
-3.5
 31
0.0
  0
LINE
  5
1C56D
  8
0
 10
0.0000034903006139
 20
1.500046535897922
 30
0.0
 11
0.0000081437821322
 21
3.5
 31
0.0
  0
ARC
  5
1C56E
  8
0
 10
1.0999953464131731
 20
-2.0
 30
0.0
 40
1.5
 50
270.0
 51
359.99986668447059
  0
LINE
  5
1C56F
  8
0
 10
0.0000081437821322
 20
3.5
 30
0.0
 11
1.100004653592769
 21
3.5
 31
0.0
  0
LINE
  5
1C570
  8
0
 10
2.5999953464091159
 20
-2.0000034901923982
 30
0.0
 11
2.6000046535887051
 21
1.9999965098076009
 31
0.0
  0
ARC
  5
1C571
  8
0
 10
1.100004653592769
 20
2.0
 30
0.0
 40
1.5
 50
359.99986668447059
 51
90.0
  0
ENDBLK
  5
1C573
  8
0
  0
BLOCK
  8
0
  2
*U87
 70
     1
 10
0.0
 20
0.0
 30
0.0
  3
*U87
  1

  0
TEXT
  5
1C578
  8
1DIM
 62
   201
 10
586.35278380827765
 20
-1291.7366900791851
 30
0.0
 40
3.5
  1
24
 50
90.0
  0
ENDBLK
  5
1C57A
  8
0
  0
BLOCK
  8
0
  2
*U88
 70
     1
 10
0.0
 20
0.0
 30
0.0
  3
*U88
  1

  0
TEXT
  5
1C57C
  8
1DIM
 62
   201
 10
926.04217669723687
 20
-1287.733279862769
 30
0.0
 40
3.5
  1
12.5
 50
90.0
  0
ENDBLK
  5
1C57E
  8
0
  0
BLOCK
  8
0
  2
*U89
 70
     1
 10
0.0
 20
0.0
 30
0.0
  3
*U89
  1

  0
TEXT
  5
1C580
  8
1DIM
 62
   201
 10
549.57855532437145
 20
-1066.260074663315
 30
0.0
 40
3.5
  1
30.02
 50
90.0
  0
ENDBLK
  5
1C582
  8
0
  0
BLOCK
  8
0
  2
*U90
 70
     1
 10
0.0
 20
0.0
 30
0.0
  3
*U90
  1

  0
TEXT
  5
1C584
  8
1DIM
 62
   201
 10
578.31104133554572
 20
-1218.6533563174789
 30
0.0
 40
3.5
  1
61
 50
90.0
  0
ENDBLK
  5
1C586
  8
0
  0
BLOCK
  8
0
  2
*U91
 70
     1
 10
0.0
 20
0.0
 30
0.0
  3
*U91
  1

  0
TEXT
  5
1C588
  8
1DIM
 62
   201
 10
587.64720467514451
 20
-1217.2366896508131
 30
0.0
 40
3.5
  1
35
 50
90.0
  0
ENDBLK
  5
1C58A
  8
0
  0
BLOCK
  8
0
  2
*U92
 70
     1
 10
0.0
 20
0.0
 30
0.0
  3
*U92
  1

  0
TEXT
  5
1C58C
  8
1DIM
 62
   201
 10
684.12375032398268
 20
-1148.1006110014439
 30
0.0
 40
3.5
  1
P65
  0
ENDBLK
  5
1C58E
  8
0
  0
BLOCK
  8
0
  2
*U93
 70
     1
 10
0.0
 20
0.0
 30
0.0
  3
*U93
  1

  0
TEXT
  5
1C590
  8
1DIM
 62
   201
 10
587.64720467514451
 20
-1241.6533563174789
 30
0.0
 40
3.5
  1
15
 50
90.0
  0
ENDBLK
  5
1C592
  8
0
  0
BLOCK
  8
0
  2
*U94
 70
     1
 10
0.0
 20
0.0
 30
0.0
  3
*U94
  1

  0
TEXT
  5
1C594
  8
1DIM
 62
   201
 10
685.29044025859844
 20
-1256.1200229841461
 30
0.0
 40
3.5
  1
171
  0
ENDBLK
  5
1C596
  8
0
  0
BLOCK
  8
0
  2
*U95
 70
     1
 10
0.0
 20
0.0
 30
0.0
  3
*U95
  1

  0
TEXT
  5
1C598
  8
1DIM
 62
   201
 10
684.70710692526495
 20
-1266.1200229841461
 30
0.0
 40
3.5
  1
187
  0
ENDBLK
  5
1C59A
  8
0
  0
BLOCK
  8
0
  2
*U96
 70
     1
 10
0.0
 20
0.0
 30
0.0
  3
*U96
  1

  0
TEXT
  5
1C59C
  8
1DIM
 62
   201
 10
684.70710692526484
 20
-1320.1200238408901
 30
0.0
 40
3.5
  1
187
  0
ENDBLK
  5
1C59E
  8
0
  0
BLOCK
  8
0
  2
*U97
 70
     1
 10
0.0
 20
0.0
 30
0.0
  3
*U97
  1

  0
TEXT
  5
1C5A0
  8
1DIM
 62
   201
 10
684.12375032398268
 20
-1310.120023840889
 30
0.0
 40
3.5
  1
P65
  0
ENDBLK
  5
1C5A2
  8
0
  0
BLOCK
  8
0
  2
*U98
 70
     1
 10
0.0
 20
0.0
 30
0.0
  3
*U98
  1

  0
TEXT
  5
1C5A4
  8
1DIM
 62
   201
 10
811.59044025859816
 20
-1218.6533563174789
 30
0.0
 40
3.5
  1
61
 50
90.0
  0
ENDBLK
  5
1C5A6
  8
0
  0
BLOCK
  8
0
  2
*U99
 70
     1
 10
0.0
 20
0.0
 30
0.0
  3
*U99
  1

  0
TEXT
  5
1C5A8
  8
1DIM
 62
   201
 10
801.59044025859828
 20
-1217.236689650812
 30
0.0
 40
3.5
  1
35
 50
90.0
  0
ENDBLK
  5
1C5AA
  8
0
  0
BLOCK
  8
0
  2
*U100
 70
     1
 10
0.0
 20
0.0
 30
0.0
  3
*U100
  1

  0
TEXT
  5
1C5AC
  8
1DIM
 62
   201
 10
801.59044025859828
 20
-1193.0700229841459
 30
0.0
 40
3.5
  1
11
 50
90.0
  0
ENDBLK
  5
1C5AE
  8
0
  0
BLOCK
  8
0
  2
*U101
 70
     1
 10
0.0
 20
0.0
 30
0.0
  3
*U101
  1

  0
TEXT
  5
1C5B0
  8
1DIM
 62
   201
 10
801.59044025859828
 20
-1291.7366900791851
 30
0.0
 40
3.5
  1
24
 50
90.0
  0
ENDBLK
  5
1C5B2
  8
0
  0
BLOCK
  8
0
  2
*U102
 70
     1
 10
0.0
 20
0.0
 30
0.0
  3
*U102
  1

  0
TEXT
  5
1C5B4
  8
1DIM
 62
   201
 10
188.34196215643269
 20
930.22894031135456
 30
0.0
 40
3.5
  1
230
  0
ENDBLK
  5
1C5B6
  8
0
  0
BLOCK
  8
0
  2
*U103
 70
     1
 10
0.0
 20
0.0
 30
0.0
  3
*U103
  1

  0
TEXT
  5
1C5B8
  8
1DIM
 62
   201
 10
313.63278816771788
 20
914.93685847646623
 30
0.0
 40
3.5
  1
15
 50
90.0
  0
ENDBLK
  5
1C5BA
  8
0
  0
BLOCK
  8
0
  2
*U104
 70
     1
 10
0.0
 20
0.0
 30
0.0
  3
*U104
  1

  0
TEXT
  5
1C5BC
  8
1DIM
 62
   201
 10
313.57198398633312
 20
970.37977702818864
 30
0.0
 40
3.5
  1
55
 50
90.0
  0
ENDBLK
  5
1C5BE
  8
0
  0
BLOCK
  8
0
  2
*U105
 70
     1
 10
0.0
 20
0.0
 30
0.0
  3
*U105
  1

  0
SOLID
  5
1C5C0
  8
1DIM
 10
230.65408526211939
 20
35.042069673515321
 30
0.0
 11
229.4755739601421
 21
36.69198549628414
 31
0.0
 12
231.12548978291051
 22
35.513474194306283
 32
0.0
 13
231.12548978291051
 23
35.513474194306283
 33
0.0
  0
POLYLINE
  5
1C5C1
  8
1DIM
 66
     1
 10
0.0
 20
0.0
 30
0.0
  0
VERTEX
  5
1C5C2
  8
1DIM
 10
230.88978752251501
 20
35.277771933910799
 30
0.0
  0
VERTEX
  5
1C5C3
  8
1DIM
 10
241.59913483539211
 20
24.56842462103009
 30
0.0
  0
SEQEND
  5
1C5C4
  8
1DIM
  0
ENDBLK
  5
1C5C6
  8
0
  0
BLOCK
  8
0
  2
*U106
 70
     1
 10
0.0
 20
0.0
 30
0.0
  3
*U106
  1

  0
SOLID
  5
1C5C8
  8
1DIM
 10
258.55464732633698
 20
67.783001142176204
 30
0.0
 11
260.28902762017469
 21
68.833256400415166
 31
0.0
 12
258.98902093948681
 22
67.277269979755289
 32
0.0
 13
258.98902093948681
 23
67.277269979755289
 33
0.0
  0
POLYLINE
  5
1C5C9
  8
1DIM
 66
     1
 10
0.0
 20
0.0
 30
0.0
  0
VERTEX
  5
1C5CA
  8
1DIM
 10
258.77183413291181
 20
67.530135560965761
 30
0.0
  0
VERTEX
  5
1C5CB
  8
1DIM
 10
245.8718095545446
 20
56.450275939496009
 30
0.0
  0
SEQEND
  5
1C5CC
  8
1DIM
  0
ENDBLK
  5
1C5CE
  8
0
  0
BLOCK
  8
0
  2
*X107
 70
     1
 10
0.0
 20
0.0
 30
0.0
  3
*X107
  1

  0
LINE
  5
1C5D0
  8
0
 62
     0
 10
271.58278491201139
 20
89.199322471223795
 30
0.0
 11
269.65585532077392
 21
91.12625206246139
 31
0.0
  0
LINE
  5
1C5D1
  8
0
 62
     0
 10
271.58278491201139
 20
86.954258440956494
 30
0.0
 11
267.41079129050649
 21
91.12625206246139
 31
0.0
  0
LINE
  5
1C5D2
  8
0
 62
     0
 10
271.58278491201139
 20
84.709194410689179
 30
0.0
 11
265.16572726023918
 21
91.126252062461333
 31
0.0
  0
LINE
  5
1C5D3
  8
0
 62
     0
 10
271.58278491201139
 20
82.464130380421921
 30
0.0
 11
262.92066322997198
 21
91.126252062461333
 31
0.0
  0
LINE
  5
1C5D4
  8
0
 62
     0
 10
271.58278491201139
 20
80.219066350154677
 30
0.0
 11
260.67559919970472
 21
91.126252062461333
 31
0.0
  0
LINE
  5
1C5D5
  8
0
 62
     0
 10
271.58278491201128
 20
77.974002319887347
 30
0.0
 11
259.58278491201139
 21
89.974002319887177
 31
0.0
  0
LINE
  5
1C5D6
  8
0
 62
     0
 10
271.58278491201128
 20
75.728938289620075
 30
0.0
 11
259.58278491201139
 21
87.728938289619919
 31
0.0
  0
LINE
  5
1C5D7
  8
0
 62
     0
 10
269.94040710890289
 20
75.126252062461162
 30
0.0
 11
259.58278491201139
 21
85.483874259352646
 31
0.0
  0
LINE
  5
1C5D8
  8
0
 62
     0
 10
267.69534307863557
 20
75.126252062461162
 30
0.0
 11
259.58278491201139
 21
83.238810229085274
 31
0.0
  0
LINE
  5
1C5D9
  8
0
 62
     0
 10
265.4502790483682
 20
75.126252062461276
 30
0.0
 11
259.58278491201139
 21
80.993746198817973
 31
0.0
  0
LINE
  5
1C5DA
  8
0
 62
     0
 10
271.51653198018971
 20
69.059999130639881
 30
0.0
 11
269.45027904836797
 21
71.126252062461504
 31
0.0
  0
LINE
  5
1C5DB
  8
0
 62
     0
 10
263.205215018101
 20
75.126252062461276
 30
0.0
 11
259.58278491201139
 21
78.748682168550715
 31
0.0
  0
LINE
  5
1C5DC
  8
0
 62
     0
 10
270.20521501810077
 20
68.126252062461447
 30
0.0
 11
267.20521501810072
 21
71.126252062461504
 31
0.0
  0
LINE
  5
1C5DD
  8
0
 62
     0
 10
260.96015098783357
 20
75.12625206246139
 30
0.0
 11
259.5827849120115
 21
76.503618138283514
 31
0.0
  0
LINE
  5
1C5DE
  8
0
 62
     0
 10
267.96015098783352
 20
68.126252062461447
 30
0.0
 11
264.96015098783352
 21
71.126252062461504
 31
0.0
  0
LINE
  5
1C5DF
  8
0
 62
     0
 10
265.71508695756631
 20
68.126252062461447
 30
0.0
 11
262.7150869575662
 21
71.126252062461504
 31
0.0
  0
LINE
  5
1C5E0
  8
0
 62
     0
 10
263.470022927299
 20
68.126252062461376
 30
0.0
 11
260.47002292729911
 21
71.126252062461333
 31
0.0
  0
LINE
  5
1C5E1
  8
0
 62
     0
 10
261.2249588970318
 20
68.126252062461376
 30
0.0
 11
259.5827849120115
 21
69.768426047481682
 31
0.0
  0
ENDBLK
  5
1C5E3
  8
0
  0
BLOCK
  8
0
  2
*X108
 70
     1
 10
0.0
 20
0.0
 30
0.0
  3
*X108
  1

  0
LINE
  5
1C5E5
  8
0
 62
     0
 10
270.80388376913658
 20
36.126252062461219
 30
0.0
 11
272.78278491201138
 21
38.105153205336023
 31
0.0
  0
LINE
  5
1C5E6
  8
0
 62
     0
 10
271.58278491201128
 20
39.150217235603243
 30
0.0
 11
272.78278491201138
 21
40.350217235603282
 31
0.0
  0
LINE
  5
1C5E7
  8
0
 62
     0
 10
268.5588197388692
 20
36.12625206246117
 30
0.0
 11
269.75881973886919
 21
37.326252062461151
 31
0.0
  0
LINE
  5
1C5E8
  8
0
 62
     0
 10
271.58278491201122
 20
41.395281265870487
 30
0.0
 11
272.78278491201138
 21
42.59528126587054
 31
0.0
  0
LINE
  5
1C5E9
  8
0
 62
     0
 10
266.31375570860189
 20
36.12625206246117
 30
0.0
 11
267.51375570860188
 21
37.326252062461151
 31
0.0
  0
LINE
  5
1C5EA
  8
0
 62
     0
 10
271.58278491201122
 20
43.640345296137752
 30
0.0
 11
272.78278491201132
 21
44.840345296137791
 31
0.0
  0
LINE
  5
1C5EB
  8
0
 62
     0
 10
264.06869167833457
 20
36.12625206246117
 30
0.0
 11
265.26869167833462
 21
37.326252062461151
 31
0.0
  0
LINE
  5
1C5EC
  8
0
 62
     0
 10
271.58278491201128
 20
45.885409326405181
 30
0.0
 11
272.78278491201132
 21
47.085409326405113
 31
0.0
  0
LINE
  5
1C5ED
  8
0
 62
     0
 10
261.82362764806732
 20
36.12625206246117
 30
0.0
 11
263.0236276480673
 21
37.326252062461101
 31
0.0
  0
LINE
  5
1C5EE
  8
0
 62
     0
 10
271.58278491201122
 20
48.130473356672319
 30
0.0
 11
272.78278491201138
 21
49.330473356672478
 31
0.0
  0
LINE
  5
1C5EF
  8
0
 62
     0
 10
259.57856361780011
 20
36.126252062461219
 30
0.0
 11
260.77856361779988
 21
37.326252062461037
 31
0.0
  0
LINE
  5
1C5F0
  8
0
 62
     0
 10
271.58278491201128
 20
50.375537386939641
 30
0.0
 11
272.78278491201138
 21
51.575537386939743
 31
0.0
  0
LINE
  5
1C5F1
  8
0
 62
     0
 10
257.88766803378599
 20
36.680420508714413
 30
0.0
 11
258.98278491201143
 21
37.775537386939732
 31
0.0
  0
LINE
  5
1C5F2
  8
0
 62
     0
 10
271.58278491201128
 20
52.620601417206949
 30
0.0
 11
272.78278491201132
 21
53.820601417207058
 31
0.0
  0
LINE
  5
1C5F3
  8
0
 62
     0
 10
257.78278491201138
 20
38.820601417207058
 30
0.0
 11
258.98278491201143
 21
40.02060141720704
 31
0.0
  0
LINE
  5
1C5F4
  8
0
 62
     0
 10
271.58278491201128
 20
54.865665447474221
 30
0.0
 11
272.78278491201138
 21
56.065665447474373
 31
0.0
  0
LINE
  5
1C5F5
  8
0
 62
     0
 10
257.78278491201121
 20
41.065665447474252
 30
0.0
 11
258.98278491201143
 21
42.265665447474412
 31
0.0
  0
LINE
  5
1C5F6
  8
0
 62
     0
 10
271.58278491201128
 20
57.110729477741593
 30
0.0
 11
272.78278491201132
 21
58.310729477741567
 31
0.0
  0
LINE
  5
1C5F7
  8
0
 62
     0
 10
257.78278491201138
 20
43.310729477741567
 30
0.0
 11
258.98278491201131
 21
44.510729477741563
 31
0.0
  0
LINE
  5
1C5F8
  8
0
 62
     0
 10
271.58278491201128
 20
59.355793508008837
 30
0.0
 11
272.78278491201138
 21
60.55579350800889
 31
0.0
  0
LINE
  5
1C5F9
  8
0
 62
     0
 10
257.78278491201138
 20
45.555793508008833
 30
0.0
 11
258.98278491201143
 21
46.755793508008942
 31
0.0
  0
LINE
  5
1C5FA
  8
0
 62
     0
 10
271.58278491201128
 20
61.600857538276152
 30
0.0
 11
272.78278491201132
 21
62.800857538276198
 31
0.0
  0
LINE
  5
1C5FB
  8
0
 62
     0
 10
257.78278491201132
 20
47.800857538276148
 30
0.0
 11
258.98278491201143
 21
49.00085753827625
 31
0.0
  0
LINE
  5
1C5FC
  8
0
 62
     0
 10
271.58278491201128
 20
63.845921568543417
 30
0.0
 11
272.78278491201132
 21
65.045921568543463
 31
0.0
  0
LINE
  5
1C5FD
  8
0
 62
     0
 10
257.78278491201138
 20
50.04592156854352
 30
0.0
 11
258.98278491201143
 21
51.245921568543508
 31
0.0
  0
LINE
  5
1C5FE
  8
0
 62
     0
 10
271.58278491201122
 20
66.090985598810676
 30
0.0
 11
272.78278491201138
 21
67.290985598810764
 31
0.0
  0
LINE
  5
1C5FF
  8
0
 62
     0
 10
257.78278491201138
 20
52.290985598810771
 30
0.0
 11
258.98278491201143
 21
53.490985598810823
 31
0.0
  0
LINE
  5
1C600
  8
0
 62
     0
 10
271.58278491201128
 20
68.336049629078047
 30
0.0
 11
272.78278491201138
 21
69.536049629078093
 31
0.0
  0
LINE
  5
1C601
  8
0
 62
     0
 10
257.78278491201132
 20
54.536049629078093
 30
0.0
 11
258.98278491201131
 21
55.736049629078018
 31
0.0
  0
LINE
  5
1C602
  8
0
 62
     0
 10
271.58278491201122
 20
70.581113659345249
 30
0.0
 11
271.73035402653221
 21
70.728682773866126
 31
0.0
  0
LINE
  5
1C603
  8
0
 62
     0
 10
257.78278491201132
 20
56.781113659345351
 30
0.0
 11
258.98278491201143
 21
57.981113659345397
 31
0.0
  0
LINE
  5
1C604
  8
0
 62
     0
 10
257.78278491201132
 20
59.026177689612609
 30
0.0
 11
258.98278491201143
 21
60.226177689612648
 31
0.0
  0
LINE
  5
1C605
  8
0
 62
     0
 10
257.78278491201138
 20
61.271241719879917
 30
0.0
 11
258.98278491201131
 21
62.471241719879913
 31
0.0
  0
LINE
  5
1C606
  8
0
 62
     0
 10
271.58278491201122
 20
77.316305750147137
 30
0.0
 11
272.78278491201138
 21
78.516305750147296
 31
0.0
  0
LINE
  5
1C607
  8
0
 62
     0
 10
257.78278491201132
 20
63.516305750147232
 30
0.0
 11
258.98278491201143
 21
64.716305750147285
 31
0.0
  0
LINE
  5
1C608
  8
0
 62
     0
 10
271.58278491201128
 20
79.561369780414452
 30
0.0
 11
272.78278491201132
 21
80.761369780414455
 31
0.0
  0
LINE
  5
1C609
  8
0
 62
     0
 10
257.78278491201132
 20
65.761369780414498
 30
0.0
 11
258.98278491201143
 21
66.961369780414543
 31
0.0
  0
LINE
  5
1C60A
  8
0
 62
     0
 10
271.58278491201122
 20
81.806433810681654
 30
0.0
 11
272.78278491201138
 21
83.006433810681827
 31
0.0
  0
LINE
  5
1C60B
  8
0
 62
     0
 10
257.78278491201138
 20
68.006433810681813
 30
0.0
 11
258.98278491201143
 21
69.206433810681801
 31
0.0
  0
LINE
  5
1C60C
  8
0
 62
     0
 10
271.58278491201128
 20
84.051497840948969
 30
0.0
 11
272.78278491201132
 21
85.251497840948957
 31
0.0
  0
LINE
  5
1C60D
  8
0
 62
     0
 10
257.78278491201121
 20
70.251497840949014
 30
0.0
 11
258.98278491201143
 21
71.45149784094906
 31
0.0
  0
LINE
  5
1C60E
  8
0
 62
     0
 10
271.58278491201128
 20
86.296561871216383
 30
0.0
 11
272.78278491201132
 21
87.496561871216386
 31
0.0
  0
LINE
  5
1C60F
  8
0
 62
     0
 10
257.78278491201138
 20
72.496561871216386
 30
0.0
 11
258.98278491201143
 21
73.696561871216375
 31
0.0
  0
LINE
  5
1C610
  8
0
 62
     0
 10
271.58278491201128
 20
88.541625901483528
 30
0.0
 11
272.78278491201132
 21
89.741625901483644
 31
0.0
  0
LINE
  5
1C611
  8
0
 62
     0
 10
257.78278491201121
 20
74.741625901483587
 30
0.0
 11
258.98278491201143
 21
75.941625901483746
 31
0.0
  0
LINE
  5
1C612
  8
0
 62
     0
 10
271.58278491201128
 20
90.786689931750914
 30
0.0
 11
271.92234704272192
 21
91.12625206246139
 31
0.0
  0
LINE
  5
1C613
  8
0
 62
     0
 10
257.78278491201138
 20
76.986689931750902
 30
0.0
 11
258.98278491201131
 21
78.186689931750891
 31
0.0
  0
LINE
  5
1C614
  8
0
 62
     0
 10
257.78278491201138
 20
79.231753962018161
 30
0.0
 11
258.98278491201143
 21
80.431753962018263
 31
0.0
  0
LINE
  5
1C615
  8
0
 62
     0
 10
257.78278491201132
 20
81.476817992285476
 30
0.0
 11
258.98278491201143
 21
82.676817992285535
 31
0.0
  0
LINE
  5
1C616
  8
0
 62
     0
 10
257.78278491201138
 20
83.721882022552848
 30
0.0
 11
258.98278491201143
 21
84.921882022552765
 31
0.0
  0
LINE
  5
1C617
  8
0
 62
     0
 10
257.78278491201138
 20
85.966946052820106
 30
0.0
 11
258.98278491201143
 21
87.166946052820151
 31
0.0
  0
LINE
  5
1C618
  8
0
 62
     0
 10
257.78278491201138
 20
88.212010083087421
 30
0.0
 11
258.98278491201131
 21
89.412010083087367
 31
0.0
  0
LINE
  5
1C619
  8
0
 62
     0
 10
257.78278491201132
 20
90.457074113354679
 30
0.0
 11
258.4519628611182
 21
91.126252062461504
 31
0.0
  0
ENDBLK
  5
1C61B
  8
0
  0
BLOCK
  8
0
  2
*U109
 70
     1
 10
0.0
 20
0.0
 30
0.0
  3
*U109
  1

  0
TEXT
  5
1C61D
  8
1DIM
 62
   201
 10
716.08721967347583
 20
-1063.042933388866
 30
0.0
 40
3.5
  1
230
  0
ENDBLK
  5
1C61F
  8
0
  0
BLOCK
  8
0
  2
*U110
 70
     1
 10
0.0
 20
0.0
 30
0.0
  3
*U110
  1

  0
SOLID
  5
1C621
  8
1HATCH
  6
CONTINUOUS
 10
-0.300000000000864
 20
1.999999999997726
 30
0.0
 11
-0.300000000000864
 21
1.999999999997726
 31
0.0
 12
0.0000000000006821
 22
1.999999999997726
 32
0.0
 13
0.0000000000006821
 23
1.999999999997726
 33
0.0
210
0.0
220
0.0
230
1.0
  0
SOLID
  5
1C622
  8
1HATCH
  6
CONTINUOUS
 10
0.0000000000006821
 20
1.999999999997726
 30
0.0
 11
0.0000000000006821
 21
1.999999999997726
 31
0.0
 12
0.3000000000006366
 22
1.999999999997726
 32
0.0
 13
0.3000000000006366
 23
1.999999999997726
 33
0.0
210
0.0
220
0.0
230
1.0
  0
SOLID
  5
1C623
  8
1HATCH
  6
CONTINUOUS
 10
-0.300000000000864
 20
1.999999999997726
 30
0.0
 11
-0.300000000000864
 21
0.3000000000006366
 31
0.0
 12
0.0000000000006821
 22
0.3000000000006366
 32
0.0
 13
0.0000000000006821
 23
0.3000000000006366
 33
0.0
210
0.0
220
0.0
230
1.0
  0
SOLID
  5
1C624
  8
1HATCH
  6
CONTINUOUS
 10
0.300000000000864
 20
1.999999999997726
 30
0.0
 11
-0.0000000000006821
 21
1.999999999997726
 31
0.0
 12
-0.0000000000006821
 22
0.3000000000006366
 32
0.0
 13
-0.0000000000006821
 23
0.3000000000006366
 33
0.0
210
0.0
220
0.0
230
-1.0
  0
SOLID
  5
1C625
  8
1HATCH
  6
CONTINUOUS
 10
0.0000000000006821
 20
1.999999999997726
 30
0.0
 11
0.0000000000018417
 21
0.3000000000006366
 31
0.0
 12
0.3000000000006366
 22
0.3000000000006366
 32
0.0
 13
0.3000000000006366
 23
0.3000000000006366
 33
0.0
210
0.0
220
0.0
230
1.0
  0
SOLID
  5
1C626
  8
1HATCH
  6
CONTINUOUS
 10
-0.0000000000006821
 20
1.999999999997726
 30
0.0
 11
-0.3000000000006366
 21
1.999999999997726
 31
0.0
 12
-0.3000000000006366
 22
0.3000000000006366
 32
0.0
 13
-0.3000000000006366
 23
0.3000000000006366
 33
0.0
210
0.0
220
0.0
230
-1.0
  0
SOLID
  5
1C627
  8
1HATCH
  6
CONTINUOUS
 10
0.3000000000006366
 20
0.3000000000006366
 30
0.0
 11
0.3000000000006366
 21
0.3000000000006366
 31
0.0
 12
1.999999999999204
 22
0.3000000000006366
 32
0.0
 13
1.999999999999204
 23
0.3000000000006366
 33
0.0
210
0.0
220
0.0
230
1.0
  0
SOLID
  5
1C628
  8
1HATCH
  6
CONTINUOUS
 10
-0.300000000000864
 20
0.3000000000006366
 30
0.0
 11
-0.300000000000864
 21
-0.0000000000007958
 31
0.0
 12
0.0000000000006821
 22
-0.0000000000007958
 32
0.0
 13
0.0000000000006821
 23
-0.0000000000007958
 33
0.0
210
0.0
220
0.0
230
1.0
  0
SOLID
  5
1C629
  8
1HATCH
  6
CONTINUOUS
 10
0.300000000000864
 20
0.3000000000006366
 30
0.0
 11
-0.0000000000006821
 21
0.3000000000006366
 31
0.0
 12
-0.0000000000006821
 22
-0.0000000000007958
 32
0.0
 13
-0.0000000000006821
 23
-0.0000000000007958
 33
0.0
210
0.0
220
0.0
230
-1.0
  0
SOLID
  5
1C62A
  8
1HATCH
  6
CONTINUOUS
 10
0.0000000000018417
 20
0.3000000000006366
 30
0.0
 11
0.0000000000020464
 21
-0.0000000000007958
 31
0.0
 12
1.999999999999204
 22
-0.0000000000007958
 32
0.0
 13
1.999999999999204
 23
-0.0000000000007958
 33
0.0
  0
SOLID
  5
1C62B
  8
1HATCH
  6
CONTINUOUS
 10
-0.0000000000018417
 20
0.3000000000006366
 30
0.0
 11
-1.999999999999204
 21
0.3000000000006366
 31
0.0
 12
-1.999999999999204
 22
-0.0000000000007958
 32
0.0
 13
-1.999999999999204
 23
-0.0000000000007958
 33
0.0
210
0.0
220
0.0
230
-1.0
  0
SOLID
  5
1C62C
  8
1HATCH
  6
CONTINUOUS
 10
-0.300000000000864
 20
-0.0000000000007958
 30
0.0
 11
-0.300000000000864
 21
-0.0000000000007958
 31
0.0
 12
0.0000000000006821
 22
-0.0000000000007958
 32
0.0
 13
0.0000000000006821
 23
-0.0000000000007958
 33
0.0
210
0.0
220
0.0
230
1.0
  0
SOLID
  5
1C62D
  8
1HATCH
  6
CONTINUOUS
 10
-0.2999999999979081
 20
-0.0000000000007958
 30
0.0
 11
-0.2999999999979081
 21
-0.0000000000007958
 31
0.0
 12
-0.0000000000007958
 22
-0.0000000000007958
 32
0.0
 13
-0.0000000000007958
 23
-0.0000000000007958
 33
0.0
210
0.0
220
0.0
230
1.0
  0
SOLID
  5
1C62E
  8
1HATCH
  6
CONTINUOUS
 10
0.0000000000020464
 20
-0.0000000000007958
 30
0.0
 11
0.0000000000020464
 21
-0.0000000000007958
 31
0.0
 12
1.999999999999204
 22
-0.0000000000007958
 32
0.0
 13
1.999999999999204
 23
-0.0000000000007958
 33
0.0
210
0.0
220
0.0
230
1.0
  0
SOLID
  5
1C62F
  8
1HATCH
  6
CONTINUOUS
 10
0.0000000000020464
 20
-0.0000000000007958
 30
0.0
 11
0.0000000000020464
 21
-0.0000000000007958
 31
0.0
 12
1.999999999999204
 22
-0.0000000000007958
 32
0.0
 13
1.999999999999204
 23
-0.0000000000007958
 33
0.0
210
0.0
220
0.0
230
1.0
  0
SOLID
  5
1C630
  8
1HATCH
  6
CONTINUOUS
 10
-0.2999999999979081
 20
-0.0000000000007958
 30
0.0
 11
-0.300000000000864
 21
-0.300000000000864
 31
0.0
 12
0.0000000000006821
 22
-0.300000000000864
 32
0.0
 13
0.0000000000006821
 23
-0.300000000000864
 33
0.0
210
0.0
220
0.0
230
1.0
  0
SOLID
  5
1C631
  8
1HATCH
  6
CONTINUOUS
 10
0.2999999999979081
 20
-0.0000000000007958
 30
0.0
 11
0.0000000000007958
 21
-0.0000000000007958
 31
0.0
 12
-0.0000000000006821
 22
-0.300000000000864
 32
0.0
 13
-0.0000000000006821
 23
-0.300000000000864
 33
0.0
210
0.0
220
0.0
230
-1.0
  0
SOLID
  5
1C632
  8
1HATCH
  6
CONTINUOUS
 10
0.0000000000020464
 20
-0.0000000000007958
 30
0.0
 11
0.0000000000020464
 21
-0.300000000000864
 31
0.0
 12
1.999999999999204
 22
-0.300000000000864
 32
0.0
 13
1.999999999999204
 23
-0.300000000000864
 33
0.0
  0
SOLID
  5
1C633
  8
1HATCH
  6
CONTINUOUS
 10
-0.0000000000020464
 20
-0.0000000000007958
 30
0.0
 11
-1.999999999999204
 21
-0.0000000000007958
 31
0.0
 12
-1.999999999999204
 22
-0.300000000000864
 32
0.0
 13
-1.999999999999204
 23
-0.300000000000864
 33
0.0
210
0.0
220
0.0
230
-1.0
  0
SOLID
  5
1C634
  8
1HATCH
  6
CONTINUOUS
 10
-0.300000000000864
 20
-0.300000000000864
 30
0.0
 11
-0.300000000000864
 21
-0.300000000000864
 31
0.0
 12
0.0000000000006821
 22
-0.300000000000864
 32
0.0
 13
0.0000000000006821
 23
-0.300000000000864
 33
0.0
210
0.0
220
0.0
230
1.0
  0
SOLID
  5
1C635
  8
1HATCH
  6
CONTINUOUS
 10
0.0000000000020464
 20
-0.300000000000864
 30
0.0
 11
0.0000000000020464
 21
-0.300000000000864
 31
0.0
 12
1.999999999999204
 22
-0.300000000000864
 32
0.0
 13
1.999999999999204
 23
-0.300000000000864
 33
0.0
210
0.0
220
0.0
230
1.0
  0
LINE
  5
1C636
  8
1HATCH
  6
CONTINUOUS
 10
-0.300000000000864
 20
1.999999999997726
 30
0.0
 11
0.0000000000006821
 21
1.999999999997726
 31
0.0
  0
LINE
  5
1C637
  8
1HATCH
  6
CONTINUOUS
 10
0.0000000000006821
 20
1.999999999997726
 30
0.0
 11
0.3000000000006366
 21
1.999999999997726
 31
0.0
  0
LINE
  5
1C638
  8
1HATCH
  6
CONTINUOUS
 10
-0.300000000000864
 20
1.999999999997726
 30
0.0
 11
-0.300000000000864
 21
0.3000000000006366
 31
0.0
  0
LINE
  5
1C639
  8
1HATCH
  6
CONTINUOUS
 10
0.0000000000006821
 20
1.999999999997726
 30
0.0
 11
0.0000000000006821
 21
0.3000000000006366
 31
0.0
  0
LINE
  5
1C63A
  8
1HATCH
  6
CONTINUOUS
 10
0.0000000000006821
 20
1.999999999997726
 30
0.0
 11
0.0000000000018417
 21
0.3000000000006366
 31
0.0
  0
LINE
  5
1C63B
  8
1HATCH
  6
CONTINUOUS
 10
0.3000000000006366
 20
1.999999999997726
 30
0.0
 11
0.3000000000006366
 21
0.3000000000006366
 31
0.0
  0
LINE
  5
1C63C
  8
1HATCH
  6
CONTINUOUS
 10
0.3000000000006366
 20
0.3000000000006366
 30
0.0
 11
1.999999999999204
 21
0.3000000000006366
 31
0.0
  0
LINE
  5
1C63D
  8
1HATCH
  6
CONTINUOUS
 10
-0.300000000000864
 20
0.3000000000006366
 30
0.0
 11
-0.300000000000864
 21
-0.0000000000007958
 31
0.0
  0
LINE
  5
1C63E
  8
1HATCH
  6
CONTINUOUS
 10
0.0000000000006821
 20
0.3000000000006366
 30
0.0
 11
0.0000000000006821
 21
-0.0000000000007958
 31
0.0
  0
LINE
  5
1C63F
  8
1HATCH
  6
CONTINUOUS
 10
0.0000000000018417
 20
0.3000000000006366
 30
0.0
 11
0.0000000000020464
 21
-0.0000000000007958
 31
0.0
  0
LINE
  5
1C640
  8
1HATCH
  6
CONTINUOUS
 10
1.999999999999204
 20
0.3000000000006366
 30
0.0
 11
1.999999999999204
 21
-0.0000000000007958
 31
0.0
  0
LINE
  5
1C641
  8
1HATCH
  6
CONTINUOUS
 10
-0.300000000000864
 20
-0.0000000000007958
 30
0.0
 11
0.0000000000006821
 21
-0.0000000000007958
 31
0.0
  0
LINE
  5
1C642
  8
1HATCH
  6
CONTINUOUS
 10
-0.2999999999979081
 20
-0.0000000000007958
 30
0.0
 11
-0.0000000000007958
 21
-0.0000000000007958
 31
0.0
  0
LINE
  5
1C643
  8
1HATCH
  6
CONTINUOUS
 10
0.0000000000020464
 20
-0.0000000000007958
 30
0.0
 11
1.999999999999204
 21
-0.0000000000007958
 31
0.0
  0
LINE
  5
1C644
  8
1HATCH
  6
CONTINUOUS
 10
0.0000000000020464
 20
-0.0000000000007958
 30
0.0
 11
1.999999999999204
 21
-0.0000000000007958
 31
0.0
  0
LINE
  5
1C645
  8
1HATCH
  6
CONTINUOUS
 10
-0.2999999999979081
 20
-0.0000000000007958
 30
0.0
 11
-0.300000000000864
 21
-0.300000000000864
 31
0.0
  0
LINE
  5
1C646
  8
1HATCH
  6
CONTINUOUS
 10
-0.0000000000007958
 20
-0.0000000000007958
 30
0.0
 11
0.0000000000006821
 21
-0.300000000000864
 31
0.0
  0
LINE
  5
1C647
  8
1HATCH
  6
CONTINUOUS
 10
0.0000000000020464
 20
-0.0000000000007958
 30
0.0
 11
0.0000000000020464
 21
-0.300000000000864
 31
0.0
  0
LINE
  5
1C648
  8
1HATCH
  6
CONTINUOUS
 10
1.999999999999204
 20
-0.0000000000007958
 30
0.0
 11
1.999999999999204
 21
-0.300000000000864
 31
0.0
  0
LINE
  5
1C649
  8
1HATCH
  6
CONTINUOUS
 10
-0.300000000000864
 20
-0.300000000000864
 30
0.0
 11
0.0000000000006821
 21
-0.300000000000864
 31
0.0
  0
LINE
  5
1C64A
  8
1HATCH
  6
CONTINUOUS
 10
0.0000000000020464
 20
-0.300000000000864
 30
0.0
 11
1.999999999999204
 21
-0.300000000000864
 31
0.0
  0
ENDBLK
  5
1C64C
  8
0
  0
BLOCK
  8
0
  2
*U111
 70
     1
 10
0.0
 20
0.0
 30
0.0
  3
*U111
  1

  0
TEXT
  5
1C64E
  8
1DIM
 62
   201
 10
-78.700473593927001
 20
675.77929635853206
 30
0.0
 40
1.75
  1
90°
  0
ENDBLK
  5
1C650
  8
0
  0
BLOCK
  8
0
  2
*U112
 70
     1
 10
0.0
 20
0.0
 30
0.0
  3
*U112
  1

  0
TEXT
  5
1C652
  8
1DIM
 62
   201
 10
-55.09576920571984
 20
667.906557432726
 30
0.0
 40
1.75
  1
4
 50
90.0
  0
ENDBLK
  5
1C654
  8
0
  0
BLOCK
  8
0
  2
*U113
 70
     1
 10
0.0
 20
0.0
 30
0.0
  3
*U113
  1

  0
TEXT
  5
1C656
  8
1DIM
 62
   201
 10
-78.262973593926873
 20
681.55695636145344
 30
0.0
 40
1.75
  1
27
  0
ENDBLK
  5
1C658
  8
0
  0
BLOCK
  8
0
  2
*U114
 70
     1
 10
0.0
 20
0.0
 30
0.0
  3
*U114
  1

  0
TEXT
  5
1C65A
  8
1DIM
 62
   201
 10
-50.692273267661307
 20
663.32322409939275
 30
0.0
 40
1.75
  1
12
 50
90.0
  0
ENDBLK
  5
1C65C
  8
0
  0
BLOCK
  8
0
  2
*U115
 70
     1
 10
0.0
 20
0.0
 30
0.0
  3
*U115
  1

  0
TEXT
  5
1C65E
  8
1DIM
 62
   201
 10
-55.554102539053169
 20
662.73989076605949
 30
0.0
 40
1.75
  1
(4)
 50
90.0
  0
ENDBLK
  5
1C660
  8
0
  0
BLOCK
  8
0
  2
*U116
 70
     1
 10
0.0
 20
0.0
 30
0.0
  3
*U116
  1

  0
TEXT
  5
1C662
  8
1DIM
 62
   201
 10
-55.09576920571984
 20
659.90655743272612
 30
0.0
 40
1.75
  1
4
 50
90.0
  0
ENDBLK
  5
1C664
  8
0
  0
BLOCK
  8
0
  2
*U117
 70
     1
 10
0.0
 20
0.0
 30
0.0
  3
*U117
  1

  0
TEXT
  5
1C666
  8
1DIM
 62
   201
 10
-78.48797359392681
 20
672.58208439389466
 30
0.0
 40
1.75
  1
φ5
  0
ENDBLK
  5
1C668
  8
0
  0
BLOCK
  8
0
  2
*U118
 70
     1
 10
0.0
 20
0.0
 30
0.0
  3
*U118
  1

  0
TEXT
  5
1C66A
  8
1DIM
 62
   201
 10
-60.210229136384193
 20
706.08513083369257
 30
0.0
 40
1.75
  1
18
 50
90.0
  0
ENDBLK
  5
1C66C
  8
0
  0
BLOCK
  8
0
  2
*U119
 70
     1
 10
0.0
 20
0.0
 30
0.0
  3
*U119
  1

  0
TEXT
  5
1C66E
  8
1DIM
 62
   201
 10
-56.564422982185512
 20
703.29346416702583
 30
0.0
 40
1.75
  1
23
 50
90.0
  0
ENDBLK
  5
1C670
  8
0
  0
BLOCK
  8
0
  2
*U120
 70
     1
 10
0.0
 20
0.0
 30
0.0
  3
*U120
  1

  0
TEXT
  5
1C672
  8
1DIM
 62
   201
 10
-77.971306927260159
 20
617.88094380500274
 30
0.0
 40
1.75
  1
18
  0
ENDBLK
  5
1C674
  8
0
  0
BLOCK
  8
0
  2
*U121
 70
     1
 10
0.0
 20
0.0
 30
0.0
  3
*U121
  1

  0
TEXT
  5
1C676
  8
1DIM
 62
   201
 10
-64.346306927260187
 20
620.21163235617485
 30
0.0
 40
1.75
  1
φ4.5
  0
ENDBLK
  5
1C678
  8
0
  0
BLOCK
  8
0
  2
*X122
 70
     1
 10
0.0
 20
0.0
 30
0.0
  3
*X122
  1

  0
LINE
  5
1C67A
  8
0
 62
     0
 10
19.62800247393676
 20
44.809954452242827
 30
0.0
 11
20.369317735577962
 21
45.551269713884032
 31
0.0
  0
LINE
  5
1C67B
  8
0
 62
     0
 10
18.5554190277104
 20
45.982435036283839
 30
0.0
 11
20.618783193944068
 21
48.045799202517507
 31
0.0
  0
LINE
  5
1C67C
  8
0
 62
     0
 10
19.13787441340224
 20
48.809954452242948
 30
0.0
 11
20.219383328371642
 21
49.891463367212332
 31
0.0
  0
LINE
  5
1C67D
  8
0
 62
     0
 10
18.5554190277104
 20
48.227499066551097
 30
0.0
 11
19.13787441340207
 21
48.809954452242778
 31
0.0
  0
LINE
  5
1C67E
  8
0
 62
     0
 10
18.555419027710339
 20
50.472563096818313
 30
0.0
 11
19.699490933938868
 21
51.616635003046831
 31
0.0
  0
LINE
  5
1C67F
  8
0
 62
     0
 10
13.29781472021199
 20
45.214958789319951
 30
0.0
 11
14.555419027710339
 21
46.472563096818298
 31
0.0
  0
LINE
  5
1C680
  8
0
 62
     0
 10
18.555419027710339
 20
52.717627127085557
 30
0.0
 11
19.556898808553061
 21
53.719106907928278
 31
0.0
  0
LINE
  5
1C681
  8
0
 62
     0
 10
13.64098074927983
 20
47.803188848655047
 30
0.0
 11
14.555419027710339
 21
48.717627127085557
 31
0.0
  0
LINE
  5
1C682
  8
0
 62
     0
 10
18.555419027710279
 20
54.962691157352872
 30
0.0
 11
20.18130602031005
 21
56.588578149952639
 31
0.0
  0
LINE
  5
1C683
  8
0
 62
     0
 10
13.28962790103702
 20
49.696900030679608
 30
0.0
 11
14.555419027710281
 21
50.962691157352879
 31
0.0
  0
LINE
  5
1C684
  8
0
 62
     0
 10
12.76013654529708
 20
51.41247270520693
 30
0.0
 11
14.555419027710281
 21
53.207755187620137
 31
0.0
  0
LINE
  5
1C685
  8
0
 62
     0
 10
12.54814255209641
 20
53.445542742273517
 30
0.0
 11
14.555419027710281
 21
55.452819217887388
 31
0.0
  0
LINE
  5
1C686
  8
0
 62
     0
 10
13.08161692452779
 20
56.224081144972217
 30
0.0
 11
13.667490231798411
 21
56.809954452242891
 31
0.0
  0
ENDBLK
  5
1C688
  8
0
  0
BLOCK
  8
0
  2
*X123
 70
     1
 10
0.0
 20
0.0
 30
0.0
  3
*X123
  1

  0
LINE
  5
1C68A
  8
0
 62
     0
 10
29.520709629455499
 20
9.4703072891252305
 30
0.0
 11
30.05541902771046
 21
10.00501668738019
 31
0.0
  0
LINE
  5
1C68B
  8
0
 62
     0
 10
27.805419027710229
 20
10.000080717647281
 30
0.0
 11
30.055419027710521
 21
12.25008071764756
 31
0.0
  0
LINE
  5
1C68C
  8
0
 62
     0
 10
27.805419027710169
 20
12.245144747914541
 30
0.0
 11
30.05541902771046
 21
14.49514474791482
 31
0.0
  0
LINE
  5
1C68D
  8
0
 62
     0
 10
27.80541902771029
 20
14.490208778181911
 30
0.0
 11
30.05541902771046
 21
16.74020877818208
 31
0.0
  0
LINE
  5
1C68E
  8
0
 62
     0
 10
22.785517538653551
 20
9.4703072891251736
 30
0.0
 11
23.305419027710229
 21
9.9902087781818523
 31
0.0
  0
LINE
  5
1C68F
  8
0
 62
     0
 10
27.80541902771029
 20
16.735272808449171
 30
0.0
 11
30.05541902771046
 21
18.985272808449391
 31
0.0
  0
LINE
  5
1C690
  8
0
 62
     0
 10
20.540453508386239
 20
9.4703072891251168
 30
0.0
 11
23.30541902771029
 21
12.235272808449171
 31
0.0
  0
LINE
  5
1C691
  8
0
 62
     0
 10
27.80541902771029
 20
18.980336838716479
 30
0.0
 11
30.05541902771046
 21
21.23033683871671
 31
0.0
  0
LINE
  5
1C692
  8
0
 62
     0
 10
18.29538947811897
 20
9.4703072891251736
 30
0.0
 11
23.3054190277104
 21
14.480336838716591
 31
0.0
  0
LINE
  5
1C693
  8
0
 62
     0
 10
27.805419027710229
 20
21.225400868983741
 30
0.0
 11
30.0554190277104
 21
23.475400868983971
 31
0.0
  0
LINE
  5
1C694
  8
0
 62
     0
 10
16.050325447851598
 20
9.4703072891251168
 30
0.0
 11
23.30541902771035
 21
16.725400868983851
 31
0.0
  0
LINE
  5
1C695
  8
0
 62
     0
 10
27.805419027710229
 20
23.470464899250999
 30
0.0
 11
30.05541902771046
 21
25.72046489925123
 31
0.0
  0
LINE
  5
1C696
  8
0
 62
     0
 10
13.805261417584351
 20
9.4703072891251168
 30
0.0
 11
23.3054190277104
 21
18.970464899251169
 31
0.0
  0
LINE
  5
1C697
  8
0
 62
     0
 10
27.805419027710229
 20
25.715528929518261
 30
0.0
 11
30.055419027710521
 21
27.965528929518541
 31
0.0
  0
LINE
  5
1C698
  8
0
 62
     0
 10
11.560197387317089
 20
9.4703072891251168
 30
0.0
 11
23.30541902771051
 21
21.215528929518541
 31
0.0
  0
LINE
  5
1C699
  8
0
 62
     0
 10
27.805419027710229
 20
27.960592959785568
 30
0.0
 11
30.055419027710521
 21
30.21059295978586
 31
0.0
  0
LINE
  5
1C69A
  8
0
 62
     0
 10
9.8054190277103999
 20
9.9605929597857426
 30
0.0
 11
23.30541902771051
 21
23.460592959785849
 31
0.0
  0
LINE
  5
1C69B
  8
0
 62
     0
 10
27.805419027710169
 20
30.20565699005283
 30
0.0
 11
29.81274417724654
 21
32.212982139589201
 31
0.0
  0
LINE
  5
1C69C
  8
0
 62
     0
 10
9.8054190277102862
 20
12.20565699005294
 30
0.0
 11
23.30541902771057
 21
25.705656990053232
 31
0.0
  0
LINE
  5
1C69D
  8
0
 62
     0
 10
9.8054190277101725
 20
14.45072102032009
 30
0.0
 11
23.305419027710681
 21
27.9507210203206
 31
0.0
  0
LINE
  5
1C69E
  8
0
 62
     0
 10
27.80541902771029
 20
32.450721020320209
 30
0.0
 11
27.825005296515322
 21
32.47030728912523
 31
0.0
  0
LINE
  5
1C69F
  8
0
 62
     0
 10
4.8250052965153136
 20
9.4703072891252305
 30
0.0
 11
5.3054190277102862
 21
9.9507210203202021
 31
0.0
  0
LINE
  5
1C6A0
  8
0
 62
     0
 10
9.8054190277101725
 20
16.69578505058735
 30
0.0
 11
23.305419027710681
 21
30.195785050587919
 31
0.0
  0
LINE
  5
1C6A1
  8
0
 62
     0
 10
3.0554190277102862
 20
9.9457850505874603
 30
0.0
 11
5.3054190277102862
 21
12.19578505058746
 31
0.0
  0
LINE
  5
1C6A2
  8
0
 62
     0
 10
9.8054190277101156
 20
18.940849080854601
 30
0.0
 11
16.345883777263449
 21
25.481313830407942
 31
0.0
  0
LINE
  5
1C6A3
  8
0
 62
     0
 10
18.544412486427571
 20
27.679842539572071
 30
0.0
 11
23.305419027710741
 21
32.44084908085523
 31
0.0
  0
LINE
  5
1C6A4
  8
0
 62
     0
 10
3.0554190277102862
 20
12.19084908085477
 30
0.0
 11
5.305419027710343
 21
14.440849080854891
 31
0.0
  0
LINE
  5
1C6A5
  8
0
 62
     0
 10
9.8054190277100002
 20
21.18591311112181
 30
0.0
 11
14.92769575890259
 21
26.308189842314452
 31
0.0
  0
LINE
  5
1C6A6
  8
0
 62
     0
 10
17.717536474521069
 20
29.098030557932869
 30
0.0
 11
21.08981320571343
 21
32.47030728912523
 31
0.0
  0
LINE
  5
1C6A7
  8
0
 62
     0
 10
3.0554190277102289
 20
14.43591311112203
 30
0.0
 11
5.3054190277102862
 21
16.685913111122151
 31
0.0
  0
LINE
  5
1C6A8
  8
0
 62
     0
 10
9.8054190277100002
 20
23.430977141389061
 30
0.0
 11
14.796268254927041
 21
28.421826368606109
 31
0.0
  0
LINE
  5
1C6A9
  8
0
 62
     0
 10
15.603899948229349
 20
29.229458061908481
 30
0.0
 11
18.844749175446172
 21
32.47030728912523
 31
0.0
  0
LINE
  5
1C6AA
  8
0
 62
     0
 10
3.0554190277102289
 20
16.680977141389292
 30
0.0
 11
5.3054190277102862
 21
18.930977141389398
 31
0.0
  0
LINE
  5
1C6AB
  8
0
 62
     0
 10
9.8054190277099451
 20
25.676041171656319
 30
0.0
 11
16.599685145178849
 21
32.470307289125287
 31
0.0
  0
LINE
  5
1C6AC
  8
0
 62
     0
 10
3.0554190277102289
 20
18.9260411716566
 30
0.0
 11
5.3054190277102862
 21
21.17604117165666
 31
0.0
  0
LINE
  5
1C6AD
  8
0
 62
     0
 10
9.8054190277098314
 20
27.92110520192352
 30
0.0
 11
14.354621114911479
 21
32.470307289125167
 31
0.0
  0
LINE
  5
1C6AE
  8
0
 62
     0
 10
3.055419027710172
 20
21.171105201923869
 30
0.0
 11
5.3054190277102862
 21
23.421105201923979
 31
0.0
  0
LINE
  5
1C6AF
  8
0
 62
     0
 10
9.8054190277097746
 20
30.166169232190779
 30
0.0
 11
12.109557084644161
 21
32.470307289125167
 31
0.0
  0
LINE
  5
1C6B0
  8
0
 62
     0
 10
3.055419027710172
 20
23.41616923219112
 30
0.0
 11
5.3054190277102862
 21
25.66616923219124
 31
0.0
  0
LINE
  5
1C6B1
  8
0
 62
     0
 10
9.8054190277097746
 20
32.411233262457984
 30
0.0
 11
9.8644930543769078
 21
32.470307289125167
 31
0.0
  0
LINE
  5
1C6B2
  8
0
 62
     0
 10
3.055419027710172
 20
25.661233262458381
 30
0.0
 11
5.3054190277102862
 21
27.911233262458499
 31
0.0
  0
LINE
  5
1C6B3
  8
0
 62
     0
 10
3.055419027710172
 20
27.9062972927257
 30
0.0
 11
5.3054190277102862
 21
30.15629729272581
 31
0.0
  0
LINE
  5
1C6B4
  8
0
 62
     0
 10
3.0554190277101152
 20
30.151361322992958
 30
0.0
 11
5.3054190277102862
 21
32.401361322993182
 31
0.0
  0
ENDBLK
  5
1C6B6
  8
0
  0
BLOCK
  8
0
  2
*U124
 70
     1
 10
0.0
 20
0.0
 30
0.0
  3
*U124
  1

  0
SOLID
  5
1C6B8
  8
1DIM
 10
19.53535630740361
 20
55.681495392372319
 30
0.0
 11
18.600074295771829
 21
55.290310862392182
 31
0.0
 12
19.357929864619141
 22
55.963684989118839
 32
0.0
 13
19.357929864619141
 23
55.963684989118839
 33
0.0
  0
POLYLINE
  5
1C6B9
  8
1DIM
 66
     1
 10
0.0
 20
0.0
 30
0.0
  0
VERTEX
  5
1C6BA
  8
1DIM
 10
19.446643086011381
 20
55.822590190745579
 30
0.0
  0
VERTEX
  5
1C6BB
  8
1DIM
 10
29.832834763032292
 20
62.352898411097179
 30
0.0
  0
VERTEX
  5
1C6BC
  8
1DIM
 10
44.099501429698947
 20
62.352898411097179
 30
0.0
  0
SEQEND
  5
1C6BD
  8
1DIM
  0
ENDBLK
  5
1C6BF
  8
0
  0
BLOCK
  8
0
  2
*U125
 70
     1
 10
0.0
 20
0.0
 30
0.0
  3
*U125
  1

  0
TEXT
  5
1C6C1
  8
1DIM
 62
   201
 10
31.18283476303229
 20
62.702898411097181
 30
0.0
 40
1.75
  1
M4 P=0.7
  0
ENDBLK
  5
1C6C3
  8
0
  0
BLOCK
  8
0
  2
*U126
 70
     1
 10
0.0
 20
0.0
 30
0.0
  3
*U126
  1

  0
SOLID
  5
1C6C5
  8
1DIM
 10
29.706613317885989
 20
44.232265002452053
 30
0.0
 11
29.528196683986948
 21
45.230235584446291
 31
0.0
 12
30.020635310213908
 22
44.344074212473053
 32
0.0
 13
30.020635310213908
 23
44.344074212473053
 33
0.0
  0
POLYLINE
  5
1C6C6
  8
1DIM
 66
     1
 10
0.0
 20
0.0
 30
0.0
  0
VERTEX
  5
1C6C7
  8
1DIM
 10
29.86362431404995
 20
44.288169607462557
 30
0.0
  0
VERTEX
  5
1C6C8
  8
1DIM
 10
31.137159728738549
 20
40.711379035866933
 30
0.0
  0
VERTEX
  5
1C6C9
  8
1DIM
 10
38.737159728738547
 20
40.711379035866933
 30
0.0
  0
SEQEND
  5
1C6CA
  8
1DIM
  0
ENDBLK
  5
1C6CC
  8
0
  0
BLOCK
  8
0
  2
*U127
 70
     1
 10
0.0
 20
0.0
 30
0.0
  3
*U127
  1

  0
TEXT
  5
1C6CE
  8
1DIM
 62
   201
 10
32.487159728738547
 20
41.061379035866928
 30
0.0
 40
1.75
  1
4-C1
  0
ENDBLK
  5
1C6D0
  8
0
  0
BLOCK
  8
0
  2
*U128
 70
     1
 10
0.0
 20
0.0
 30
0.0
  3
*U128
  1

  0
SOLID
  5
1C6D2
  8
1DIM
 10
51.149438338066673
 20
44.222807806059649
 30
0.0
 11
51.706529605258311
 21
45.069818489461341
 31
0.0
 12
51.454257547126218
 22
44.087913918505691
 32
0.0
 13
51.454257547126218
 23
44.087913918505691
 33
0.0
  0
POLYLINE
  5
1C6D3
  8
1DIM
 66
     1
 10
0.0
 20
0.0
 30
0.0
  0
VERTEX
  5
1C6D4
  8
1DIM
 10
51.301847942596439
 20
44.15536086228267
 30
0.0
  0
VERTEX
  5
1C6D5
  8
1DIM
 10
48.42392591672737
 20
37.652131312243931
 30
0.0
  0
VERTEX
  5
1C6D6
  8
1DIM
 10
37.823925916727369
 20
37.652131312243931
 30
0.0
  0
SEQEND
  5
1C6D7
  8
1DIM
  0
ENDBLK
  5
1C6D9
  8
0
  0
BLOCK
  8
0
  2
*U129
 70
     1
 10
0.0
 20
0.0
 30
0.0
  3
*U129
  1

  0
TEXT
  5
1C6DB
  8
0
 62
   201
 10
38.615592583394033
 20
38.002131312243932
 30
0.0
 40
1.75
  1
2-C0.5
  0
ENDBLK
  5
1C6DD
  8
0
  0
BLOCK
  8
0
  2
*U130
 70
     1
 10
0.0
 20
0.0
 30
0.0
  3
*U130
  1

  0
SOLID
  5
1C6DF
  8
1DIM
 10
30.563878235704241
 20
32.772903651722721
 30
0.0
 11
29.822950271706532
 21
32.080947345339148
 31
0.0
 12
30.299409813958341
 22
32.975801569430978
 32
0.0
 13
30.299409813958341
 23
32.975801569430978
 33
0.0
  0
POLYLINE
  5
1C6E0
  8
1DIM
 66
     1
 10
0.0
 20
0.0
 30
0.0
  0
VERTEX
  5
1C6E1
  8
1DIM
 10
30.431644024831289
 20
32.87435261057685
 30
0.0
  0
VERTEX
  5
1C6E2
  8
1DIM
 10
31.686388974251742
 20
34.509856908575699
 30
0.0
  0
VERTEX
  5
1C6E3
  8
1DIM
 10
42.286388974251729
 20
34.509856908575699
 30
0.0
  0
SEQEND
  5
1C6E4
  8
1DIM
  0
ENDBLK
  5
1C6E6
  8
0
  0
BLOCK
  8
0
  2
*U131
 70
     1
 10
0.0
 20
0.0
 30
0.0
  3
*U131
  1

  0
TEXT
  5
1C6E8
  8
0
 62
   201
 10
33.036388974251743
 20
34.859856908575701
 30
0.0
 40
1.75
  1
2-C0.5
  0
ENDBLK
  5
1C6EA
  8
0
  0
BLOCK
  8
0
  2
*U132
 70
     1
 10
0.0
 20
0.0
 30
0.0
  3
*U132
  1

  0
TEXT
  5
1C6F0
  8
1DIM
 62
   201
 10
1044.8560482728931
 20
-1054.246633403437
 30
0.0
 40
1.75
  1
12
 50
90.0
  0
ENDBLK
  5
1C6F2
  8
0
  0
BLOCK
  8
0
  2
*U133
 70
     1
 10
0.0
 20
0.0
 30
0.0
  3
*U133
  1

  0
TEXT
  5
1C6F4
  8
1DIM
 62
   201
 10
1039.9942190014999
 20
-1054.829966736771
 30
0.0
 40
1.75
  1
(4)
 50
90.0
  0
ENDBLK
  5
1C6F6
  8
0
  0
BLOCK
  8
0
  2
*U134
 70
     1
 10
0.0
 20
0.0
 30
0.0
  3
*U134
  1

  0
TEXT
  5
1C6F8
  8
1DIM
 62
   201
 10
1040.4525523348341
 20
-1057.663300070104
 30
0.0
 40
1.75
  1
4
 50
90.0
  0
ENDBLK
  5
1C6FA
  8
0
  0
BLOCK
  8
0
  2
*U135
 70
     1
 10
0.0
 20
0.0
 30
0.0
  3
*U135
  1

  0
TEXT
  5
1C6FC
  8
1DIM
 62
   201
 10
1040.4525523348341
 20
-1049.663300070104
 30
0.0
 40
1.75
  1
4
 50
90.0
  0
ENDBLK
  5
1C6FE
  8
0
  0
BLOCK
  8
0
  2
*U136
 70
     1
 10
0.0
 20
0.0
 30
0.0
  3
*U136
  1

  0
LINE
  5
1C700
  8
0
 10
0.9999995934589379
 20
40.50692090418692
 30
0.0
 11
0.9999995934589379
 21
46.856920730112961
 31
0.0
  0
LINE
  5
1C701
  8
0
 10
0.9999995934589379
 20
40.50692090418692
 30
0.0
 11
1.3499995934590741
 21
40.156920904187018
 31
0.0
  0
LINE
  5
1C702
  8
0
 10
0.9999995934589379
 20
46.856920730112961
 30
0.0
 11
-0.0000004065410621
 21
47.856920804186977
 31
0.0
  0
LINE
  5
1C703
  8
0
 10
1.3499995934590741
 20
40.156920904187018
 30
0.0
 11
4.6499995934590279
 21
40.156920904187018
 31
0.0
  0
LINE
  5
1C704
  8
0
 10
-0.0000004065410621
 20
47.856920804186977
 30
0.0
 11
-0.0000004065410621
 21
48.156920904187018
 31
0.0
  0
LINE
  5
1C705
  8
0
 10
4.6499995934590279
 20
40.156920904187018
 30
0.0
 11
4.999999593458937
 21
40.50692090418692
 31
0.0
  0
LINE
  5
1C706
  8
0
 10
-0.0000004065410621
 20
48.156920904187018
 30
0.0
 11
5.999999593458937
 21
48.156920904187018
 31
0.0
  0
LINE
  5
1C707
  8
0
 10
4.999999593458937
 20
40.50692090418692
 30
0.0
 11
4.999999593458937
 21
46.856920730112961
 31
0.0
  0
LINE
  5
1C708
  8
0
 10
5.999999593458937
 20
47.856920894186942
 30
0.0
 11
5.999999593458937
 21
48.156920904187018
 31
0.0
  0
LINE
  5
1C709
  8
0
 10
4.999999593458937
 20
46.856920730112961
 30
0.0
 11
5.999999593458937
 21
47.856920894186942
 31
0.0
  0
ENDBLK
  5
1C70B
  8
0
  0
BLOCK
  8
0
  2
*U137
 70
     1
 10
0.0
 20
0.0
 30
0.0
  3
*U137
  1

  0
TEXT
  5
1C70D
  8
1DIM
 62
   201
 10
995.96894867844765
 20
-1059.234616295028
 30
0.0
 40
1.75
  1
27
  0
ENDBLK
  5
1C70F
  8
0
  0
BLOCK
  8
0
  2
*U138
 70
     1
 10
0.0
 20
0.0
 30
0.0
  3
*U138
  1

  0
TEXT
  5
1C711
  8
1DIM
 62
   201
 10
995.74394867844785
 20
-1068.209488262587
 30
0.0
 40
1.75
  1
φ5
  0
ENDBLK
  5
1C713
  8
0
  0
BLOCK
  8
0
  2
*U139
 70
     1
 10
0.0
 20
0.0
 30
0.0
  3
*U139
  1

  0
TEXT
  5
1C715
  8
1DIM
 62
   201
 10
1014.0216931359899
 20
-1034.7064418227881
 30
0.0
 40
1.75
  1
18
 50
90.0
  0
ENDBLK
  5
1C717
  8
0
  0
BLOCK
  8
0
  2
*U140
 70
     1
 10
0.0
 20
0.0
 30
0.0
  3
*U140
  1

  0
TEXT
  5
1C719
  8
1DIM
 62
   201
 10
1017.667499290189
 20
-1037.498108489455
 30
0.0
 40
1.75
  1
23
 50
90.0
  0
ENDBLK
  5
1C71B
  8
0
  0
BLOCK
  8
0
  2
*U141
 70
     1
 10
0.0
 20
0.0
 30
0.0
  3
*U141
  1

  0
TEXT
  5
1C71D
  8
1DIM
 62
   201
 10
996.26061534511462
 20
-1122.910628851479
 30
0.0
 40
1.75
  1
18
  0
ENDBLK
  5
1C71F
  8
0
  0
BLOCK
  8
0
  2
*U142
 70
     1
 10
0.0
 20
0.0
 30
0.0
  3
*U142
  1

  0
TEXT
  5
1C721
  8
1DIM
 62
   201
 10
1009.885615345114
 20
-1120.5799403003059
 30
0.0
 40
1.75
  1
φ4.5
  0
ENDBLK
  5
1C723
  8
0
  0
BLOCK
  8
0
  2
*U143
 70
     1
 10
0.0
 20
0.0
 30
0.0
  3
*U143
  1

  0
TEXT
  5
1C725
  8
1DIM
 62
   201
 10
995.53144867844765
 20
-1065.012276297949
 30
0.0
 40
1.75
  1
90°
  0
ENDBLK
  5
1C727
  8
0
  0
BLOCK
  8
0
  2
*U144
 70
     1
 10
0.0
 20
0.0
 30
0.0
  3
*U144
  1

  0
TEXT
  5
1C729
  8
1DIM
 62
   201
 10
854.76221967347624
 20
-1013.9183485570881
 30
0.0
 40
3.5
  1
55
 50
90.0
  0
ENDBLK
  5
1C72B
  8
0
  0
BLOCK
  8
0
  2
*U145
 70
     1
 10
0.0
 20
0.0
 30
0.0
  3
*U145
  1

  0
TEXT
  5
1C72D
  8
1DIM
 62
   201
 10
716.08721967347594
 20
-1057.80168189042
 30
0.0
 40
3.5
  1
230
  0
ENDBLK
  5
1C72F
  8
0
  0
BLOCK
  8
0
  2
*U146
 70
     1
 10
0.0
 20
0.0
 30
0.0
  3
*U146
  1

  0
TEXT
  5
1C731
  8
1DIM
 62
   201
 10
618.12888634014234
 20
-1102.8016818904221
 30
0.0
 40
3.5
  1
18
  0
ENDBLK
  5
1C733
  8
0
  0
BLOCK
  8
0
  2
*U147
 70
     1
 10
0.0
 20
0.0
 30
0.0
  3
*U147
  1

  0
TEXT
  5
1C735
  8
1DIM
 62
   201
 10
818.12888634014246
 20
-1102.80168189042
 30
0.0
 40
3.5
  1
18
  0
ENDBLK
  5
1C737
  8
0
  0
BLOCK
  8
0
  2
*U148
 70
     1
 10
0.0
 20
0.0
 30
0.0
  3
*U148
  1

  0
TEXT
  5
1C739
  8
1DIM
 62
   201
 10
716.37888634014234
 20
-1102.80168189042
 30
0.0
 40
3.5
  1
182
  0
ENDBLK
  5
1C73B
  8
0
  0
BLOCK
  8
0
  2
*U149
 70
     1
 10
0.0
 20
0.0
 30
0.0
  3
*U149
  1

  0
TEXT
  5
1C73D
  8
1DIM
 62
   201
 10
864.76221967347612
 20
-1078.335015223754
 30
0.0
 40
3.5
  1
15
 50
90.0
  0
ENDBLK
  5
1C73F
  8
0
  0
BLOCK
  8
0
  2
*U150
 70
     1
 10
0.0
 20
0.0
 30
0.0
  3
*U150
  1

  0
TEXT
  5
1C741
  8
1DIM
 62
   201
 10
854.76221967347601
 20
-1088.5108969830519
 30
0.0
 40
3.5
  1
4
 50
90.0
  0
ENDBLK
  5
1C743
  8
0
  0
BLOCK
  8
0
  2
*U151
 70
     1
 10
0.0
 20
0.0
 30
0.0
  3
*U151
  1

  0
TEXT
  5
1C745
  8
1DIM
 62
   201
 10
854.76221967347624
 20
-1065.6350152237551
 30
0.0
 40
3.5
  1
5.8
 50
90.0
  0
ENDBLK
  5
1C747
  8
0
  0
BLOCK
  8
0
  2
*U152
 70
     1
 10
0.0
 20
0.0
 30
0.0
  3
*U152
  1

  0
TEXT
  5
1C749
  8
1DIM
 62
   201
 10
818.12888634014246
 20
-1112.80168189042
 30
0.0
 40
3.5
  1
18
  0
ENDBLK
  5
1C74B
  8
0
  0
BLOCK
  8
0
  2
*U153
 70
     1
 10
0.0
 20
0.0
 30
0.0
  3
*U153
  1

  0
TEXT
  5
1C74D
  8
1DIM
 62
   201
 10
618.12888634014234
 20
-1102.80168189042
 30
0.0
 40
3.5
  1
18
  0
ENDBLK
  5
1C74F
  8
0
  0
BLOCK
  8
0
  2
*U154
 70
     1
 10
0.0
 20
0.0
 30
0.0
  3
*U154
  1

  0
TEXT
  5
1C751
  8
1DIM
 62
   201
 10
705.62888634014234
 20
-1112.80168189042
 30
0.0
 40
3.5
  1
P200
  0
ENDBLK
  5
1C753
  8
0
  0
BLOCK
  8
0
  2
*U155
 70
     1
 10
0.0
 20
0.0
 30
0.0
  3
*U155
  1

  0
TEXT
  5
1C755
  8
1DIM
 62
   201
 10
723.62888634014246
 20
-1102.80168189042
 30
0.0
 40
3.5
  1
P200
  0
ENDBLK
  5
1C757
  8
0
  0
BLOCK
  8
0
  2
*U156
 70
     1
 10
0.0
 20
0.0
 30
0.0
  3
*U156
  1

  0
SOLID
  5
1C759
  8
1DIM
 10
4.2594429245962218
 20
27.188052583947972
 30
0.0
 11
3.6838407759320262
 21
29.132221629469541
 31
0.0
 12
4.8588706069997487
 22
27.47982458056995
 32
0.0
 13
4.8588706069997487
 23
27.47982458056995
 33
0.0
  0
POLYLINE
  5
1C75A
  8
1DIM
 66
     1
 10
0.0
 20
0.0
 30
0.0
  0
VERTEX
  5
1C75B
  8
1DIM
 10
4.5591567657979857
 20
27.333938582258959
 30
0.0
  0
VERTEX
  5
1C75C
  8
1DIM
 10
14.42897625047253
 20
7.0569994382170087
 30
0.0
  0
VERTEX
  5
1C75D
  8
1DIM
 10
61.928976250472573
 20
7.0569994382170087
 30
0.0
  0
SEQEND
  5
1C75E
  8
1DIM
  0
ENDBLK
  5
1C760
  8
0
  0
BLOCK
  8
0
  2
*U157
 70
     1
 10
0.0
 20
0.0
 30
0.0
  3
*U157
  1

  0
TEXT
  5
1C762
  8
1DIM
 62
   201
 10
17.12897625047253
 20
19.423666104883679
 30
0.0
 40
3.5
  1
材質：ステンレス
  0
TEXT
  5
1C763
  8
1DIM
 62
   201
 10
17.12897625047253
 20
13.59033277155034
 30
0.0
 40
3.5
  1
仕上：各種仕上
  0
TEXT
  5
1C764
  8
1DIM
 62
   201
 10
16.42897625047253
 20
7.7569994382170089
 30
0.0
 40
3.5
  1
※ヘアライン方向：横目
  0
ENDBLK
  5
1C766
  8
0
  0
ENDSEC
  0
SECTION
  2
ENTITIES
  0
LINE
  5
193BD
  8
01
 10
949.46221967347651
 20
-1036.3016818904221
 30
0.0
 11
949.46221967347651
 21
-1116.3016818904221
 31
0.0
  0
LINE
  5
193BE
  8
01
 10
958.4622196734764
 20
-1036.3016818904221
 30
0.0
 11
958.4622196734764
 21
-1116.3016818904221
 31
0.0
  0
LINE
  5
193BF
  8
01
 10
940.46221967347628
 20
-1036.3016818904221
 30
0.0
 11
940.46221967347628
 21
-1116.3016818904221
 31
0.0
  0
TEXT
  5
193C6
  8
1TEXT
 10
885.20720874483175
 20
-979.464249864826
 30
0.0
 40
4.0
  1
表面処理：
 72
     1
 11
895.85482779245081
 21
-979.464249864826
 31
0.0
  0
TEXT
  5
193C7
  8
1TEXT
 10
884.65482779245076
 20
-986.2995385243504
 30
0.0
 40
4.0
  1
ポリッシュ
 72
     1
 11
895.85482779245081
 21
-986.2995385243504
 31
0.0
  0
LINE
  5
193C8
  8
1DIM
 10
878.45482779245071
 20
-973.964249864826
 30
0.0
 11
948.4548277924506
 21
-973.964249864826
 31
0.0
  0
LINE
  5
193C9
  8
1DIM
 10
878.45482779245071
 20
-987.964249864826
 30
0.0
 11
948.4548277924506
 21
-987.964249864826
 31
0.0
  0
LINE
  5
193CA
  8
1DIM
 10
878.45482779245071
 20
-980.964249864826
 30
0.0
 11
948.4548277924506
 21
-980.964249864826
 31
0.0
  0
LINE
  5
193CB
  8
1DIM
 10
913.45482779245071
 20
-973.964249864826
 30
0.0
 11
913.45482779245026
 21
-1001.964249864826
 31
0.0
  0
TEXT
  5
193CC
  8
1TEXT
 10
918.18816112578463
 20
-986.67860684847551
 30
0.0
 40
4.0
  1
SC461XP
 72
     1
 11
930.85482779245126
 21
-986.67860684847551
 31
0.0
  0
TEXT
  5
193CD
  8
1TEXT
 10
924.05482779245085
 20
-979.464249864826
 30
0.0
 40
4.0
  1
コード
 72
     1
 11
930.85482779245081
 21
-979.464249864826
 31
0.0
  0
LINE
  5
193CE
  8
1DIM
 10
878.45482779245049
 20
-1001.964249864826
 30
0.0
 11
878.45482779245071
 21
-973.964249864826
 31
0.0
  0
LINE
  5
193CF
  8
1DIM
 10
948.45482779245037
 20
-1001.964249864826
 30
0.0
 11
948.4548277924506
 21
-973.964249864826
 31
0.0
  0
TEXT
  5
193D0
  8
1TEXT
 10
878.45482779245071
 20
-968.96424986482589
 30
0.0
 40
8.0
  1
SC461
  0
TEXT
  5
1B77A
  8
1TEXT
 10
884.38816112578399
 20
-993.2995385243504
 30
0.0
 40
4.0
  1
ヘアライン
 72
     1
 11
895.85482779245058
 21
-993.2995385243504
 31
0.0
  0
LINE
  5
1B77B
  8
1DIM
 10
878.45482779245049
 20
-994.96424986482589
 30
0.0
 11
948.4548277924506
 21
-994.96424986482589
 31
0.0
  0
TEXT
  5
1B77C
  8
1TEXT
 10
918.1881611257844
 20
-993.67860684847528
 30
0.0
 40
4.0
  1
SC461XT
 72
     1
 11
930.85482779245115
 21
-993.67860684847528
 31
0.0
  0
TEXT
  5
1B77D
  8
1TEXT
 10
879.05482779245074
 20
-1000.2995385243501
 30
0.0
 40
4.0
  1
コンビネーション
 41
0.9
 72
     1
 11
895.85482779245058
 21
-1000.2995385243501
 31
0.0
  0
LINE
  5
1B77E
  8
1DIM
 10
878.45482779245049
 20
-1001.964249864826
 30
0.0
 11
948.4548277924506
 21
-1001.964249864826
 31
0.0
  0
TEXT
  5
1B77F
  8
1TEXT
 10
918.1881611257844
 20
-1000.6786068484751
 30
0.0
 40
4.0
  1
SC461PT
 72
     1
 11
930.85482779245115
 21
-1000.6786068484751
 31
0.0
  0
LINE
  5
1B7FC
  8
1PHANTOM
 10
918.4622196734764
 20
-1070.3016818904221
 30
0.0
 11
940.46221967347628
 21
-1070.3016818904221
 31
0.0
  0
LINE
  5
1B7FE
  8
1PHANTOM
 10
917.4622196734764
 20
-1081.3016818904221
 30
0.0
 11
918.4622196734764
 21
-1082.3016818904221
 31
0.0
  0
LINE
  5
1B7FF
  8
01
 10
940.46221967347628
 20
-1082.3016818904221
 30
0.0
 11
940.46221967347628
 21
-1070.3016818904221
 31
0.0
  0
LINE
  5
1B800
  8
1PHANTOM
 10
917.4622196734764
 20
-1081.3016818904221
 30
0.0
 11
917.4622196734764
 21
-1071.3016818904221
 31
0.0
  0
LINE
  5
1B801
  8
1PHANTOM
 10
918.4622196734764
 20
-1070.3016818904221
 30
0.0
 11
917.4622196734764
 21
-1071.3016818904221
 31
0.0
  0
LINE
  5
1B80A
  8
01
 10
606.46221967347572
 20
-1083.5016818904221
 30
0.0
 11
834.46221967347606
 21
-1083.501681890421
 31
0.0
  0
ARC
  5
1B80B
  8
01
 10
606.46221967347572
 20
-1082.5016818904221
 30
0.0
 40
1.0
 50
180.0
 51
270.0
  0
LINE
  5
1B80C
  8
01
 10
606.46221967347572
 20
-1068.5016818904221
 30
0.0
 11
834.46221967347606
 21
-1068.5016818904201
 31
0.0
  0
ARC
  5
1B80D
  8
01
 10
606.46221967347572
 20
-1069.5016818904221
 30
0.0
 40
1.0
 50
90.0
 51
180.0
  0
LINE
  5
1B80E
  8
01
 10
605.46221967347572
 20
-1082.5016818904221
 30
0.0
 11
605.46221967347572
 21
-1069.5016818904221
 31
0.0
  0
ARC
  5
1B80F
  8
01
 10
834.46221967347606
 20
-1082.5016818904221
 30
0.0
 40
1.0
 50
270.0
 51
0.0
  0
ARC
  5
1B810
  8
01
 10
834.46221967347606
 20
-1069.5016818904221
 30
0.0
 40
1.0
 50
0.0
 51
90.0
  0
LINE
  5
1B811
  8
01
 10
835.46221967347606
 20
-1082.5016818904221
 30
0.0
 11
835.46221967347606
 21
-1069.5016818904221
 31
0.0
  0
LINE
  5
1B812
  8
01
 10
605.46221967347572
 20
-983.50168189042222
 30
0.0
 11
635.46221967347583
 21
-983.50168189042233
 31
0.0
  0
LINE
  5
1B813
  8
01
 10
805.46221967347583
 20
-983.50168189042233
 30
0.0
 11
835.46221967347572
 21
-983.50168189042222
 31
0.0
  0
LINE
  5
1B814
  8
01
 10
636.46221967347606
 20
-1013.501681890422
 30
0.0
 11
804.46221967347583
 21
-1013.501681890422
 31
0.0
  0
ARC
  5
1B815
  8
01
 10
636.46221967347606
 20
-1012.501681890422
 30
0.0
 40
1.0
 50
180.0
 51
270.0
  0
ARC
  5
1B817
  8
01
 10
834.26221967347624
 20
-1037.3016818904221
 30
0.0
 40
1.1999999999999991
 50
270.0
 51
0.0
  0
LINE
  5
1B818
  8
01
 10
835.46221967347594
 20
-983.50168189042222
 30
0.0
 11
835.46221967347606
 21
-1037.3016818904221
 31
0.0
  0
LINE
  5
1B819
  8
01
 10
805.46221967347583
 20
-983.50168189042222
 30
0.0
 11
805.46221967347583
 21
-1012.501681890422
 31
0.0
  0
ARC
  5
1B81A
  8
01
 10
804.46221967347583
 20
-1012.501681890422
 30
0.0
 40
1.0
 50
270.0
 51
0.0
  0
LINE
  5
1B81B
  8
01
 10
635.46221967347583
 20
-983.50168189042222
 30
0.0
 11
635.46221967347606
 21
-1012.501681890422
 31
0.0
  0
LINE
  5
1B81C
  8
01
 10
605.46221967347572
 20
-983.50168189042222
 30
0.0
 11
605.46221967347572
 21
-1037.3016818904221
 31
0.0
  0
ARC
  5
1B81D
  8
01
 10
606.66221967347565
 20
-1037.3016818904221
 30
0.0
 40
1.1999999999999991
 50
180.0
 51
270.0
  0
LINE
  5
1B81E
  8
01
 10
940.46221967347628
 20
-1068.5016818904221
 30
0.0
 11
940.46221967347628
 21
-1083.5016818904221
 31
0.0
  0
LINE
  5
1B81F
  8
01
 10
940.46221967347628
 20
-1083.5016818904221
 30
0.0
 11
886.46221967347606
 21
-1083.5016818904221
 31
0.0
  0
LINE
  5
1B821
  8
01
 10
940.46221967347628
 20
-1068.5016818904221
 30
0.0
 11
886.46221967347606
 21
-1068.5016818904221
 31
0.0
  0
ARC
  5
1B823
  8
01
 10
886.46221967347606
 20
-1069.5016818904221
 30
0.0
 40
1.0
 50
90.0
 51
180.0
  0
LINE
  5
1B824
  8
01
 10
885.46221967347606
 20
-1069.5016818904221
 30
0.0
 11
885.46221967347606
 21
-1082.5016818904221
 31
0.0
  0
ARC
  5
1B826
  8
01
 10
886.46221967347606
 20
-1082.5016818904221
 30
0.0
 40
1.0
 50
180.0
 51
270.0
  0
LINE
  5
1B9B7
  8
1PHANTOM
 10
806.96221967347572
 20
-1006.001681890422
 30
0.0
 11
806.96221967347572
 21
-983.50168189042233
 31
0.0
  0
LINE
  5
1B9B8
  8
1PHANTOM
 10
807.46221967347583
 20
-1006.501681890422
 30
0.0
 11
806.96221967347572
 21
-1006.001681890422
 31
0.0
  0
LINE
  5
1B9BA
  8
1PHANTOM
 10
807.46221967347583
 20
-1006.501681890422
 30
0.0
 11
833.46221967347594
 21
-1006.501681890422
 31
0.0
  0
LINE
  5
1B9BB
  8
1PHANTOM
 10
833.96221967347606
 20
-1006.001681890422
 30
0.0
 11
833.46221967347594
 21
-1006.501681890422
 31
0.0
  0
LINE
  5
1B9BC
  8
1PHANTOM
 10
833.96221967347606
 20
-1006.001681890422
 30
0.0
 11
833.96221967347617
 21
-983.50168189042233
 31
0.0
  0
LINE
  5
1B9BD
  8
1PHANTOM
 10
807.96221967347572
 20
-1006.001681890423
 30
0.0
 11
807.96221967347572
 21
-983.50168189042233
 31
0.0
  0
LINE
  5
1B9BE
  8
1PHANTOM
 10
832.96221967347617
 20
-1006.001681890422
 30
0.0
 11
832.96221967347572
 21
-983.50168189042233
 31
0.0
  0
LINE
  5
1BA1B
  8
1PHANTOM
 10
833.96221967347606
 20
-1006.001681890422
 30
0.0
 11
806.96221967347572
 21
-1006.001681890422
 31
0.0
  0
LINE
  5
1BA1C
  8
1PHANTOM
 10
832.7551128922895
 20
-1006.501681890422
 30
0.0
 11
832.96221967347617
 21
-1006.001681890422
 31
0.0
  0
LINE
  5
1BA1D
  8
1PHANTOM
 10
808.16932645466215
 20
-1006.501681890422
 30
0.0
 11
807.96221967347572
 21
-1006.001681890422
 31
0.0
  0
LINE
  5
1BBE9
  8
1PHANTOM
 10
924.11221967347615
 20
-1081.8364114971489
 30
0.0
 11
924.46221967347651
 21
-1082.1864113230749
 31
0.0
  0
LINE
  5
1BBEA
  8
1PHANTOM
 10
920.4622196734764
 20
-1082.1864113230749
 30
0.0
 11
920.81221967347631
 21
-1081.8364114971489
 31
0.0
  0
LINE
  5
1BBEB
  8
1PHANTOM
 10
925.4622196734764
 20
-1083.1864114871489
 30
0.0
 11
919.4622196734764
 21
-1083.1864114871489
 31
0.0
  0
LINE
  5
1BBEC
  8
1PHANTOM
 10
924.46221967347651
 20
-1075.8364114971489
 30
0.0
 11
920.4622196734764
 21
-1075.8364114971489
 31
0.0
  0
LINE
  5
1BBEE
  8
1PHANTOM
 10
920.81221967347631
 20
-1075.486411497149
 30
0.0
 11
920.81221967347631
 21
-1081.8364114971489
 31
0.0
  0
LINE
  5
1BBEF
  8
1PHANTOM
 10
924.11221967347615
 20
-1075.486411497149
 30
0.0
 11
924.11221967347615
 21
-1081.8364114971489
 31
0.0
  0
LINE
  5
1BBF0
  8
1PHANTOM
 10
922.46221967347628
 20
-1073.8847364971491
 30
0.0
 11
922.46221967347628
 21
-1085.0451803971489
 31
0.0
  0
LINE
  5
1BC90
  8
1CENTER
 10
807.55951015704011
 20
-1078.3016818904221
 30
0.0
 11
815.36492918991144
 21
-1078.3016818904221
 31
0.0
  0
LINE
  5
1BC93
  8
1CENTER
 10
825.55951015704034
 20
-1074.3016818904221
 30
0.0
 11
833.36492918991144
 21
-1074.3016818904221
 31
0.0
  0
LINE
  5
1BC94
  8
1CENTER
 10
829.46221967347583
 20
-1078.204391406857
 30
0.0
 11
829.46221967347583
 21
-1070.398972373986
 31
0.0
  0
LINE
  5
1BC95
  8
1CENTER
 10
811.46221967347583
 20
-1082.204391406857
 30
0.0
 11
811.46221967347583
 21
-1074.398972373986
 31
0.0
  0
LINE
  5
1BC98
  8
1CENTER
 10
607.55951015704022
 20
-1078.3016818904221
 30
0.0
 11
615.36492918991144
 21
-1078.3016818904221
 31
0.0
  0
LINE
  5
1BC99
  8
1CENTER
 10
625.55951015704022
 20
-1074.3016818904221
 30
0.0
 11
633.36492918991144
 21
-1074.3016818904221
 31
0.0
  0
LINE
  5
1BC9A
  8
1CENTER
 10
629.46221967347583
 20
-1078.204391406857
 30
0.0
 11
629.46221967347583
 21
-1070.398972373986
 31
0.0
  0
LINE
  5
1BC9B
  8
1CENTER
 10
611.46221967347583
 20
-1082.204391406857
 30
0.0
 11
611.46221967347583
 21
-1074.398972373986
 31
0.0
  0
LINE
  5
1BC9C
  8
1PHANTOM
 10
606.96221967347572
 20
-1006.001681890422
 30
0.0
 11
606.96221967347572
 21
-983.50168189042233
 31
0.0
  0
LINE
  5
1BC9D
  8
1PHANTOM
 10
607.46221967347572
 20
-1006.501681890422
 30
0.0
 11
606.96221967347572
 21
-1006.001681890422
 31
0.0
  0
LINE
  5
1BC9E
  8
1PHANTOM
 10
607.46221967347572
 20
-1006.501681890422
 30
0.0
 11
633.46221967347594
 21
-1006.501681890422
 31
0.0
  0
LINE
  5
1BC9F
  8
1PHANTOM
 10
633.96221967347594
 20
-1006.001681890422
 30
0.0
 11
633.46221967347594
 21
-1006.501681890422
 31
0.0
  0
LINE
  5
1BCA0
  8
1PHANTOM
 10
633.96221967347594
 20
-1006.001681890422
 30
0.0
 11
633.96221967347617
 21
-983.50168189042233
 31
0.0
  0
LINE
  5
1BCA1
  8
1PHANTOM
 10
607.96221967347572
 20
-1006.001681890423
 30
0.0
 11
607.96221967347572
 21
-983.50168189042233
 31
0.0
  0
LINE
  5
1BCA2
  8
1PHANTOM
 10
632.96221967347606
 20
-1006.001681890422
 30
0.0
 11
632.96221967347572
 21
-983.50168189042233
 31
0.0
  0
LINE
  5
1BCA3
  8
1PHANTOM
 10
633.96221967347594
 20
-1006.001681890422
 30
0.0
 11
606.96221967347572
 21
-1006.001681890422
 31
0.0
  0
LINE
  5
1BCA4
  8
1PHANTOM
 10
632.7551128922895
 20
-1006.501681890422
 30
0.0
 11
632.96221967347606
 21
-1006.001681890422
 31
0.0
  0
LINE
  5
1BCA5
  8
1PHANTOM
 10
608.16932645466215
 20
-1006.501681890422
 30
0.0
 11
607.9622196734756
 21
-1006.001681890422
 31
0.0
  0
LINE
  5
1BEE9
  8
1CENTER
 10
829.46221967347583
 20
-956.75356760804402
 30
0.0
 11
829.46221967347583
 21
-1011.171958299733
 31
0.0
  0
LINE
  5
1BEEA
  8
01
 10
828.36789585948065
 20
-959.60167934426465
 30
0.0
 11
830.33023094835619
 21
-958.8016839102138
 31
0.0
  0
LINE
  5
1BEEB
  8
01
 10
830.33023094835619
 20
-958.8016839102138
 30
0.0
 11
829.74195437331377
 21
-958.48991405396168
 31
0.0
  0
LINE
  5
1BEEC
  8
01
 10
827.46226620937375
 20
-1002.001677237055
 30
0.0
 11
831.46226620937375
 21
-1001.2016865442361
 31
0.0
  0
LINE
  5
1BEED
  8
01
 10
827.46226620937375
 20
-990.80167723705028
 30
0.0
 11
831.46226620937375
 21
-990.00168654422782
 31
0.0
  0
LINE
  5
1BEEE
  8
01
 10
827.46226620937375
 20
-987.60167723705035
 30
0.0
 11
831.46226620937375
 21
-986.80168654422778
 31
0.0
  0
LINE
  5
1BEEF
  8
01
 10
831.46226620937375
 20
-986.80168654422778
 30
0.0
 11
830.96226620937387
 21
-986.70168538083055
 31
0.0
  0
LINE
  5
1BEF0
  8
01
 10
827.96226620937387
 20
-986.10167840044744
 30
0.0
 11
827.46226620937375
 21
-986.00167723705033
 31
0.0
  0
LINE
  5
1BEF1
  8
01
 10
831.46226620937375
 20
-990.00168654422782
 30
0.0
 11
830.96226620937387
 21
-989.90168538083049
 31
0.0
  0
LINE
  5
1BEF2
  8
01
 10
831.46226620937375
 20
-988.40168654422757
 30
0.0
 11
830.96226620937387
 21
-988.30168538083046
 31
0.0
  0
LINE
  5
1BEF3
  8
01
 10
827.96226620937387
 20
-987.70167840044735
 30
0.0
 11
827.46226620937375
 21
-987.60167723705035
 31
0.0
  0
LINE
  5
1BEF4
  8
01
 10
827.96226620937387
 20
-989.30167840044726
 30
0.0
 11
827.46226620937375
 21
-989.20167723705026
 31
0.0
  0
LINE
  5
1BEF5
  8
01
 10
827.46226620937375
 20
-989.20167723705026
 30
0.0
 11
831.46226620937375
 21
-988.40168654422757
 31
0.0
  0
LINE
  5
1BEF6
  8
01
 10
830.78304505276299
 20
-960.40168496381943
 30
0.0
 11
830.23129558895971
 21
-960.21892082119143
 31
0.0
  0
LINE
  5
1BEF7
  8
01
 10
831.46226620937375
 20
-983.60168654422762
 30
0.0
 11
830.96226620937387
 21
-983.50168538083074
 31
0.0
  0
LINE
  5
1BEF8
  8
01
 10
831.46226620937375
 20
-985.20168654422775
 30
0.0
 11
830.96226620937387
 21
-985.10168538083065
 31
0.0
  0
LINE
  5
1BEF9
  8
01
 10
831.2358591571699
 20
-962.00168601742507
 30
0.0
 11
830.69926542189853
 21
-961.87241531979521
 31
0.0
  0
LINE
  5
1BEFA
  8
01
 10
828.38318080658246
 20
-961.31444780301058
 30
0.0
 11
827.9150823514326
 21
-961.20167829066054
 31
0.0
  0
LINE
  5
1BEFB
  8
01
 10
827.96226620937387
 20
-984.50167840044742
 30
0.0
 11
827.46226620937375
 21
-984.40167723705031
 31
0.0
  0
LINE
  5
1BEFC
  8
01
 10
827.96226620937387
 20
-962.90167840044751
 30
0.0
 11
827.46226620937375
 21
-962.8016772370504
 31
0.0
  0
LINE
  5
1BEFD
  8
01
 10
828.82506770011184
 20
-959.75311514070518
 30
0.0
 11
828.36789585948065
 21
-959.60167934426465
 31
0.0
  0
LINE
  5
1BEFE
  8
01
 10
827.9150823514326
 20
-961.20167829066054
 30
0.0
 11
830.78304505276299
 21
-960.40168496381943
 31
0.0
  0
LINE
  5
1BEFF
  8
01
 10
827.46226620937375
 20
-984.40167723705031
 30
0.0
 11
831.46226620937375
 21
-983.60168654422762
 31
0.0
  0
LINE
  5
1BF00
  8
01
 10
827.46226620937375
 20
-962.8016772370504
 30
0.0
 11
831.2358591571699
 21
-962.00168601742507
 31
0.0
  0
LINE
  5
1BF01
  8
01
 10
827.46226620937375
 20
-986.00167723705033
 30
0.0
 11
831.46226620937375
 21
-985.20168654422775
 31
0.0
  0
LINE
  5
1BF02
  8
01
 10
827.46226620937375
 20
-998.80167723705472
 30
0.0
 11
831.46226620937375
 21
-998.00168654423635
 31
0.0
  0
LINE
  5
1BF03
  8
01
 10
831.46226620937375
 20
-998.00168654423635
 30
0.0
 11
830.96226620937387
 21
-997.90168538083867
 31
0.0
  0
LINE
  5
1BF04
  8
01
 10
827.96226620937387
 20
-997.30167840044805
 30
0.0
 11
827.46226620937375
 21
-997.20167723705026
 31
0.0
  0
LINE
  5
1BF05
  8
01
 10
831.46226620937375
 20
-999.60168654423649
 30
0.0
 11
830.96226620937387
 21
-999.50168538083892
 31
0.0
  0
LINE
  5
1BF06
  8
01
 10
831.46226620937375
 20
-1001.2016865442361
 30
0.0
 11
830.96226620937387
 21
-1001.1016853808389
 31
0.0
  0
LINE
  5
1BF07
  8
01
 10
827.96226620937387
 20
-998.9016784004524
 30
0.0
 11
827.46226620937375
 21
-998.80167723705472
 31
0.0
  0
LINE
  5
1BF08
  8
01
 10
827.96226620937387
 20
-1000.501678400452
 30
0.0
 11
827.46226620937375
 21
-1000.4016772370539
 31
0.0
  0
LINE
  5
1BF09
  8
01
 10
827.46226620937375
 20
-1000.4016772370539
 30
0.0
 11
831.46226620937375
 21
-999.60168654423649
 31
0.0
  0
LINE
  5
1BF0A
  8
01
 10
831.46226620937375
 20
-993.20168654423207
 30
0.0
 11
830.96226620937387
 21
-993.1016853808344
 31
0.0
  0
LINE
  5
1BF0B
  8
01
 10
831.46226620937375
 20
-991.60168654422762
 30
0.0
 11
830.96226620937387
 21
-991.50168538083074
 31
0.0
  0
LINE
  5
1BF0C
  8
01
 10
831.46226620937375
 20
-996.40168654423212
 30
0.0
 11
830.96226620937387
 21
-996.30168538083444
 31
0.0
  0
LINE
  5
1BF0D
  8
01
 10
831.46226620937375
 20
-994.80168654423233
 30
0.0
 11
830.96226620937387
 21
-994.70168538083465
 31
0.0
  0
LINE
  5
1BF0E
  8
01
 10
827.96226620937387
 20
-990.90167840044739
 30
0.0
 11
827.46226620937375
 21
-990.80167723705028
 31
0.0
  0
LINE
  5
1BF0F
  8
01
 10
827.96226620937387
 20
-992.50167840044821
 30
0.0
 11
827.46226620937375
 21
-992.40167723705031
 31
0.0
  0
LINE
  5
1BF10
  8
01
 10
827.96226620937387
 20
-995.70167840044815
 30
0.0
 11
827.46226620937375
 21
-995.60167723705047
 31
0.0
  0
LINE
  5
1BF11
  8
01
 10
827.96226620937387
 20
-994.10167840044801
 30
0.0
 11
827.46226620937375
 21
-994.00167723705033
 31
0.0
  0
LINE
  5
1BF12
  8
01
 10
827.46226620937375
 20
-994.00167723705033
 30
0.0
 11
831.46226620937375
 21
-993.20168654423207
 31
0.0
  0
LINE
  5
1BF13
  8
01
 10
827.46226620937375
 20
-992.40167723705031
 30
0.0
 11
831.46226620937375
 21
-991.60168654422762
 31
0.0
  0
LINE
  5
1BF14
  8
01
 10
827.46226620937375
 20
-995.60167723705047
 30
0.0
 11
831.46226620937375
 21
-994.80168654423233
 31
0.0
  0
LINE
  5
1BF15
  8
01
 10
827.46226620937375
 20
-997.20167723705026
 30
0.0
 11
831.46226620937375
 21
-996.40168654423212
 31
0.0
  0
LINE
  5
1BF16
  8
01
 10
830.96226620937387
 20
-1007.501685380725
 30
0.0
 11
827.96226620937387
 21
-1007.50167840034
 31
0.0
  0
LINE
  5
1BF17
  8
01
 10
827.96226620937387
 20
-1006.901678400456
 30
0.0
 11
827.46226620937375
 21
-1006.801677237059
 31
0.0
  0
LINE
  5
1BF18
  8
01
 10
827.46226620937375
 20
-1006.801677237059
 30
0.0
 11
831.46226620937375
 21
-1006.00168654424
 31
0.0
  0
LINE
  5
1BF19
  8
01
 10
831.46226620937375
 20
-1006.00168654424
 30
0.0
 11
830.96226620937387
 21
-1005.901685380843
 31
0.0
  0
LINE
  5
1BF1A
  8
01
 10
827.96226620937387
 20
-1005.301678400456
 30
0.0
 11
827.46226620937375
 21
-1005.201677237059
 31
0.0
  0
LINE
  5
1BF1B
  8
01
 10
827.96226620937387
 20
-1003.701678400457
 30
0.0
 11
827.46226620937375
 21
-1003.601677237059
 31
0.0
  0
LINE
  5
1BF1C
  8
01
 10
827.46226620937375
 20
-1003.601677237059
 30
0.0
 11
831.46226620937375
 21
-1002.801686544241
 31
0.0
  0
LINE
  5
1BF1D
  8
01
 10
831.46226620937375
 20
-1004.401686544241
 30
0.0
 11
830.96226620937387
 21
-1004.301685380843
 31
0.0
  0
LINE
  5
1BF1E
  8
01
 10
831.46226620937375
 20
-1002.801686544241
 30
0.0
 11
830.96226620937387
 21
-1002.7016853808429
 31
0.0
  0
LINE
  5
1BF1F
  8
01
 10
827.46226620937375
 20
-1005.201677237059
 30
0.0
 11
831.46226620937375
 21
-1004.401686544241
 31
0.0
  0
LINE
  5
1BF20
  8
01
 10
827.96226620937387
 20
-1002.101678400452
 30
0.0
 11
827.46226620937375
 21
-1002.001677237055
 31
0.0
  0
LINE
  5
1BF21
  8
01
 10
829.46226620937375
 20
-957.50168189058695
 30
0.0
 11
827.96226620937387
 21
-962.80167840044862
 31
0.0
  0
LINE
  5
1BF22
  8
01
 10
827.96226620937387
 20
-962.80167840044805
 30
0.0
 11
827.96226620937387
 21
-1007.50167840034
 31
0.0
  0
LINE
  5
1BF23
  8
01
 10
829.46226620937375
 20
-957.50168189058695
 30
0.0
 11
830.96226620937387
 21
-962.80168538083217
 31
0.0
  0
LINE
  5
1BF24
  8
01
 10
825.96221967347583
 20
-1007.501673746642
 30
0.0
 11
827.96226620937387
 21
-1007.50167840034
 31
0.0
  0
LINE
  5
1BF25
  8
01
 10
830.96226620937387
 20
-962.80168538083217
 30
0.0
 11
830.96226620937387
 21
-1007.501685380725
 31
0.0
  0
LINE
  5
1BF26
  8
01
 10
825.96221967347583
 20
-1006.50167374664
 30
0.0
 11
825.96221967347583
 21
-1008.601677236838
 31
0.0
  0
LINE
  5
1BF27
  8
01
 10
830.96226620937387
 20
-1007.501685380725
 30
0.0
 11
832.96221967347583
 21
-1007.5016900342069
 31
0.0
  0
ARC
  5
1BF28
  8
01
 10
827.46221967347594
 20
-1008.601677236838
 30
0.0
 40
1.5
 50
180.0
 51
269.99986668446678
  0
LINE
  5
1BF29
  8
01
 10
832.96221967347583
 20
-1006.501690034204
 30
0.0
 11
832.96221967347583
 21
-1008.601686544017
 31
0.0
  0
LINE
  5
1BF2A
  8
01
 10
827.46221618328343
 20
-1010.101677236834
 30
0.0
 11
831.46221618328332
 21
-1010.101686544013
 31
0.0
  0
ARC
  5
1BF2B
  8
01
 10
831.46221967347583
 20
-1008.601686544017
 30
0.0
 40
1.5
 50
269.99986668446678
 51
0.0
  0
LINE
  5
1BF2C
  8
01
 10
827.46226620937375
 20
-976.40167723704599
 30
0.0
 11
831.46226620937375
 21
-975.60168654422341
 31
0.0
  0
LINE
  5
1BF2D
  8
01
 10
827.46226620937375
 20
-973.20167723704583
 30
0.0
 11
831.46226620937375
 21
-972.40168654422337
 31
0.0
  0
LINE
  5
1BF2E
  8
01
 10
831.46226620937375
 20
-972.40168654422337
 30
0.0
 11
830.96226620937387
 21
-972.30168538082603
 31
0.0
  0
LINE
  5
1BF2F
  8
01
 10
827.96226620937387
 20
-971.70167840044326
 30
0.0
 11
827.46226620937375
 21
-971.60167723704581
 31
0.0
  0
LINE
  5
1BF30
  8
01
 10
831.46226620937375
 20
-975.60168654422341
 30
0.0
 11
830.96226620937387
 21
-975.50168538082619
 31
0.0
  0
LINE
  5
1BF31
  8
01
 10
831.46226620937375
 20
-974.00168654422316
 30
0.0
 11
830.96226620937387
 21
-973.90168538082617
 31
0.0
  0
LINE
  5
1BF32
  8
01
 10
827.96226620937387
 20
-973.30167840044305
 30
0.0
 11
827.46226620937375
 21
-973.20167723704583
 31
0.0
  0
LINE
  5
1BF33
  8
01
 10
827.96226620937387
 20
-974.90167840044296
 30
0.0
 11
827.46226620937375
 21
-974.80167723704585
 31
0.0
  0
LINE
  5
1BF34
  8
01
 10
827.46226620937375
 20
-974.80167723704585
 30
0.0
 11
831.46226620937375
 21
-974.00168654422316
 31
0.0
  0
LINE
  5
1BF35
  8
01
 10
831.46226620937375
 20
-969.20168654422343
 30
0.0
 11
830.96226620937387
 21
-969.10168538082621
 31
0.0
  0
LINE
  5
1BF36
  8
01
 10
831.46226620937375
 20
-970.80168654422334
 30
0.0
 11
830.96226620937387
 21
-970.70168538082635
 31
0.0
  0
LINE
  5
1BF37
  8
01
 10
827.96226620937387
 20
-970.10167840044301
 30
0.0
 11
827.46226620937375
 21
-970.00167723704578
 31
0.0
  0
LINE
  5
1BF38
  8
01
 10
827.46226620937375
 20
-970.00167723704578
 30
0.0
 11
831.46226620937375
 21
-969.20168654422343
 31
0.0
  0
LINE
  5
1BF39
  8
01
 10
827.46226620937375
 20
-971.60167723704581
 30
0.0
 11
831.46226620937375
 21
-970.80168654422334
 31
0.0
  0
LINE
  5
1BF3A
  8
01
 10
827.96226620937387
 20
-982.90167840044353
 30
0.0
 11
827.46226620937375
 21
-982.80167723704585
 31
0.0
  0
LINE
  5
1BF3B
  8
01
 10
831.46226620937375
 20
-978.80168654422755
 30
0.0
 11
830.96226620937387
 21
-978.70168538082987
 31
0.0
  0
LINE
  5
1BF3C
  8
01
 10
831.46226620937375
 20
-977.20168654422343
 30
0.0
 11
830.96226620937387
 21
-977.10168538082621
 31
0.0
  0
LINE
  5
1BF3D
  8
01
 10
831.46226620937375
 20
-982.0016865442276
 30
0.0
 11
830.96226620937387
 21
-981.90168538083003
 31
0.0
  0
LINE
  5
1BF3E
  8
01
 10
831.46226620937375
 20
-980.4016865442278
 30
0.0
 11
830.96226620937387
 21
-980.30168538083012
 31
0.0
  0
LINE
  5
1BF3F
  8
01
 10
827.96226620937387
 20
-976.50167840044298
 30
0.0
 11
827.46226620937375
 21
-976.40167723704599
 31
0.0
  0
LINE
  5
1BF40
  8
01
 10
827.96226620937387
 20
-978.10167840044369
 30
0.0
 11
827.46226620937375
 21
-978.00167723704578
 31
0.0
  0
LINE
  5
1BF41
  8
01
 10
827.96226620937387
 20
-981.30167840044373
 30
0.0
 11
827.46226620937375
 21
-981.20167723704606
 31
0.0
  0
LINE
  5
1BF42
  8
01
 10
827.96226620937387
 20
-979.70167840044348
 30
0.0
 11
827.46226620937375
 21
-979.60167723704581
 31
0.0
  0
LINE
  5
1BF43
  8
01
 10
827.46226620937375
 20
-979.60167723704581
 30
0.0
 11
831.46226620937375
 21
-978.80168654422755
 31
0.0
  0
LINE
  5
1BF44
  8
01
 10
827.46226620937375
 20
-978.00167723704578
 30
0.0
 11
831.46226620937375
 21
-977.20168654422343
 31
0.0
  0
LINE
  5
1BF45
  8
01
 10
827.46226620937375
 20
-981.20167723704606
 30
0.0
 11
831.46226620937375
 21
-980.4016865442278
 31
0.0
  0
LINE
  5
1BF46
  8
01
 10
827.46226620937375
 20
-982.80167723704585
 30
0.0
 11
831.46226620937375
 21
-982.0016865442276
 31
0.0
  0
LINE
  5
1BF47
  8
01
 10
827.46226620937375
 20
-968.40167723704599
 30
0.0
 11
831.46226620937375
 21
-967.60168654422341
 31
0.0
  0
LINE
  5
1BF48
  8
01
 10
831.46226620937375
 20
-967.60168654422341
 30
0.0
 11
830.96226620937387
 21
-967.50168538082619
 31
0.0
  0
LINE
  5
1BF49
  8
01
 10
827.96226620937387
 20
-966.90167840044319
 30
0.0
 11
827.46226620937375
 21
-966.80167723704596
 31
0.0
  0
LINE
  5
1BF4A
  8
01
 10
827.96226620937387
 20
-968.50167840044298
 30
0.0
 11
827.46226620937375
 21
-968.40167723704599
 31
0.0
  0
LINE
  5
1BF4B
  8
01
 10
831.46226620937375
 20
-964.40168654422337
 30
0.0
 11
830.96226620937387
 21
-964.30168538082626
 31
0.0
  0
LINE
  5
1BF4C
  8
01
 10
831.46226620937375
 20
-966.00168654422339
 30
0.0
 11
830.96226620937387
 21
-965.90168538082639
 31
0.0
  0
LINE
  5
1BF4D
  8
01
 10
827.96226620937387
 20
-965.30167840044305
 30
0.0
 11
827.46226620937375
 21
-965.20167723704583
 31
0.0
  0
LINE
  5
1BF4E
  8
01
 10
827.46226620937375
 20
-965.20167723704583
 30
0.0
 11
831.46226620937375
 21
-964.40168654422337
 31
0.0
  0
LINE
  5
1BF4F
  8
01
 10
827.46226620937375
 20
-966.80167723704596
 30
0.0
 11
831.46226620937375
 21
-966.00168654422339
 31
0.0
  0
LINE
  5
1BF50
  8
01
 10
832.96221967347583
 20
-1006.501690034204
 30
0.0
 11
825.96221967347583
 21
-1006.50167374664
 31
0.0
  0
LINE
  5
1BF51
  8
01
 10
829.46221967347583
 20
-1007.501681890424
 30
0.0
 11
830.03956916706966
 21
-1006.501683233796
 31
0.0
  0
LINE
  5
1BF53
  8
01
 10
966.46221967331155
 20
-1074.3017284263201
 30
0.0
 11
961.16222316344977
 21
-1072.8017284263201
 31
0.0
  0
LINE
  5
1BF54
  8
01
 10
961.16222316345045
 20
-1072.8017284263201
 30
0.0
 11
916.46222316355795
 21
-1072.8017284263201
 31
0.0
  0
LINE
  5
1BF55
  8
01
 10
966.46221967331155
 20
-1074.3017284263201
 30
0.0
 11
961.16221618306633
 21
-1075.8017284263201
 31
0.0
  0
LINE
  5
1BF56
  8
01
 10
916.46222781725601
 20
-1070.8016818904221
 30
0.0
 11
916.46222316355795
 21
-1072.8017284263201
 31
0.0
  0
LINE
  5
1BF57
  8
01
 10
961.16221618306633
 20
-1075.8017284263201
 30
0.0
 11
916.46221618317327
 21
-1075.8017284263201
 31
0.0
  0
LINE
  5
1BF58
  8
01
 10
917.46222781725862
 20
-1070.8016818904221
 30
0.0
 11
915.36222432706074
 21
-1070.8016818904221
 31
0.0
  0
LINE
  5
1BF59
  8
01
 10
916.46221618317327
 20
-1075.8017284263201
 30
0.0
 11
916.46221152969179
 21
-1077.8016818904221
 31
0.0
  0
ARC
  5
1BF5A
  8
01
 10
915.36222432706074
 20
-1072.3016818904221
 30
0.0
 40
1.5
 50
90.0
 51
179.99986668446621
  0
LINE
  5
1BF5B
  8
01
 10
917.46221152969406
 20
-1077.8016818904221
 30
0.0
 11
915.36221501988109
 21
-1077.8016818904221
 31
0.0
  0
LINE
  5
1BF5C
  8
01
 10
913.86222432706472
 20
-1072.3016784002291
 30
0.0
 11
913.86221501988518
 21
-1076.3016784002291
 31
0.0
  0
ARC
  5
1BF5D
  8
01
 10
915.36221501988109
 20
-1076.3016818904221
 30
0.0
 40
1.5
 50
179.99986668446621
 51
270.0
  0
LINE
  5
1BF5E
  8
1CENTER
 10
967.21033395585437
 20
-1074.3016818904221
 30
0.0
 11
912.79194326416496
 21
-1074.3016818904221
 31
0.0
  0
LINE
  5
1BF5F
  8
01
 10
964.36222221963385
 20
-1073.207358076427
 30
0.0
 11
965.16221765368471
 21
-1075.1696931653021
 31
0.0
  0
LINE
  5
1BF60
  8
01
 10
965.16221765368471
 20
-1075.1696931653021
 30
0.0
 11
965.47398750993682
 21
-1074.58141659026
 31
0.0
  0
LINE
  5
1BF61
  8
01
 10
921.96222432684374
 20
-1072.3017284263201
 30
0.0
 11
922.76221501966188
 21
-1076.3017284263201
 31
0.0
  0
LINE
  5
1BF62
  8
01
 10
933.16222432684822
 20
-1072.3017284263201
 30
0.0
 11
933.96221501967057
 21
-1076.3017284263201
 31
0.0
  0
LINE
  5
1BF63
  8
01
 10
936.36222432684815
 20
-1072.3017284263201
 30
0.0
 11
937.16221501967061
 21
-1076.3017284263201
 31
0.0
  0
LINE
  5
1BF64
  8
01
 10
937.16221501967061
 20
-1076.3017284263201
 30
0.0
 11
937.26221618306795
 21
-1075.8017284263201
 31
0.0
  0
LINE
  5
1BF65
  8
01
 10
937.86222316345084
 20
-1072.8017284263201
 30
0.0
 11
937.96222432684817
 21
-1072.3017284263201
 31
0.0
  0
LINE
  5
1BF66
  8
01
 10
933.96221501967057
 20
-1076.3017284263201
 30
0.0
 11
934.06221618306779
 21
-1075.8017284263201
 31
0.0
  0
LINE
  5
1BF67
  8
01
 10
935.56221501967082
 20
-1076.3017284263201
 30
0.0
 11
935.66221618306804
 21
-1075.8017284263201
 31
0.0
  0
LINE
  5
1BF68
  8
01
 10
936.26222316345104
 20
-1072.8017284263201
 30
0.0
 11
936.36222432684815
 21
-1072.3017284263201
 31
0.0
  0
LINE
  5
1BF69
  8
01
 10
934.66222316345102
 20
-1072.8017284263201
 30
0.0
 11
934.76222432684824
 21
-1072.3017284263201
 31
0.0
  0
LINE
  5
1BF6A
  8
01
 10
934.76222432684824
 20
-1072.3017284263201
 30
0.0
 11
935.56221501967082
 21
-1076.3017284263201
 31
0.0
  0
LINE
  5
1BF6B
  8
01
 10
963.56221660007907
 20
-1075.6225072697091
 30
0.0
 11
963.74498074270707
 21
-1075.070757805905
 31
0.0
  0
LINE
  5
1BF6C
  8
01
 10
940.36221501967077
 20
-1076.3017284263201
 30
0.0
 11
940.46221618306777
 21
-1075.8017284263201
 31
0.0
  0
LINE
  5
1BF6D
  8
01
 10
938.76221501967063
 20
-1076.3017284263201
 30
0.0
 11
938.86221618306774
 21
-1075.8017284263201
 31
0.0
  0
LINE
  5
1BF6E
  8
01
 10
961.96221554647343
 20
-1076.0753213741159
 30
0.0
 11
962.09148624410329
 21
-1075.5387276388451
 31
0.0
  0
LINE
  5
1BF6F
  8
01
 10
962.64945376088792
 20
-1073.222643023528
 30
0.0
 11
962.76222327323785
 21
-1072.7545445683779
 31
0.0
  0
LINE
  5
1BF70
  8
01
 10
939.46222316345097
 20
-1072.8017284263201
 30
0.0
 11
939.5622243268482
 21
-1072.3017284263201
 31
0.0
  0
LINE
  5
1BF71
  8
01
 10
961.06222316345099
 20
-1072.8017284263201
 30
0.0
 11
961.1622243268481
 21
-1072.3017284263201
 31
0.0
  0
LINE
  5
1BF72
  8
01
 10
964.21078642319333
 20
-1073.664529917058
 30
0.0
 11
964.36222221963385
 21
-1073.207358076427
 31
0.0
  0
LINE
  5
1BF73
  8
01
 10
962.76222327323785
 20
-1072.7545445683779
 30
0.0
 11
963.56221660007907
 21
-1075.6225072697091
 31
0.0
  0
LINE
  5
1BF74
  8
01
 10
939.5622243268482
 20
-1072.3017284263201
 30
0.0
 11
940.36221501967077
 21
-1076.3017284263201
 31
0.0
  0
LINE
  5
1BF75
  8
01
 10
961.1622243268481
 20
-1072.3017284263201
 30
0.0
 11
961.96221554647343
 21
-1076.0753213741159
 31
0.0
  0
LINE
  5
1BF76
  8
01
 10
937.96222432684817
 20
-1072.3017284263201
 30
0.0
 11
938.76221501967063
 21
-1076.3017284263201
 31
0.0
  0
LINE
  5
1BF77
  8
01
 10
925.16222432684367
 20
-1072.3017284263201
 30
0.0
 11
925.96221501966193
 21
-1076.3017284263201
 31
0.0
  0
LINE
  5
1BF78
  8
01
 10
925.96221501966193
 20
-1076.3017284263201
 30
0.0
 11
926.0622161830596
 21
-1075.8017284263201
 31
0.0
  0
LINE
  5
1BF79
  8
01
 10
926.66222316345045
 20
-1072.8017284263201
 30
0.0
 11
926.76222432684824
 21
-1072.3017284263201
 31
0.0
  0
LINE
  5
1BF7A
  8
01
 10
924.3622150196619
 20
-1076.3017284263201
 30
0.0
 11
924.46221618305958
 21
-1075.8017284263201
 31
0.0
  0
LINE
  5
1BF7B
  8
01
 10
922.76221501966188
 20
-1076.3017284263201
 30
0.0
 11
922.86221618305956
 21
-1075.8017284263201
 31
0.0
  0
LINE
  5
1BF7C
  8
01
 10
925.06222316344599
 20
-1072.8017284263201
 30
0.0
 11
925.16222432684367
 21
-1072.3017284263201
 31
0.0
  0
LINE
  5
1BF7D
  8
01
 10
923.46222316344586
 20
-1072.8017284263201
 30
0.0
 11
923.56222432684353
 21
-1072.3017284263201
 31
0.0
  0
LINE
  5
1BF7E
  8
01
 10
923.56222432684353
 20
-1072.3017284263201
 30
0.0
 11
924.3622150196619
 21
-1076.3017284263201
 31
0.0
  0
LINE
  5
1BF7F
  8
01
 10
930.76221501966643
 20
-1076.3017284263201
 30
0.0
 11
930.86221618306411
 21
-1075.8017284263201
 31
0.0
  0
LINE
  5
1BF80
  8
01
 10
932.36221501967077
 20
-1076.3017284263201
 30
0.0
 11
932.46221618306777
 21
-1075.8017284263201
 31
0.0
  0
LINE
  5
1BF81
  8
01
 10
927.56221501966638
 20
-1076.3017284263201
 30
0.0
 11
927.66221618306406
 21
-1075.8017284263201
 31
0.0
  0
LINE
  5
1BF82
  8
01
 10
929.16221501966618
 20
-1076.3017284263201
 30
0.0
 11
929.26221618306386
 21
-1075.8017284263201
 31
0.0
  0
LINE
  5
1BF83
  8
01
 10
933.06222316345099
 20
-1072.8017284263201
 30
0.0
 11
933.16222432684822
 21
-1072.3017284263201
 31
0.0
  0
LINE
  5
1BF84
  8
01
 10
931.46222316345029
 20
-1072.8017284263201
 30
0.0
 11
931.5622243268482
 21
-1072.3017284263201
 31
0.0
  0
LINE
  5
1BF85
  8
01
 10
928.26222316345024
 20
-1072.8017284263201
 30
0.0
 11
928.36222432684804
 21
-1072.3017284263201
 31
0.0
  0
LINE
  5
1BF86
  8
01
 10
929.86222316345049
 20
-1072.8017284263201
 30
0.0
 11
929.96222432684817
 21
-1072.3017284263201
 31
0.0
  0
LINE
  5
1BF87
  8
01
 10
929.96222432684817
 20
-1072.3017284263201
 30
0.0
 11
930.76221501966643
 21
-1076.3017284263201
 31
0.0
  0
LINE
  5
1BF88
  8
01
 10
931.5622243268482
 20
-1072.3017284263201
 30
0.0
 11
932.36221501967077
 21
-1076.3017284263201
 31
0.0
  0
LINE
  5
1BF89
  8
01
 10
928.36222432684804
 20
-1072.3017284263201
 30
0.0
 11
929.16221501966618
 21
-1076.3017284263201
 31
0.0
  0
LINE
  5
1BF8A
  8
01
 10
926.76222432684824
 20
-1072.3017284263201
 30
0.0
 11
927.56221501966638
 21
-1076.3017284263201
 31
0.0
  0
LINE
  5
1BF8B
  8
01
 10
916.46221618317327
 20
-1075.8017284263201
 30
0.0
 11
916.46222316355795
 21
-1072.8017284263201
 31
0.0
  0
LINE
  5
1BF8C
  8
01
 10
917.46221152969406
 20
-1077.8016818904221
 30
0.0
 11
917.46222781725862
 21
-1070.8016818904221
 31
0.0
  0
LINE
  5
1BF8D
  8
01
 10
917.0622231634419
 20
-1072.8017284263201
 30
0.0
 11
917.16222432683958
 21
-1072.3017284263201
 31
0.0
  0
LINE
  5
1BF8E
  8
01
 10
917.16222432683958
 20
-1072.3017284263201
 30
0.0
 11
917.96221501965783
 21
-1076.3017284263201
 31
0.0
  0
LINE
  5
1BF8F
  8
01
 10
917.96221501965783
 20
-1076.3017284263201
 30
0.0
 11
918.06221618305551
 21
-1075.8017284263201
 31
0.0
  0
LINE
  5
1BF90
  8
01
 10
918.66222316344181
 20
-1072.8017284263201
 30
0.0
 11
918.76222432683937
 21
-1072.3017284263201
 31
0.0
  0
LINE
  5
1BF91
  8
01
 10
920.26222316344183
 20
-1072.8017284263201
 30
0.0
 11
920.3622243268394
 21
-1072.3017284263201
 31
0.0
  0
LINE
  5
1BF92
  8
01
 10
920.3622243268394
 20
-1072.3017284263201
 30
0.0
 11
921.16221501965765
 21
-1076.3017284263201
 31
0.0
  0
LINE
  5
1BF93
  8
01
 10
919.56221501965774
 20
-1076.3017284263201
 30
0.0
 11
919.66221618305531
 21
-1075.8017284263201
 31
0.0
  0
LINE
  5
1BF94
  8
01
 10
921.16221501965765
 20
-1076.3017284263201
 30
0.0
 11
921.26221618305533
 21
-1075.8017284263201
 31
0.0
  0
LINE
  5
1BF95
  8
01
 10
918.76222432683937
 20
-1072.3017284263201
 30
0.0
 11
919.56221501965774
 21
-1076.3017284263201
 31
0.0
  0
LINE
  5
1BF96
  8
01
 10
921.86222316344595
 20
-1072.8017284263201
 30
0.0
 11
921.96222432684374
 21
-1072.3017284263201
 31
0.0
  0
LINE
  5
1BF97
  8
01
 10
947.5622243268524
 20
-1072.3017284263201
 30
0.0
 11
948.36221501967509
 21
-1076.3017284263201
 31
0.0
  0
LINE
  5
1BF98
  8
01
 10
950.76222432685256
 20
-1072.3017284263201
 30
0.0
 11
951.56221501967514
 21
-1076.3017284263201
 31
0.0
  0
LINE
  5
1BF99
  8
01
 10
951.56221501967514
 20
-1076.3017284263201
 30
0.0
 11
951.66221618307225
 21
-1075.8017284263201
 31
0.0
  0
LINE
  5
1BF9A
  8
01
 10
952.26222316345525
 20
-1072.8017284263201
 30
0.0
 11
952.36222432685258
 21
-1072.3017284263201
 31
0.0
  0
LINE
  5
1BF9B
  8
01
 10
948.36221501967509
 20
-1076.3017284263201
 30
0.0
 11
948.4622161830722
 21
-1075.8017284263201
 31
0.0
  0
LINE
  5
1BF9C
  8
01
 10
949.96221501967534
 20
-1076.3017284263201
 30
0.0
 11
950.06221618307222
 21
-1075.8017284263201
 31
0.0
  0
LINE
  5
1BF9D
  8
01
 10
950.66222316345545
 20
-1072.8017284263201
 30
0.0
 11
950.76222432685256
 21
-1072.3017284263201
 31
0.0
  0
LINE
  5
1BF9E
  8
01
 10
949.06222316345554
 20
-1072.8017284263201
 30
0.0
 11
949.16222432685265
 21
-1072.3017284263201
 31
0.0
  0
LINE
  5
1BF9F
  8
01
 10
949.16222432685265
 20
-1072.3017284263201
 30
0.0
 11
949.96221501967534
 21
-1076.3017284263201
 31
0.0
  0
LINE
  5
1BFA0
  8
01
 10
954.76221501967507
 20
-1076.3017284263201
 30
0.0
 11
954.86221618307218
 21
-1075.8017284263201
 31
0.0
  0
LINE
  5
1BFA1
  8
01
 10
953.16221501967505
 20
-1076.3017284263201
 30
0.0
 11
953.26221618307216
 21
-1075.8017284263201
 31
0.0
  0
LINE
  5
1BFA2
  8
01
 10
953.8622231634555
 20
-1072.8017284263201
 30
0.0
 11
953.96222432685261
 21
-1072.3017284263201
 31
0.0
  0
LINE
  5
1BFA3
  8
01
 10
953.96222432685261
 20
-1072.3017284263201
 30
0.0
 11
954.76221501967507
 21
-1076.3017284263201
 31
0.0
  0
LINE
  5
1BFA4
  8
01
 10
952.36222432685258
 20
-1072.3017284263201
 30
0.0
 11
953.16221501967505
 21
-1076.3017284263201
 31
0.0
  0
LINE
  5
1BFA5
  8
01
 10
941.06222316345475
 20
-1072.8017284263201
 30
0.0
 11
941.16222432685242
 21
-1072.3017284263201
 31
0.0
  0
LINE
  5
1BFA6
  8
01
 10
945.16221501967084
 20
-1076.3017284263201
 30
0.0
 11
945.26221618306852
 21
-1075.8017284263201
 31
0.0
  0
LINE
  5
1BFA7
  8
01
 10
946.76221501967507
 20
-1076.3017284263201
 30
0.0
 11
946.86221618307218
 21
-1075.8017284263201
 31
0.0
  0
LINE
  5
1BFA8
  8
01
 10
941.96221501967079
 20
-1076.3017284263201
 30
0.0
 11
942.06221618306847
 21
-1075.8017284263201
 31
0.0
  0
LINE
  5
1BFA9
  8
01
 10
943.5622150196707
 20
-1076.3017284263201
 30
0.0
 11
943.66221618306827
 21
-1075.8017284263201
 31
0.0
  0
LINE
  5
1BFAA
  8
01
 10
947.46222316345529
 20
-1072.8017284263201
 30
0.0
 11
947.5622243268524
 21
-1072.3017284263201
 31
0.0
  0
LINE
  5
1BFAB
  8
01
 10
945.86222316345481
 20
-1072.8017284263201
 30
0.0
 11
945.96222432685261
 21
-1072.3017284263201
 31
0.0
  0
LINE
  5
1BFAC
  8
01
 10
942.66222316345477
 20
-1072.8017284263201
 30
0.0
 11
942.76222432685245
 21
-1072.3017284263201
 31
0.0
  0
LINE
  5
1BFAD
  8
01
 10
944.26222316345491
 20
-1072.8017284263201
 30
0.0
 11
944.36222432685258
 21
-1072.3017284263201
 31
0.0
  0
LINE
  5
1BFAE
  8
01
 10
944.36222432685258
 20
-1072.3017284263201
 30
0.0
 11
945.16221501967084
 21
-1076.3017284263201
 31
0.0
  0
LINE
  5
1BFAF
  8
01
 10
945.96222432685261
 20
-1072.3017284263201
 30
0.0
 11
946.76221501967507
 21
-1076.3017284263201
 31
0.0
  0
LINE
  5
1BFB0
  8
01
 10
942.76222432685245
 20
-1072.3017284263201
 30
0.0
 11
943.5622150196707
 21
-1076.3017284263201
 31
0.0
  0
LINE
  5
1BFB1
  8
01
 10
941.16222432685242
 20
-1072.3017284263201
 30
0.0
 11
941.96221501967079
 21
-1076.3017284263201
 31
0.0
  0
LINE
  5
1BFB2
  8
01
 10
955.5622243268524
 20
-1072.3017284263201
 30
0.0
 11
956.36221501967509
 21
-1076.3017284263201
 31
0.0
  0
LINE
  5
1BFB3
  8
01
 10
956.36221501967509
 20
-1076.3017284263201
 30
0.0
 11
956.46221618307231
 21
-1075.8017284263201
 31
0.0
  0
LINE
  5
1BFB4
  8
01
 10
957.06222316345531
 20
-1072.8017284263201
 30
0.0
 11
957.16222432685242
 21
-1072.3017284263201
 31
0.0
  0
LINE
  5
1BFB5
  8
01
 10
955.46222316345529
 20
-1072.8017284263201
 30
0.0
 11
955.5622243268524
 21
-1072.3017284263201
 31
0.0
  0
LINE
  5
1BFB6
  8
01
 10
959.56221501967514
 20
-1076.3017284263201
 30
0.0
 11
959.66221618307225
 21
-1075.8017284263201
 31
0.0
  0
LINE
  5
1BFB7
  8
01
 10
957.96221501967511
 20
-1076.3017284263201
 30
0.0
 11
958.06221618307211
 21
-1075.8017284263201
 31
0.0
  0
LINE
  5
1BFB8
  8
01
 10
958.66222316345545
 20
-1072.8017284263201
 30
0.0
 11
958.76222432685245
 21
-1072.3017284263201
 31
0.0
  0
LINE
  5
1BFB9
  8
01
 10
958.76222432685245
 20
-1072.3017284263201
 30
0.0
 11
959.56221501967514
 21
-1076.3017284263201
 31
0.0
  0
LINE
  5
1BFBA
  8
01
 10
957.16222432685242
 20
-1072.3017284263201
 30
0.0
 11
957.96221501967511
 21
-1076.3017284263201
 31
0.0
  0
LINE
  5
1BFBB
  8
01
 10
916.46221967347378
 20
-1074.3016818904221
 30
0.0
 11
917.46221833010247
 21
-1074.879031384015
 31
0.0
  0
LINE
  5
1BFBD
  8
01
 10
966.46221967331155
 20
-1078.3017284263201
 30
0.0
 11
961.16222316344977
 21
-1076.8017284263201
 31
0.0
  0
LINE
  5
1BFBE
  8
01
 10
961.16222316345045
 20
-1076.8017284263201
 30
0.0
 11
916.46222316355795
 21
-1076.8017284263201
 31
0.0
  0
LINE
  5
1BFBF
  8
01
 10
966.46221967331155
 20
-1078.3017284263201
 30
0.0
 11
961.16221618306633
 21
-1079.8017284263201
 31
0.0
  0
LINE
  5
1BFC0
  8
01
 10
916.46222781725601
 20
-1074.8016818904221
 30
0.0
 11
916.46222316355795
 21
-1076.8017284263201
 31
0.0
  0
LINE
  5
1BFC1
  8
01
 10
961.16221618306633
 20
-1079.8017284263201
 30
0.0
 11
916.46221618317327
 21
-1079.8017284263201
 31
0.0
  0
LINE
  5
1BFC2
  8
01
 10
917.46222781725862
 20
-1074.8016818904221
 30
0.0
 11
915.36222432706074
 21
-1074.8016818904221
 31
0.0
  0
LINE
  5
1BFC3
  8
01
 10
916.46221618317327
 20
-1079.8017284263201
 30
0.0
 11
916.46221152969179
 21
-1081.8016818904221
 31
0.0
  0
ARC
  5
1BFC4
  8
01
 10
915.36222432706074
 20
-1076.3016818904221
 30
0.0
 40
1.5
 50
90.0
 51
179.99986668446621
  0
LINE
  5
1BFC5
  8
01
 10
917.46221152969406
 20
-1081.8016818904221
 30
0.0
 11
915.36221501988109
 21
-1081.8016818904221
 31
0.0
  0
LINE
  5
1BFC6
  8
01
 10
913.86222432706472
 20
-1076.3016784002291
 30
0.0
 11
913.86221501988518
 21
-1080.3016784002291
 31
0.0
  0
ARC
  5
1BFC7
  8
01
 10
915.36221501988109
 20
-1080.3016818904221
 30
0.0
 40
1.5
 50
179.99986668446621
 51
270.0
  0
LINE
  5
1BFC8
  8
1CENTER
 10
967.21033395585437
 20
-1078.3016818904221
 30
0.0
 11
912.79194326416496
 21
-1078.3016818904221
 31
0.0
  0
LINE
  5
1BFC9
  8
01
 10
964.36222221963385
 20
-1077.2073580764261
 30
0.0
 11
965.16221765368471
 21
-1079.1696931653021
 31
0.0
  0
LINE
  5
1BFCA
  8
01
 10
965.16221765368471
 20
-1079.1696931653021
 30
0.0
 11
965.47398750993682
 21
-1078.58141659026
 31
0.0
  0
LINE
  5
1BFCB
  8
01
 10
921.96222432684374
 20
-1076.3017284263201
 30
0.0
 11
922.76221501966188
 21
-1080.3017284263201
 31
0.0
  0
LINE
  5
1BFCC
  8
01
 10
933.16222432684822
 20
-1076.3017284263201
 30
0.0
 11
933.96221501967057
 21
-1080.3017284263201
 31
0.0
  0
LINE
  5
1BFCD
  8
01
 10
936.36222432684815
 20
-1076.3017284263201
 30
0.0
 11
937.16221501967061
 21
-1080.3017284263201
 31
0.0
  0
LINE
  5
1BFCE
  8
01
 10
937.16221501967061
 20
-1080.3017284263201
 30
0.0
 11
937.26221618306795
 21
-1079.8017284263201
 31
0.0
  0
LINE
  5
1BFCF
  8
01
 10
937.86222316345084
 20
-1076.8017284263201
 30
0.0
 11
937.96222432684817
 21
-1076.3017284263201
 31
0.0
  0
LINE
  5
1BFD0
  8
01
 10
933.96221501967057
 20
-1080.3017284263201
 30
0.0
 11
934.06221618306779
 21
-1079.8017284263201
 31
0.0
  0
LINE
  5
1BFD1
  8
01
 10
935.56221501967082
 20
-1080.3017284263201
 30
0.0
 11
935.66221618306804
 21
-1079.8017284263201
 31
0.0
  0
LINE
  5
1BFD2
  8
01
 10
936.26222316345104
 20
-1076.8017284263201
 30
0.0
 11
936.36222432684815
 21
-1076.3017284263201
 31
0.0
  0
LINE
  5
1BFD3
  8
01
 10
934.66222316345102
 20
-1076.8017284263201
 30
0.0
 11
934.76222432684824
 21
-1076.3017284263201
 31
0.0
  0
LINE
  5
1BFD4
  8
01
 10
934.76222432684824
 20
-1076.3017284263201
 30
0.0
 11
935.56221501967082
 21
-1080.3017284263201
 31
0.0
  0
LINE
  5
1BFD5
  8
01
 10
963.56221660007907
 20
-1079.6225072697091
 30
0.0
 11
963.74498074270707
 21
-1079.0707578059059
 31
0.0
  0
LINE
  5
1BFD6
  8
01
 10
940.36221501967077
 20
-1080.3017284263201
 30
0.0
 11
940.46221618306777
 21
-1079.8017284263201
 31
0.0
  0
LINE
  5
1BFD7
  8
01
 10
938.76221501967063
 20
-1080.3017284263201
 30
0.0
 11
938.86221618306774
 21
-1079.8017284263201
 31
0.0
  0
LINE
  5
1BFD8
  8
01
 10
961.96221554647343
 20
-1080.0753213741159
 30
0.0
 11
962.09148624410329
 21
-1079.538727638844
 31
0.0
  0
LINE
  5
1BFD9
  8
01
 10
962.64945376088792
 20
-1077.222643023528
 30
0.0
 11
962.76222327323785
 21
-1076.7545445683791
 31
0.0
  0
LINE
  5
1BFDA
  8
01
 10
939.46222316345097
 20
-1076.8017284263201
 30
0.0
 11
939.5622243268482
 21
-1076.3017284263201
 31
0.0
  0
LINE
  5
1BFDB
  8
01
 10
961.06222316345099
 20
-1076.8017284263201
 30
0.0
 11
961.1622243268481
 21
-1076.3017284263201
 31
0.0
  0
LINE
  5
1BFDC
  8
01
 10
964.21078642319333
 20
-1077.664529917058
 30
0.0
 11
964.36222221963385
 21
-1077.2073580764261
 31
0.0
  0
LINE
  5
1BFDD
  8
01
 10
962.76222327323785
 20
-1076.7545445683791
 30
0.0
 11
963.56221660007907
 21
-1079.6225072697091
 31
0.0
  0
LINE
  5
1BFDE
  8
01
 10
939.5622243268482
 20
-1076.3017284263201
 30
0.0
 11
940.36221501967077
 21
-1080.3017284263201
 31
0.0
  0
LINE
  5
1BFDF
  8
01
 10
961.1622243268481
 20
-1076.3017284263201
 30
0.0
 11
961.96221554647343
 21
-1080.0753213741159
 31
0.0
  0
LINE
  5
1BFE0
  8
01
 10
937.96222432684817
 20
-1076.3017284263201
 30
0.0
 11
938.76221501967063
 21
-1080.3017284263201
 31
0.0
  0
LINE
  5
1BFE1
  8
01
 10
925.16222432684367
 20
-1076.3017284263201
 30
0.0
 11
925.96221501966193
 21
-1080.3017284263201
 31
0.0
  0
LINE
  5
1BFE2
  8
01
 10
925.96221501966193
 20
-1080.3017284263201
 30
0.0
 11
926.0622161830596
 21
-1079.8017284263201
 31
0.0
  0
LINE
  5
1BFE3
  8
01
 10
926.66222316345045
 20
-1076.8017284263201
 30
0.0
 11
926.76222432684824
 21
-1076.3017284263201
 31
0.0
  0
LINE
  5
1BFE4
  8
01
 10
924.3622150196619
 20
-1080.3017284263201
 30
0.0
 11
924.46221618305958
 21
-1079.8017284263201
 31
0.0
  0
LINE
  5
1BFE5
  8
01
 10
922.76221501966188
 20
-1080.3017284263201
 30
0.0
 11
922.86221618305956
 21
-1079.8017284263201
 31
0.0
  0
LINE
  5
1BFE6
  8
01
 10
925.06222316344599
 20
-1076.8017284263201
 30
0.0
 11
925.16222432684367
 21
-1076.3017284263201
 31
0.0
  0
LINE
  5
1BFE7
  8
01
 10
923.46222316344586
 20
-1076.8017284263201
 30
0.0
 11
923.56222432684353
 21
-1076.3017284263201
 31
0.0
  0
LINE
  5
1BFE8
  8
01
 10
923.56222432684353
 20
-1076.3017284263201
 30
0.0
 11
924.3622150196619
 21
-1080.3017284263201
 31
0.0
  0
LINE
  5
1BFE9
  8
01
 10
930.76221501966643
 20
-1080.3017284263201
 30
0.0
 11
930.86221618306411
 21
-1079.8017284263201
 31
0.0
  0
LINE
  5
1BFEA
  8
01
 10
932.36221501967077
 20
-1080.3017284263201
 30
0.0
 11
932.46221618306777
 21
-1079.8017284263201
 31
0.0
  0
LINE
  5
1BFEB
  8
01
 10
927.56221501966638
 20
-1080.3017284263201
 30
0.0
 11
927.66221618306406
 21
-1079.8017284263201
 31
0.0
  0
LINE
  5
1BFEC
  8
01
 10
929.16221501966618
 20
-1080.3017284263201
 30
0.0
 11
929.26221618306386
 21
-1079.8017284263201
 31
0.0
  0
LINE
  5
1BFED
  8
01
 10
933.06222316345099
 20
-1076.8017284263201
 30
0.0
 11
933.16222432684822
 21
-1076.3017284263201
 31
0.0
  0
LINE
  5
1BFEE
  8
01
 10
931.46222316345029
 20
-1076.8017284263201
 30
0.0
 11
931.5622243268482
 21
-1076.3017284263201
 31
0.0
  0
LINE
  5
1BFEF
  8
01
 10
928.26222316345024
 20
-1076.8017284263201
 30
0.0
 11
928.36222432684804
 21
-1076.3017284263201
 31
0.0
  0
LINE
  5
1BFF0
  8
01
 10
929.86222316345049
 20
-1076.8017284263201
 30
0.0
 11
929.96222432684817
 21
-1076.3017284263201
 31
0.0
  0
LINE
  5
1BFF1
  8
01
 10
929.96222432684817
 20
-1076.3017284263201
 30
0.0
 11
930.76221501966643
 21
-1080.3017284263201
 31
0.0
  0
LINE
  5
1BFF2
  8
01
 10
931.5622243268482
 20
-1076.3017284263201
 30
0.0
 11
932.36221501967077
 21
-1080.3017284263201
 31
0.0
  0
LINE
  5
1BFF3
  8
01
 10
928.36222432684804
 20
-1076.3017284263201
 30
0.0
 11
929.16221501966618
 21
-1080.3017284263201
 31
0.0
  0
LINE
  5
1BFF4
  8
01
 10
926.76222432684824
 20
-1076.3017284263201
 30
0.0
 11
927.56221501966638
 21
-1080.3017284263201
 31
0.0
  0
LINE
  5
1BFF5
  8
01
 10
916.46221618317327
 20
-1079.8017284263201
 30
0.0
 11
916.46222316355795
 21
-1076.8017284263201
 31
0.0
  0
LINE
  5
1BFF6
  8
01
 10
917.46221152969406
 20
-1081.8016818904221
 30
0.0
 11
917.46222781725862
 21
-1074.8016818904221
 31
0.0
  0
LINE
  5
1BFF7
  8
01
 10
917.0622231634419
 20
-1076.8017284263201
 30
0.0
 11
917.16222432683958
 21
-1076.3017284263201
 31
0.0
  0
LINE
  5
1BFF8
  8
01
 10
917.16222432683958
 20
-1076.3017284263201
 30
0.0
 11
917.96221501965783
 21
-1080.3017284263201
 31
0.0
  0
LINE
  5
1BFF9
  8
01
 10
917.96221501965783
 20
-1080.3017284263201
 30
0.0
 11
918.06221618305551
 21
-1079.8017284263201
 31
0.0
  0
LINE
  5
1BFFA
  8
01
 10
918.66222316344181
 20
-1076.8017284263201
 30
0.0
 11
918.76222432683937
 21
-1076.3017284263201
 31
0.0
  0
LINE
  5
1BFFB
  8
01
 10
920.26222316344183
 20
-1076.8017284263201
 30
0.0
 11
920.3622243268394
 21
-1076.3017284263201
 31
0.0
  0
LINE
  5
1BFFC
  8
01
 10
920.3622243268394
 20
-1076.3017284263201
 30
0.0
 11
921.16221501965765
 21
-1080.3017284263201
 31
0.0
  0
LINE
  5
1BFFD
  8
01
 10
919.56221501965774
 20
-1080.3017284263201
 30
0.0
 11
919.66221618305531
 21
-1079.8017284263201
 31
0.0
  0
LINE
  5
1BFFE
  8
01
 10
921.16221501965765
 20
-1080.3017284263201
 30
0.0
 11
921.26221618305533
 21
-1079.8017284263201
 31
0.0
  0
LINE
  5
1BFFF
  8
01
 10
918.76222432683937
 20
-1076.3017284263201
 30
0.0
 11
919.56221501965774
 21
-1080.3017284263201
 31
0.0
  0
LINE
  5
1C000
  8
01
 10
921.86222316344595
 20
-1076.8017284263201
 30
0.0
 11
921.96222432684374
 21
-1076.3017284263201
 31
0.0
  0
LINE
  5
1C001
  8
01
 10
947.5622243268524
 20
-1076.3017284263201
 30
0.0
 11
948.36221501967509
 21
-1080.3017284263201
 31
0.0
  0
LINE
  5
1C002
  8
01
 10
950.76222432685256
 20
-1076.3017284263201
 30
0.0
 11
951.56221501967514
 21
-1080.3017284263201
 31
0.0
  0
LINE
  5
1C003
  8
01
 10
951.56221501967514
 20
-1080.3017284263201
 30
0.0
 11
951.66221618307225
 21
-1079.8017284263201
 31
0.0
  0
LINE
  5
1C004
  8
01
 10
952.26222316345525
 20
-1076.8017284263201
 30
0.0
 11
952.36222432685258
 21
-1076.3017284263201
 31
0.0
  0
LINE
  5
1C005
  8
01
 10
948.36221501967509
 20
-1080.3017284263201
 30
0.0
 11
948.4622161830722
 21
-1079.8017284263201
 31
0.0
  0
LINE
  5
1C006
  8
01
 10
949.96221501967534
 20
-1080.3017284263201
 30
0.0
 11
950.06221618307222
 21
-1079.8017284263201
 31
0.0
  0
LINE
  5
1C007
  8
01
 10
950.66222316345545
 20
-1076.8017284263201
 30
0.0
 11
950.76222432685256
 21
-1076.3017284263201
 31
0.0
  0
LINE
  5
1C008
  8
01
 10
949.06222316345554
 20
-1076.8017284263201
 30
0.0
 11
949.16222432685265
 21
-1076.3017284263201
 31
0.0
  0
LINE
  5
1C009
  8
01
 10
949.16222432685265
 20
-1076.3017284263201
 30
0.0
 11
949.96221501967534
 21
-1080.3017284263201
 31
0.0
  0
LINE
  5
1C00A
  8
01
 10
954.76221501967507
 20
-1080.3017284263201
 30
0.0
 11
954.86221618307218
 21
-1079.8017284263201
 31
0.0
  0
LINE
  5
1C00B
  8
01
 10
953.16221501967505
 20
-1080.3017284263201
 30
0.0
 11
953.26221618307216
 21
-1079.8017284263201
 31
0.0
  0
LINE
  5
1C00C
  8
01
 10
953.8622231634555
 20
-1076.8017284263201
 30
0.0
 11
953.96222432685261
 21
-1076.3017284263201
 31
0.0
  0
LINE
  5
1C00D
  8
01
 10
953.96222432685261
 20
-1076.3017284263201
 30
0.0
 11
954.76221501967507
 21
-1080.3017284263201
 31
0.0
  0
LINE
  5
1C00E
  8
01
 10
952.36222432685258
 20
-1076.3017284263201
 30
0.0
 11
953.16221501967505
 21
-1080.3017284263201
 31
0.0
  0
LINE
  5
1C00F
  8
01
 10
941.06222316345475
 20
-1076.8017284263201
 30
0.0
 11
941.16222432685242
 21
-1076.3017284263201
 31
0.0
  0
LINE
  5
1C010
  8
01
 10
945.16221501967084
 20
-1080.3017284263201
 30
0.0
 11
945.26221618306852
 21
-1079.8017284263201
 31
0.0
  0
LINE
  5
1C011
  8
01
 10
946.76221501967507
 20
-1080.3017284263201
 30
0.0
 11
946.86221618307218
 21
-1079.8017284263201
 31
0.0
  0
LINE
  5
1C012
  8
01
 10
941.96221501967079
 20
-1080.3017284263201
 30
0.0
 11
942.06221618306847
 21
-1079.8017284263201
 31
0.0
  0
LINE
  5
1C013
  8
01
 10
943.5622150196707
 20
-1080.3017284263201
 30
0.0
 11
943.66221618306827
 21
-1079.8017284263201
 31
0.0
  0
LINE
  5
1C014
  8
01
 10
947.46222316345529
 20
-1076.8017284263201
 30
0.0
 11
947.5622243268524
 21
-1076.3017284263201
 31
0.0
  0
LINE
  5
1C015
  8
01
 10
945.86222316345481
 20
-1076.8017284263201
 30
0.0
 11
945.96222432685261
 21
-1076.3017284263201
 31
0.0
  0
LINE
  5
1C016
  8
01
 10
942.66222316345477
 20
-1076.8017284263201
 30
0.0
 11
942.76222432685245
 21
-1076.3017284263201
 31
0.0
  0
LINE
  5
1C017
  8
01
 10
944.26222316345491
 20
-1076.8017284263201
 30
0.0
 11
944.36222432685258
 21
-1076.3017284263201
 31
0.0
  0
LINE
  5
1C018
  8
01
 10
944.36222432685258
 20
-1076.3017284263201
 30
0.0
 11
945.16221501967084
 21
-1080.3017284263201
 31
0.0
  0
LINE
  5
1C019
  8
01
 10
945.96222432685261
 20
-1076.3017284263201
 30
0.0
 11
946.76221501967507
 21
-1080.3017284263201
 31
0.0
  0
LINE
  5
1C01A
  8
01
 10
942.76222432685245
 20
-1076.3017284263201
 30
0.0
 11
943.5622150196707
 21
-1080.3017284263201
 31
0.0
  0
LINE
  5
1C01B
  8
01
 10
941.16222432685242
 20
-1076.3017284263201
 30
0.0
 11
941.96221501967079
 21
-1080.3017284263201
 31
0.0
  0
LINE
  5
1C01C
  8
01
 10
955.5622243268524
 20
-1076.3017284263201
 30
0.0
 11
956.36221501967509
 21
-1080.3017284263201
 31
0.0
  0
LINE
  5
1C01D
  8
01
 10
956.36221501967509
 20
-1080.3017284263201
 30
0.0
 11
956.46221618307231
 21
-1079.8017284263201
 31
0.0
  0
LINE
  5
1C01E
  8
01
 10
957.06222316345531
 20
-1076.8017284263201
 30
0.0
 11
957.16222432685242
 21
-1076.3017284263201
 31
0.0
  0
LINE
  5
1C01F
  8
01
 10
955.46222316345529
 20
-1076.8017284263201
 30
0.0
 11
955.5622243268524
 21
-1076.3017284263201
 31
0.0
  0
LINE
  5
1C020
  8
01
 10
959.56221501967514
 20
-1080.3017284263201
 30
0.0
 11
959.66221618307225
 21
-1079.8017284263201
 31
0.0
  0
LINE
  5
1C021
  8
01
 10
957.96221501967511
 20
-1080.3017284263201
 30
0.0
 11
958.06221618307211
 21
-1079.8017284263201
 31
0.0
  0
LINE
  5
1C022
  8
01
 10
958.66222316345545
 20
-1076.8017284263201
 30
0.0
 11
958.76222432685245
 21
-1076.3017284263201
 31
0.0
  0
LINE
  5
1C023
  8
01
 10
958.76222432685245
 20
-1076.3017284263201
 30
0.0
 11
959.56221501967514
 21
-1080.3017284263201
 31
0.0
  0
LINE
  5
1C024
  8
01
 10
957.16222432685242
 20
-1076.3017284263201
 30
0.0
 11
957.96221501967511
 21
-1080.3017284263201
 31
0.0
  0
LINE
  5
1C025
  8
01
 10
916.46221967347378
 20
-1078.3016818904221
 30
0.0
 11
917.46221833010247
 21
-1078.879031384015
 31
0.0
  0
LINE
  5
1C029
  8
01
 10
811.46226620937375
 20
-957.50168189058695
 30
0.0
 11
809.96226620937375
 21
-962.80167840044862
 31
0.0
  0
LINE
  5
1C02A
  8
01
 10
809.96226620937375
 20
-962.80167840044805
 30
0.0
 11
809.96226620937375
 21
-1007.50167840034
 31
0.0
  0
LINE
  5
1C02B
  8
01
 10
811.46226620937375
 20
-957.50168189058695
 30
0.0
 11
812.96226620937387
 21
-962.80168538083217
 31
0.0
  0
LINE
  5
1C02C
  8
01
 10
807.96221967347583
 20
-1007.501673746642
 30
0.0
 11
809.96226620937375
 21
-1007.50167840034
 31
0.0
  0
LINE
  5
1C02D
  8
01
 10
812.96226620937387
 20
-962.80168538083217
 30
0.0
 11
812.96226620937387
 21
-1007.501685380725
 31
0.0
  0
LINE
  5
1C02E
  8
01
 10
807.96221967347583
 20
-1006.50167374664
 30
0.0
 11
807.96221967347583
 21
-1008.601677236838
 31
0.0
  0
LINE
  5
1C02F
  8
01
 10
812.96226620937387
 20
-1007.501685380725
 30
0.0
 11
814.96221967347594
 21
-1007.5016900342069
 31
0.0
  0
ARC
  5
1C030
  8
01
 10
809.46221967347572
 20
-1008.601677236838
 30
0.0
 40
1.5
 50
180.0
 51
269.99986668446678
  0
LINE
  5
1C031
  8
01
 10
814.96221967347594
 20
-1006.501690034204
 30
0.0
 11
814.96221967347594
 21
-1008.601686544017
 31
0.0
  0
LINE
  5
1C032
  8
01
 10
809.4622161832832
 20
-1010.101677236834
 30
0.0
 11
813.46221618328332
 21
-1010.101686544013
 31
0.0
  0
ARC
  5
1C033
  8
01
 10
813.46221967347583
 20
-1008.601686544017
 30
0.0
 40
1.5
 50
269.99986668446678
 51
0.0
  0
LINE
  5
1C034
  8
1CENTER
 10
811.46221967347583
 20
-956.75356760804402
 30
0.0
 11
811.46221967347583
 21
-1011.171958299733
 31
0.0
  0
LINE
  5
1C035
  8
01
 10
810.36789585948065
 20
-959.60167934426465
 30
0.0
 11
812.3302309483563
 21
-958.8016839102138
 31
0.0
  0
LINE
  5
1C036
  8
01
 10
812.3302309483563
 20
-958.8016839102138
 30
0.0
 11
811.74195437331377
 21
-958.48991405396168
 31
0.0
  0
LINE
  5
1C037
  8
01
 10
809.46226620937387
 20
-1002.001677237055
 30
0.0
 11
813.46226620937375
 21
-1001.2016865442361
 31
0.0
  0
LINE
  5
1C038
  8
01
 10
809.46226620937387
 20
-990.80167723705028
 30
0.0
 11
813.46226620937375
 21
-990.00168654422782
 31
0.0
  0
LINE
  5
1C039
  8
01
 10
809.46226620937387
 20
-987.60167723705035
 30
0.0
 11
813.46226620937375
 21
-986.80168654422778
 31
0.0
  0
LINE
  5
1C03A
  8
01
 10
813.46226620937375
 20
-986.80168654422778
 30
0.0
 11
812.96226620937387
 21
-986.70168538083055
 31
0.0
  0
LINE
  5
1C03B
  8
01
 10
809.96226620937375
 20
-986.10167840044744
 30
0.0
 11
809.46226620937387
 21
-986.00167723705033
 31
0.0
  0
LINE
  5
1C03C
  8
01
 10
813.46226620937375
 20
-990.00168654422782
 30
0.0
 11
812.96226620937387
 21
-989.90168538083049
 31
0.0
  0
LINE
  5
1C03D
  8
01
 10
813.46226620937375
 20
-988.40168654422757
 30
0.0
 11
812.96226620937387
 21
-988.30168538083046
 31
0.0
  0
LINE
  5
1C03E
  8
01
 10
809.96226620937375
 20
-987.70167840044735
 30
0.0
 11
809.46226620937387
 21
-987.60167723705035
 31
0.0
  0
LINE
  5
1C03F
  8
01
 10
809.96226620937375
 20
-989.30167840044726
 30
0.0
 11
809.46226620937387
 21
-989.20167723705026
 31
0.0
  0
LINE
  5
1C040
  8
01
 10
809.46226620937387
 20
-989.20167723705026
 30
0.0
 11
813.46226620937375
 21
-988.40168654422757
 31
0.0
  0
LINE
  5
1C041
  8
01
 10
812.78304505276299
 20
-960.40168496381943
 30
0.0
 11
812.23129558895971
 21
-960.21892082119143
 31
0.0
  0
LINE
  5
1C042
  8
01
 10
813.46226620937375
 20
-983.60168654422762
 30
0.0
 11
812.96226620937387
 21
-983.50168538083074
 31
0.0
  0
LINE
  5
1C043
  8
01
 10
813.46226620937375
 20
-985.20168654422775
 30
0.0
 11
812.96226620937387
 21
-985.10168538083065
 31
0.0
  0
LINE
  5
1C044
  8
01
 10
813.23585915716978
 20
-962.00168601742507
 30
0.0
 11
812.69926542189864
 21
-961.87241531979521
 31
0.0
  0
LINE
  5
1C045
  8
01
 10
810.38318080658246
 20
-961.31444780301058
 30
0.0
 11
809.9150823514326
 21
-961.20167829066054
 31
0.0
  0
LINE
  5
1C046
  8
01
 10
809.96226620937375
 20
-984.50167840044742
 30
0.0
 11
809.46226620937387
 21
-984.40167723705031
 31
0.0
  0
LINE
  5
1C047
  8
01
 10
809.96226620937375
 20
-962.90167840044751
 30
0.0
 11
809.46226620937387
 21
-962.8016772370504
 31
0.0
  0
LINE
  5
1C048
  8
01
 10
810.82506770011196
 20
-959.75311514070518
 30
0.0
 11
810.36789585948065
 21
-959.60167934426465
 31
0.0
  0
LINE
  5
1C049
  8
01
 10
809.9150823514326
 20
-961.20167829066054
 30
0.0
 11
812.78304505276299
 21
-960.40168496381943
 31
0.0
  0
LINE
  5
1C04A
  8
01
 10
809.46226620937387
 20
-984.40167723705031
 30
0.0
 11
813.46226620937375
 21
-983.60168654422762
 31
0.0
  0
LINE
  5
1C04B
  8
01
 10
809.46226620937387
 20
-962.8016772370504
 30
0.0
 11
813.23585915716978
 21
-962.00168601742507
 31
0.0
  0
LINE
  5
1C04C
  8
01
 10
809.46226620937387
 20
-986.00167723705033
 30
0.0
 11
813.46226620937375
 21
-985.20168654422775
 31
0.0
  0
LINE
  5
1C04D
  8
01
 10
809.46226620937387
 20
-998.80167723705472
 30
0.0
 11
813.46226620937375
 21
-998.00168654423635
 31
0.0
  0
LINE
  5
1C04E
  8
01
 10
813.46226620937375
 20
-998.00168654423635
 30
0.0
 11
812.96226620937387
 21
-997.90168538083867
 31
0.0
  0
LINE
  5
1C04F
  8
01
 10
809.96226620937375
 20
-997.30167840044805
 30
0.0
 11
809.46226620937387
 21
-997.20167723705026
 31
0.0
  0
LINE
  5
1C050
  8
01
 10
813.46226620937375
 20
-999.60168654423649
 30
0.0
 11
812.96226620937387
 21
-999.50168538083892
 31
0.0
  0
LINE
  5
1C051
  8
01
 10
813.46226620937375
 20
-1001.2016865442361
 30
0.0
 11
812.96226620937387
 21
-1001.1016853808389
 31
0.0
  0
LINE
  5
1C052
  8
01
 10
809.96226620937375
 20
-998.9016784004524
 30
0.0
 11
809.46226620937387
 21
-998.80167723705472
 31
0.0
  0
LINE
  5
1C053
  8
01
 10
809.96226620937375
 20
-1000.501678400452
 30
0.0
 11
809.46226620937387
 21
-1000.4016772370539
 31
0.0
  0
LINE
  5
1C054
  8
01
 10
809.46226620937387
 20
-1000.4016772370539
 30
0.0
 11
813.46226620937375
 21
-999.60168654423649
 31
0.0
  0
LINE
  5
1C055
  8
01
 10
813.46226620937375
 20
-993.20168654423207
 30
0.0
 11
812.96226620937387
 21
-993.1016853808344
 31
0.0
  0
LINE
  5
1C056
  8
01
 10
813.46226620937375
 20
-991.60168654422762
 30
0.0
 11
812.96226620937387
 21
-991.50168538083074
 31
0.0
  0
LINE
  5
1C057
  8
01
 10
813.46226620937375
 20
-996.40168654423212
 30
0.0
 11
812.96226620937387
 21
-996.30168538083444
 31
0.0
  0
LINE
  5
1C058
  8
01
 10
813.46226620937375
 20
-994.80168654423233
 30
0.0
 11
812.96226620937387
 21
-994.70168538083465
 31
0.0
  0
LINE
  5
1C059
  8
01
 10
809.96226620937375
 20
-990.90167840044739
 30
0.0
 11
809.46226620937387
 21
-990.80167723705028
 31
0.0
  0
LINE
  5
1C05A
  8
01
 10
809.96226620937375
 20
-992.50167840044821
 30
0.0
 11
809.46226620937387
 21
-992.40167723705031
 31
0.0
  0
LINE
  5
1C05B
  8
01
 10
809.96226620937375
 20
-995.70167840044815
 30
0.0
 11
809.46226620937387
 21
-995.60167723705047
 31
0.0
  0
LINE
  5
1C05C
  8
01
 10
809.96226620937375
 20
-994.10167840044801
 30
0.0
 11
809.46226620937387
 21
-994.00167723705033
 31
0.0
  0
LINE
  5
1C05D
  8
01
 10
809.46226620937387
 20
-994.00167723705033
 30
0.0
 11
813.46226620937375
 21
-993.20168654423207
 31
0.0
  0
LINE
  5
1C05E
  8
01
 10
809.46226620937387
 20
-992.40167723705031
 30
0.0
 11
813.46226620937375
 21
-991.60168654422762
 31
0.0
  0
LINE
  5
1C05F
  8
01
 10
809.46226620937387
 20
-995.60167723705047
 30
0.0
 11
813.46226620937375
 21
-994.80168654423233
 31
0.0
  0
LINE
  5
1C060
  8
01
 10
809.46226620937387
 20
-997.20167723705026
 30
0.0
 11
813.46226620937375
 21
-996.40168654423212
 31
0.0
  0
LINE
  5
1C061
  8
01
 10
812.96226620937387
 20
-1007.501685380725
 30
0.0
 11
809.96226620937375
 21
-1007.50167840034
 31
0.0
  0
LINE
  5
1C062
  8
01
 10
814.96221967347594
 20
-1006.501690034204
 30
0.0
 11
807.96221967347583
 21
-1006.50167374664
 31
0.0
  0
LINE
  5
1C063
  8
01
 10
809.96226620937375
 20
-1006.901678400456
 30
0.0
 11
809.46226620937387
 21
-1006.801677237059
 31
0.0
  0
LINE
  5
1C064
  8
01
 10
809.46226620937387
 20
-1006.801677237059
 30
0.0
 11
813.46226620937375
 21
-1006.00168654424
 31
0.0
  0
LINE
  5
1C065
  8
01
 10
813.46226620937375
 20
-1006.00168654424
 30
0.0
 11
812.96226620937387
 21
-1005.901685380843
 31
0.0
  0
LINE
  5
1C066
  8
01
 10
809.96226620937375
 20
-1005.301678400456
 30
0.0
 11
809.46226620937387
 21
-1005.201677237059
 31
0.0
  0
LINE
  5
1C067
  8
01
 10
809.96226620937375
 20
-1003.701678400457
 30
0.0
 11
809.46226620937387
 21
-1003.601677237059
 31
0.0
  0
LINE
  5
1C068
  8
01
 10
809.46226620937387
 20
-1003.601677237059
 30
0.0
 11
813.46226620937375
 21
-1002.801686544241
 31
0.0
  0
LINE
  5
1C069
  8
01
 10
813.46226620937375
 20
-1004.401686544241
 30
0.0
 11
812.96226620937387
 21
-1004.301685380843
 31
0.0
  0
LINE
  5
1C06A
  8
01
 10
813.46226620937375
 20
-1002.801686544241
 30
0.0
 11
812.96226620937387
 21
-1002.7016853808429
 31
0.0
  0
LINE
  5
1C06B
  8
01
 10
809.46226620937387
 20
-1005.201677237059
 30
0.0
 11
813.46226620937375
 21
-1004.401686544241
 31
0.0
  0
LINE
  5
1C06C
  8
01
 10
809.96226620937375
 20
-1002.101678400452
 30
0.0
 11
809.46226620937387
 21
-1002.001677237055
 31
0.0
  0
LINE
  5
1C06D
  8
01
 10
809.46226620937387
 20
-976.40167723704599
 30
0.0
 11
813.46226620937375
 21
-975.60168654422341
 31
0.0
  0
LINE
  5
1C06E
  8
01
 10
809.46226620937387
 20
-973.20167723704583
 30
0.0
 11
813.46226620937375
 21
-972.40168654422337
 31
0.0
  0
LINE
  5
1C06F
  8
01
 10
813.46226620937375
 20
-972.40168654422337
 30
0.0
 11
812.96226620937387
 21
-972.30168538082603
 31
0.0
  0
LINE
  5
1C070
  8
01
 10
809.96226620937375
 20
-971.70167840044326
 30
0.0
 11
809.46226620937387
 21
-971.60167723704581
 31
0.0
  0
LINE
  5
1C071
  8
01
 10
813.46226620937375
 20
-975.60168654422341
 30
0.0
 11
812.96226620937387
 21
-975.50168538082619
 31
0.0
  0
LINE
  5
1C072
  8
01
 10
813.46226620937375
 20
-974.00168654422316
 30
0.0
 11
812.96226620937387
 21
-973.90168538082617
 31
0.0
  0
LINE
  5
1C073
  8
01
 10
809.96226620937375
 20
-973.30167840044305
 30
0.0
 11
809.46226620937387
 21
-973.20167723704583
 31
0.0
  0
LINE
  5
1C074
  8
01
 10
809.96226620937375
 20
-974.90167840044296
 30
0.0
 11
809.46226620937387
 21
-974.80167723704585
 31
0.0
  0
LINE
  5
1C075
  8
01
 10
809.46226620937387
 20
-974.80167723704585
 30
0.0
 11
813.46226620937375
 21
-974.00168654422316
 31
0.0
  0
LINE
  5
1C076
  8
01
 10
813.46226620937375
 20
-969.20168654422343
 30
0.0
 11
812.96226620937387
 21
-969.10168538082621
 31
0.0
  0
LINE
  5
1C077
  8
01
 10
813.46226620937375
 20
-970.80168654422334
 30
0.0
 11
812.96226620937387
 21
-970.70168538082635
 31
0.0
  0
LINE
  5
1C078
  8
01
 10
809.96226620937375
 20
-970.10167840044301
 30
0.0
 11
809.46226620937387
 21
-970.00167723704578
 31
0.0
  0
LINE
  5
1C079
  8
01
 10
809.46226620937387
 20
-970.00167723704578
 30
0.0
 11
813.46226620937375
 21
-969.20168654422343
 31
0.0
  0
LINE
  5
1C07A
  8
01
 10
809.46226620937387
 20
-971.60167723704581
 30
0.0
 11
813.46226620937375
 21
-970.80168654422334
 31
0.0
  0
LINE
  5
1C07B
  8
01
 10
809.96226620937375
 20
-982.90167840044353
 30
0.0
 11
809.46226620937387
 21
-982.80167723704585
 31
0.0
  0
LINE
  5
1C07C
  8
01
 10
813.46226620937375
 20
-978.80168654422755
 30
0.0
 11
812.96226620937387
 21
-978.70168538082987
 31
0.0
  0
LINE
  5
1C07D
  8
01
 10
813.46226620937375
 20
-977.20168654422343
 30
0.0
 11
812.96226620937387
 21
-977.10168538082621
 31
0.0
  0
LINE
  5
1C07E
  8
01
 10
813.46226620937375
 20
-982.0016865442276
 30
0.0
 11
812.96226620937387
 21
-981.90168538083003
 31
0.0
  0
LINE
  5
1C07F
  8
01
 10
813.46226620937375
 20
-980.4016865442278
 30
0.0
 11
812.96226620937387
 21
-980.30168538083012
 31
0.0
  0
LINE
  5
1C080
  8
01
 10
809.96226620937375
 20
-976.50167840044298
 30
0.0
 11
809.46226620937387
 21
-976.40167723704599
 31
0.0
  0
LINE
  5
1C081
  8
01
 10
809.96226620937375
 20
-978.10167840044369
 30
0.0
 11
809.46226620937387
 21
-978.00167723704578
 31
0.0
  0
LINE
  5
1C082
  8
01
 10
809.96226620937375
 20
-981.30167840044373
 30
0.0
 11
809.46226620937387
 21
-981.20167723704606
 31
0.0
  0
LINE
  5
1C083
  8
01
 10
809.96226620937375
 20
-979.70167840044348
 30
0.0
 11
809.46226620937387
 21
-979.60167723704581
 31
0.0
  0
LINE
  5
1C084
  8
01
 10
809.46226620937387
 20
-979.60167723704581
 30
0.0
 11
813.46226620937375
 21
-978.80168654422755
 31
0.0
  0
LINE
  5
1C085
  8
01
 10
809.46226620937387
 20
-978.00167723704578
 30
0.0
 11
813.46226620937375
 21
-977.20168654422343
 31
0.0
  0
LINE
  5
1C086
  8
01
 10
809.46226620937387
 20
-981.20167723704606
 30
0.0
 11
813.46226620937375
 21
-980.4016865442278
 31
0.0
  0
LINE
  5
1C087
  8
01
 10
809.46226620937387
 20
-982.80167723704585
 30
0.0
 11
813.46226620937375
 21
-982.0016865442276
 31
0.0
  0
LINE
  5
1C088
  8
01
 10
809.46226620937387
 20
-968.40167723704599
 30
0.0
 11
813.46226620937375
 21
-967.60168654422341
 31
0.0
  0
LINE
  5
1C089
  8
01
 10
813.46226620937375
 20
-967.60168654422341
 30
0.0
 11
812.96226620937387
 21
-967.50168538082619
 31
0.0
  0
LINE
  5
1C08A
  8
01
 10
809.96226620937375
 20
-966.90167840044319
 30
0.0
 11
809.46226620937387
 21
-966.80167723704596
 31
0.0
  0
LINE
  5
1C08B
  8
01
 10
809.96226620937375
 20
-968.50167840044298
 30
0.0
 11
809.46226620937387
 21
-968.40167723704599
 31
0.0
  0
LINE
  5
1C08C
  8
01
 10
813.46226620937375
 20
-964.40168654422337
 30
0.0
 11
812.96226620937387
 21
-964.30168538082626
 31
0.0
  0
LINE
  5
1C08D
  8
01
 10
813.46226620937375
 20
-966.00168654422339
 30
0.0
 11
812.96226620937387
 21
-965.90168538082639
 31
0.0
  0
LINE
  5
1C08E
  8
01
 10
809.96226620937375
 20
-965.30167840044305
 30
0.0
 11
809.46226620937387
 21
-965.20167723704583
 31
0.0
  0
LINE
  5
1C08F
  8
01
 10
809.46226620937387
 20
-965.20167723704583
 30
0.0
 11
813.46226620937375
 21
-964.40168654422337
 31
0.0
  0
LINE
  5
1C090
  8
01
 10
809.46226620937387
 20
-966.80167723704596
 30
0.0
 11
813.46226620937375
 21
-966.00168654422339
 31
0.0
  0
LINE
  5
1C091
  8
01
 10
811.46221967347583
 20
-1007.501681890424
 30
0.0
 11
812.03956916706954
 21
-1006.501683233796
 31
0.0
  0
LINE
  5
1C093
  8
01
 10
629.46226620937375
 20
-957.50168189058695
 30
0.0
 11
627.96226620937375
 21
-962.80167840044862
 31
0.0
  0
LINE
  5
1C094
  8
01
 10
627.96226620937375
 20
-962.80167840044805
 30
0.0
 11
627.96226620937375
 21
-1007.50167840034
 31
0.0
  0
LINE
  5
1C095
  8
01
 10
629.46226620937375
 20
-957.50168189058695
 30
0.0
 11
630.96226620937387
 21
-962.80168538083217
 31
0.0
  0
LINE
  5
1C096
  8
01
 10
625.96221967347583
 20
-1007.501673746642
 30
0.0
 11
627.96226620937375
 21
-1007.50167840034
 31
0.0
  0
LINE
  5
1C097
  8
01
 10
630.96226620937387
 20
-962.80168538083217
 30
0.0
 11
630.96226620937387
 21
-1007.501685380725
 31
0.0
  0
LINE
  5
1C098
  8
01
 10
625.96221967347583
 20
-1006.50167374664
 30
0.0
 11
625.96221967347583
 21
-1008.601677236838
 31
0.0
  0
LINE
  5
1C099
  8
01
 10
630.96226620937387
 20
-1007.501685380725
 30
0.0
 11
632.96221967347583
 21
-1007.5016900342069
 31
0.0
  0
ARC
  5
1C09A
  8
01
 10
627.46221967347583
 20
-1008.601677236838
 30
0.0
 40
1.5
 50
180.0
 51
269.99986668446678
  0
LINE
  5
1C09B
  8
01
 10
632.96221967347583
 20
-1006.501690034204
 30
0.0
 11
632.96221967347583
 21
-1008.601686544017
 31
0.0
  0
LINE
  5
1C09C
  8
01
 10
627.46221618328332
 20
-1010.101677236834
 30
0.0
 11
631.46221618328332
 21
-1010.101686544013
 31
0.0
  0
ARC
  5
1C09D
  8
01
 10
631.46221967347583
 20
-1008.601686544017
 30
0.0
 40
1.5
 50
269.99986668446678
 51
0.0
  0
LINE
  5
1C09E
  8
1CENTER
 10
629.46221967347583
 20
-956.75356760804402
 30
0.0
 11
629.46221967347583
 21
-1011.171958299733
 31
0.0
  0
LINE
  5
1C09F
  8
01
 10
628.36789585948077
 20
-959.60167934426465
 30
0.0
 11
630.33023094835619
 21
-958.8016839102138
 31
0.0
  0
LINE
  5
1C0A0
  8
01
 10
630.33023094835619
 20
-958.8016839102138
 30
0.0
 11
629.74195437331377
 21
-958.48991405396168
 31
0.0
  0
LINE
  5
1C0A1
  8
01
 10
627.46226620937375
 20
-1002.001677237055
 30
0.0
 11
631.46226620937375
 21
-1001.2016865442361
 31
0.0
  0
LINE
  5
1C0A2
  8
01
 10
627.46226620937375
 20
-990.80167723705028
 30
0.0
 11
631.46226620937375
 21
-990.00168654422782
 31
0.0
  0
LINE
  5
1C0A3
  8
01
 10
627.46226620937375
 20
-987.60167723705035
 30
0.0
 11
631.46226620937375
 21
-986.80168654422778
 31
0.0
  0
LINE
  5
1C0A4
  8
01
 10
631.46226620937375
 20
-986.80168654422778
 30
0.0
 11
630.96226620937387
 21
-986.70168538083055
 31
0.0
  0
LINE
  5
1C0A5
  8
01
 10
627.96226620937375
 20
-986.10167840044744
 30
0.0
 11
627.46226620937375
 21
-986.00167723705033
 31
0.0
  0
LINE
  5
1C0A6
  8
01
 10
631.46226620937375
 20
-990.00168654422782
 30
0.0
 11
630.96226620937387
 21
-989.90168538083049
 31
0.0
  0
LINE
  5
1C0A7
  8
01
 10
631.46226620937375
 20
-988.40168654422757
 30
0.0
 11
630.96226620937387
 21
-988.30168538083046
 31
0.0
  0
LINE
  5
1C0A8
  8
01
 10
627.96226620937375
 20
-987.70167840044735
 30
0.0
 11
627.46226620937375
 21
-987.60167723705035
 31
0.0
  0
LINE
  5
1C0A9
  8
01
 10
627.96226620937375
 20
-989.30167840044726
 30
0.0
 11
627.46226620937375
 21
-989.20167723705026
 31
0.0
  0
LINE
  5
1C0AA
  8
01
 10
627.46226620937375
 20
-989.20167723705026
 30
0.0
 11
631.46226620937375
 21
-988.40168654422757
 31
0.0
  0
LINE
  5
1C0AB
  8
01
 10
630.7830450527631
 20
-960.40168496381943
 30
0.0
 11
630.23129558895971
 21
-960.21892082119143
 31
0.0
  0
LINE
  5
1C0AC
  8
01
 10
631.46226620937375
 20
-983.60168654422762
 30
0.0
 11
630.96226620937387
 21
-983.50168538083074
 31
0.0
  0
LINE
  5
1C0AD
  8
01
 10
631.46226620937375
 20
-985.20168654422775
 30
0.0
 11
630.96226620937387
 21
-985.10168538083065
 31
0.0
  0
LINE
  5
1C0AE
  8
01
 10
631.23585915716978
 20
-962.00168601742507
 30
0.0
 11
630.69926542189864
 21
-961.87241531979521
 31
0.0
  0
LINE
  5
1C0AF
  8
01
 10
628.38318080658246
 20
-961.31444780301058
 30
0.0
 11
627.9150823514326
 21
-961.20167829066054
 31
0.0
  0
LINE
  5
1C0B0
  8
01
 10
627.96226620937375
 20
-984.50167840044742
 30
0.0
 11
627.46226620937375
 21
-984.40167723705031
 31
0.0
  0
LINE
  5
1C0B1
  8
01
 10
627.96226620937375
 20
-962.90167840044751
 30
0.0
 11
627.46226620937375
 21
-962.8016772370504
 31
0.0
  0
LINE
  5
1C0B2
  8
01
 10
628.82506770011184
 20
-959.75311514070518
 30
0.0
 11
628.36789585948077
 21
-959.60167934426465
 31
0.0
  0
LINE
  5
1C0B3
  8
01
 10
627.9150823514326
 20
-961.20167829066054
 30
0.0
 11
630.7830450527631
 21
-960.40168496381943
 31
0.0
  0
LINE
  5
1C0B4
  8
01
 10
627.46226620937375
 20
-984.40167723705031
 30
0.0
 11
631.46226620937375
 21
-983.60168654422762
 31
0.0
  0
LINE
  5
1C0B5
  8
01
 10
627.46226620937375
 20
-962.8016772370504
 30
0.0
 11
631.23585915716978
 21
-962.00168601742507
 31
0.0
  0
LINE
  5
1C0B6
  8
01
 10
627.46226620937375
 20
-986.00167723705033
 30
0.0
 11
631.46226620937375
 21
-985.20168654422775
 31
0.0
  0
LINE
  5
1C0B7
  8
01
 10
627.46226620937375
 20
-998.80167723705472
 30
0.0
 11
631.46226620937375
 21
-998.00168654423635
 31
0.0
  0
LINE
  5
1C0B8
  8
01
 10
631.46226620937375
 20
-998.00168654423635
 30
0.0
 11
630.96226620937387
 21
-997.90168538083867
 31
0.0
  0
LINE
  5
1C0B9
  8
01
 10
627.96226620937375
 20
-997.30167840044805
 30
0.0
 11
627.46226620937375
 21
-997.20167723705026
 31
0.0
  0
LINE
  5
1C0BA
  8
01
 10
631.46226620937375
 20
-999.60168654423649
 30
0.0
 11
630.96226620937387
 21
-999.50168538083892
 31
0.0
  0
LINE
  5
1C0BB
  8
01
 10
631.46226620937375
 20
-1001.2016865442361
 30
0.0
 11
630.96226620937387
 21
-1001.1016853808389
 31
0.0
  0
LINE
  5
1C0BC
  8
01
 10
627.96226620937375
 20
-998.9016784004524
 30
0.0
 11
627.46226620937375
 21
-998.80167723705472
 31
0.0
  0
LINE
  5
1C0BD
  8
01
 10
627.96226620937375
 20
-1000.501678400452
 30
0.0
 11
627.46226620937375
 21
-1000.4016772370539
 31
0.0
  0
LINE
  5
1C0BE
  8
01
 10
627.46226620937375
 20
-1000.4016772370539
 30
0.0
 11
631.46226620937375
 21
-999.60168654423649
 31
0.0
  0
LINE
  5
1C0BF
  8
01
 10
631.46226620937375
 20
-993.20168654423207
 30
0.0
 11
630.96226620937387
 21
-993.1016853808344
 31
0.0
  0
LINE
  5
1C0C0
  8
01
 10
631.46226620937375
 20
-991.60168654422762
 30
0.0
 11
630.96226620937387
 21
-991.50168538083074
 31
0.0
  0
LINE
  5
1C0C1
  8
01
 10
631.46226620937375
 20
-996.40168654423212
 30
0.0
 11
630.96226620937387
 21
-996.30168538083444
 31
0.0
  0
LINE
  5
1C0C2
  8
01
 10
631.46226620937375
 20
-994.80168654423233
 30
0.0
 11
630.96226620937387
 21
-994.70168538083465
 31
0.0
  0
LINE
  5
1C0C3
  8
01
 10
627.96226620937375
 20
-990.90167840044739
 30
0.0
 11
627.46226620937375
 21
-990.80167723705028
 31
0.0
  0
LINE
  5
1C0C4
  8
01
 10
627.96226620937375
 20
-992.50167840044821
 30
0.0
 11
627.46226620937375
 21
-992.40167723705031
 31
0.0
  0
LINE
  5
1C0C5
  8
01
 10
627.96226620937375
 20
-995.70167840044815
 30
0.0
 11
627.46226620937375
 21
-995.60167723705047
 31
0.0
  0
LINE
  5
1C0C6
  8
01
 10
627.96226620937375
 20
-994.10167840044801
 30
0.0
 11
627.46226620937375
 21
-994.00167723705033
 31
0.0
  0
LINE
  5
1C0C7
  8
01
 10
627.46226620937375
 20
-994.00167723705033
 30
0.0
 11
631.46226620937375
 21
-993.20168654423207
 31
0.0
  0
LINE
  5
1C0C8
  8
01
 10
627.46226620937375
 20
-992.40167723705031
 30
0.0
 11
631.46226620937375
 21
-991.60168654422762
 31
0.0
  0
LINE
  5
1C0C9
  8
01
 10
627.46226620937375
 20
-995.60167723705047
 30
0.0
 11
631.46226620937375
 21
-994.80168654423233
 31
0.0
  0
LINE
  5
1C0CA
  8
01
 10
627.46226620937375
 20
-997.20167723705026
 30
0.0
 11
631.46226620937375
 21
-996.40168654423212
 31
0.0
  0
LINE
  5
1C0CB
  8
01
 10
630.96226620937387
 20
-1007.501685380725
 30
0.0
 11
627.96226620937375
 21
-1007.50167840034
 31
0.0
  0
LINE
  5
1C0CC
  8
01
 10
632.96221967347583
 20
-1006.501690034204
 30
0.0
 11
625.96221967347583
 21
-1006.50167374664
 31
0.0
  0
LINE
  5
1C0CD
  8
01
 10
627.96226620937375
 20
-1006.901678400456
 30
0.0
 11
627.46226620937375
 21
-1006.801677237059
 31
0.0
  0
LINE
  5
1C0CE
  8
01
 10
627.46226620937375
 20
-1006.801677237059
 30
0.0
 11
631.46226620937375
 21
-1006.00168654424
 31
0.0
  0
LINE
  5
1C0CF
  8
01
 10
631.46226620937375
 20
-1006.00168654424
 30
0.0
 11
630.96226620937387
 21
-1005.901685380843
 31
0.0
  0
LINE
  5
1C0D0
  8
01
 10
627.96226620937375
 20
-1005.301678400456
 30
0.0
 11
627.46226620937375
 21
-1005.201677237059
 31
0.0
  0
LINE
  5
1C0D1
  8
01
 10
627.96226620937375
 20
-1003.701678400457
 30
0.0
 11
627.46226620937375
 21
-1003.601677237059
 31
0.0
  0
LINE
  5
1C0D2
  8
01
 10
627.46226620937375
 20
-1003.601677237059
 30
0.0
 11
631.46226620937375
 21
-1002.801686544241
 31
0.0
  0
LINE
  5
1C0D3
  8
01
 10
631.46226620937375
 20
-1004.401686544241
 30
0.0
 11
630.96226620937387
 21
-1004.301685380843
 31
0.0
  0
LINE
  5
1C0D4
  8
01
 10
631.46226620937375
 20
-1002.801686544241
 30
0.0
 11
630.96226620937387
 21
-1002.7016853808429
 31
0.0
  0
LINE
  5
1C0D5
  8
01
 10
627.46226620937375
 20
-1005.201677237059
 30
0.0
 11
631.46226620937375
 21
-1004.401686544241
 31
0.0
  0
LINE
  5
1C0D6
  8
01
 10
627.96226620937375
 20
-1002.101678400452
 30
0.0
 11
627.46226620937375
 21
-1002.001677237055
 31
0.0
  0
LINE
  5
1C0D7
  8
01
 10
627.46226620937375
 20
-976.40167723704599
 30
0.0
 11
631.46226620937375
 21
-975.60168654422341
 31
0.0
  0
LINE
  5
1C0D8
  8
01
 10
627.46226620937375
 20
-973.20167723704583
 30
0.0
 11
631.46226620937375
 21
-972.40168654422337
 31
0.0
  0
LINE
  5
1C0D9
  8
01
 10
631.46226620937375
 20
-972.40168654422337
 30
0.0
 11
630.96226620937387
 21
-972.30168538082603
 31
0.0
  0
LINE
  5
1C0DA
  8
01
 10
627.96226620937375
 20
-971.70167840044326
 30
0.0
 11
627.46226620937375
 21
-971.60167723704581
 31
0.0
  0
LINE
  5
1C0DB
  8
01
 10
631.46226620937375
 20
-975.60168654422341
 30
0.0
 11
630.96226620937387
 21
-975.50168538082619
 31
0.0
  0
LINE
  5
1C0DC
  8
01
 10
631.46226620937375
 20
-974.00168654422316
 30
0.0
 11
630.96226620937387
 21
-973.90168538082617
 31
0.0
  0
LINE
  5
1C0DD
  8
01
 10
627.96226620937375
 20
-973.30167840044305
 30
0.0
 11
627.46226620937375
 21
-973.20167723704583
 31
0.0
  0
LINE
  5
1C0DE
  8
01
 10
627.96226620937375
 20
-974.90167840044296
 30
0.0
 11
627.46226620937375
 21
-974.80167723704585
 31
0.0
  0
LINE
  5
1C0DF
  8
01
 10
627.46226620937375
 20
-974.80167723704585
 30
0.0
 11
631.46226620937375
 21
-974.00168654422316
 31
0.0
  0
LINE
  5
1C0E0
  8
01
 10
631.46226620937375
 20
-969.20168654422343
 30
0.0
 11
630.96226620937387
 21
-969.10168538082621
 31
0.0
  0
LINE
  5
1C0E1
  8
01
 10
631.46226620937375
 20
-970.80168654422334
 30
0.0
 11
630.96226620937387
 21
-970.70168538082635
 31
0.0
  0
LINE
  5
1C0E2
  8
01
 10
627.96226620937375
 20
-970.10167840044301
 30
0.0
 11
627.46226620937375
 21
-970.00167723704578
 31
0.0
  0
LINE
  5
1C0E3
  8
01
 10
627.46226620937375
 20
-970.00167723704578
 30
0.0
 11
631.46226620937375
 21
-969.20168654422343
 31
0.0
  0
LINE
  5
1C0E4
  8
01
 10
627.46226620937375
 20
-971.60167723704581
 30
0.0
 11
631.46226620937375
 21
-970.80168654422334
 31
0.0
  0
LINE
  5
1C0E5
  8
01
 10
627.96226620937375
 20
-982.90167840044353
 30
0.0
 11
627.46226620937375
 21
-982.80167723704585
 31
0.0
  0
LINE
  5
1C0E6
  8
01
 10
631.46226620937375
 20
-978.80168654422755
 30
0.0
 11
630.96226620937387
 21
-978.70168538082987
 31
0.0
  0
LINE
  5
1C0E7
  8
01
 10
631.46226620937375
 20
-977.20168654422343
 30
0.0
 11
630.96226620937387
 21
-977.10168538082621
 31
0.0
  0
LINE
  5
1C0E8
  8
01
 10
631.46226620937375
 20
-982.0016865442276
 30
0.0
 11
630.96226620937387
 21
-981.90168538083003
 31
0.0
  0
LINE
  5
1C0E9
  8
01
 10
631.46226620937375
 20
-980.4016865442278
 30
0.0
 11
630.96226620937387
 21
-980.30168538083012
 31
0.0
  0
LINE
  5
1C0EA
  8
01
 10
627.96226620937375
 20
-976.50167840044298
 30
0.0
 11
627.46226620937375
 21
-976.40167723704599
 31
0.0
  0
LINE
  5
1C0EB
  8
01
 10
627.96226620937375
 20
-978.10167840044369
 30
0.0
 11
627.46226620937375
 21
-978.00167723704578
 31
0.0
  0
LINE
  5
1C0EC
  8
01
 10
627.96226620937375
 20
-981.30167840044373
 30
0.0
 11
627.46226620937375
 21
-981.20167723704606
 31
0.0
  0
LINE
  5
1C0ED
  8
01
 10
627.96226620937375
 20
-979.70167840044348
 30
0.0
 11
627.46226620937375
 21
-979.60167723704581
 31
0.0
  0
LINE
  5
1C0EE
  8
01
 10
627.46226620937375
 20
-979.60167723704581
 30
0.0
 11
631.46226620937375
 21
-978.80168654422755
 31
0.0
  0
LINE
  5
1C0EF
  8
01
 10
627.46226620937375
 20
-978.00167723704578
 30
0.0
 11
631.46226620937375
 21
-977.20168654422343
 31
0.0
  0
LINE
  5
1C0F0
  8
01
 10
627.46226620937375
 20
-981.20167723704606
 30
0.0
 11
631.46226620937375
 21
-980.4016865442278
 31
0.0
  0
LINE
  5
1C0F1
  8
01
 10
627.46226620937375
 20
-982.80167723704585
 30
0.0
 11
631.46226620937375
 21
-982.0016865442276
 31
0.0
  0
LINE
  5
1C0F2
  8
01
 10
627.46226620937375
 20
-968.40167723704599
 30
0.0
 11
631.46226620937375
 21
-967.60168654422341
 31
0.0
  0
LINE
  5
1C0F3
  8
01
 10
631.46226620937375
 20
-967.60168654422341
 30
0.0
 11
630.96226620937387
 21
-967.50168538082619
 31
0.0
  0
LINE
  5
1C0F4
  8
01
 10
627.96226620937375
 20
-966.90167840044319
 30
0.0
 11
627.46226620937375
 21
-966.80167723704596
 31
0.0
  0
LINE
  5
1C0F5
  8
01
 10
627.96226620937375
 20
-968.50167840044298
 30
0.0
 11
627.46226620937375
 21
-968.40167723704599
 31
0.0
  0
LINE
  5
1C0F6
  8
01
 10
631.46226620937375
 20
-964.40168654422337
 30
0.0
 11
630.96226620937387
 21
-964.30168538082626
 31
0.0
  0
LINE
  5
1C0F7
  8
01
 10
631.46226620937375
 20
-966.00168654422339
 30
0.0
 11
630.96226620937387
 21
-965.90168538082639
 31
0.0
  0
LINE
  5
1C0F8
  8
01
 10
627.96226620937375
 20
-965.30167840044305
 30
0.0
 11
627.46226620937375
 21
-965.20167723704583
 31
0.0
  0
LINE
  5
1C0F9
  8
01
 10
627.46226620937375
 20
-965.20167723704583
 30
0.0
 11
631.46226620937375
 21
-964.40168654422337
 31
0.0
  0
LINE
  5
1C0FA
  8
01
 10
627.46226620937375
 20
-966.80167723704596
 30
0.0
 11
631.46226620937375
 21
-966.00168654422339
 31
0.0
  0
LINE
  5
1C0FB
  8
01
 10
629.46221967347583
 20
-1007.501681890424
 30
0.0
 11
630.03956916706954
 21
-1006.501683233796
 31
0.0
  0
LINE
  5
1C0FC
  8
01
 10
611.46226620937375
 20
-957.50168189058695
 30
0.0
 11
609.96226620937387
 21
-962.80167840044862
 31
0.0
  0
LINE
  5
1C0FD
  8
01
 10
609.96226620937387
 20
-962.80167840044805
 30
0.0
 11
609.96226620937387
 21
-1007.50167840034
 31
0.0
  0
LINE
  5
1C0FE
  8
01
 10
611.46226620937375
 20
-957.50168189058695
 30
0.0
 11
612.96226620937375
 21
-962.80168538083217
 31
0.0
  0
LINE
  5
1C0FF
  8
01
 10
607.96221967347583
 20
-1007.501673746642
 30
0.0
 11
609.96226620937387
 21
-1007.50167840034
 31
0.0
  0
LINE
  5
1C100
  8
01
 10
612.96226620937375
 20
-962.80168538083217
 30
0.0
 11
612.96226620937375
 21
-1007.501685380725
 31
0.0
  0
LINE
  5
1C101
  8
01
 10
607.96221967347583
 20
-1006.50167374664
 30
0.0
 11
607.96221967347583
 21
-1008.601677236838
 31
0.0
  0
LINE
  5
1C102
  8
01
 10
612.96226620937375
 20
-1007.501685380725
 30
0.0
 11
614.96221967347583
 21
-1007.5016900342069
 31
0.0
  0
ARC
  5
1C103
  8
01
 10
609.46221967347583
 20
-1008.601677236838
 30
0.0
 40
1.5
 50
180.0
 51
269.99986668446678
  0
LINE
  5
1C104
  8
01
 10
614.96221967347583
 20
-1006.501690034204
 30
0.0
 11
614.96221967347583
 21
-1008.601686544017
 31
0.0
  0
LINE
  5
1C105
  8
01
 10
609.46221618328332
 20
-1010.101677236834
 30
0.0
 11
613.46221618328332
 21
-1010.101686544013
 31
0.0
  0
ARC
  5
1C106
  8
01
 10
613.46221967347583
 20
-1008.601686544017
 30
0.0
 40
1.5
 50
269.99986668446678
 51
0.0
  0
LINE
  5
1C107
  8
1CENTER
 10
611.46221967347583
 20
-956.75356760804402
 30
0.0
 11
611.46221967347583
 21
-1011.171958299733
 31
0.0
  0
LINE
  5
1C108
  8
01
 10
610.36789585948065
 20
-959.60167934426465
 30
0.0
 11
612.3302309483563
 21
-958.8016839102138
 31
0.0
  0
LINE
  5
1C109
  8
01
 10
612.3302309483563
 20
-958.8016839102138
 30
0.0
 11
611.74195437331366
 21
-958.48991405396168
 31
0.0
  0
LINE
  5
1C10A
  8
01
 10
609.46226620937387
 20
-1002.001677237055
 30
0.0
 11
613.46226620937387
 21
-1001.2016865442361
 31
0.0
  0
LINE
  5
1C10B
  8
01
 10
609.46226620937387
 20
-990.80167723705028
 30
0.0
 11
613.46226620937387
 21
-990.00168654422782
 31
0.0
  0
LINE
  5
1C10C
  8
01
 10
609.46226620937387
 20
-987.60167723705035
 30
0.0
 11
613.46226620937387
 21
-986.80168654422778
 31
0.0
  0
LINE
  5
1C10D
  8
01
 10
613.46226620937387
 20
-986.80168654422778
 30
0.0
 11
612.96226620937375
 21
-986.70168538083055
 31
0.0
  0
LINE
  5
1C10E
  8
01
 10
609.96226620937387
 20
-986.10167840044744
 30
0.0
 11
609.46226620937387
 21
-986.00167723705033
 31
0.0
  0
LINE
  5
1C10F
  8
01
 10
613.46226620937387
 20
-990.00168654422782
 30
0.0
 11
612.96226620937375
 21
-989.90168538083049
 31
0.0
  0
LINE
  5
1C110
  8
01
 10
613.46226620937387
 20
-988.40168654422757
 30
0.0
 11
612.96226620937375
 21
-988.30168538083046
 31
0.0
  0
LINE
  5
1C111
  8
01
 10
609.96226620937387
 20
-987.70167840044735
 30
0.0
 11
609.46226620937387
 21
-987.60167723705035
 31
0.0
  0
LINE
  5
1C112
  8
01
 10
609.96226620937387
 20
-989.30167840044726
 30
0.0
 11
609.46226620937387
 21
-989.20167723705026
 31
0.0
  0
LINE
  5
1C113
  8
01
 10
609.46226620937387
 20
-989.20167723705026
 30
0.0
 11
613.46226620937387
 21
-988.40168654422757
 31
0.0
  0
LINE
  5
1C114
  8
01
 10
612.7830450527631
 20
-960.40168496381943
 30
0.0
 11
612.23129558895971
 21
-960.21892082119143
 31
0.0
  0
LINE
  5
1C115
  8
01
 10
613.46226620937387
 20
-983.60168654422762
 30
0.0
 11
612.96226620937375
 21
-983.50168538083074
 31
0.0
  0
LINE
  5
1C116
  8
01
 10
613.46226620937387
 20
-985.20168654422775
 30
0.0
 11
612.96226620937375
 21
-985.10168538083065
 31
0.0
  0
LINE
  5
1C117
  8
01
 10
613.2358591571699
 20
-962.00168601742507
 30
0.0
 11
612.69926542189864
 21
-961.87241531979521
 31
0.0
  0
LINE
  5
1C118
  8
01
 10
610.38318080658235
 20
-961.31444780301058
 30
0.0
 11
609.91508235143249
 21
-961.20167829066054
 31
0.0
  0
LINE
  5
1C119
  8
01
 10
609.96226620937387
 20
-984.50167840044742
 30
0.0
 11
609.46226620937387
 21
-984.40167723705031
 31
0.0
  0
LINE
  5
1C11A
  8
01
 10
609.96226620937387
 20
-962.90167840044751
 30
0.0
 11
609.46226620937387
 21
-962.8016772370504
 31
0.0
  0
LINE
  5
1C11B
  8
01
 10
610.82506770011196
 20
-959.75311514070518
 30
0.0
 11
610.36789585948065
 21
-959.60167934426465
 31
0.0
  0
LINE
  5
1C11C
  8
01
 10
609.91508235143249
 20
-961.20167829066054
 30
0.0
 11
612.7830450527631
 21
-960.40168496381943
 31
0.0
  0
LINE
  5
1C11D
  8
01
 10
609.46226620937387
 20
-984.40167723705031
 30
0.0
 11
613.46226620937387
 21
-983.60168654422762
 31
0.0
  0
LINE
  5
1C11E
  8
01
 10
609.46226620937387
 20
-962.8016772370504
 30
0.0
 11
613.2358591571699
 21
-962.00168601742507
 31
0.0
  0
LINE
  5
1C11F
  8
01
 10
609.46226620937387
 20
-986.00167723705033
 30
0.0
 11
613.46226620937387
 21
-985.20168654422775
 31
0.0
  0
LINE
  5
1C120
  8
01
 10
609.46226620937387
 20
-998.80167723705472
 30
0.0
 11
613.46226620937387
 21
-998.00168654423635
 31
0.0
  0
LINE
  5
1C121
  8
01
 10
613.46226620937387
 20
-998.00168654423635
 30
0.0
 11
612.96226620937375
 21
-997.90168538083867
 31
0.0
  0
LINE
  5
1C122
  8
01
 10
609.96226620937387
 20
-997.30167840044805
 30
0.0
 11
609.46226620937387
 21
-997.20167723705026
 31
0.0
  0
LINE
  5
1C123
  8
01
 10
613.46226620937387
 20
-999.60168654423649
 30
0.0
 11
612.96226620937375
 21
-999.50168538083892
 31
0.0
  0
LINE
  5
1C124
  8
01
 10
613.46226620937387
 20
-1001.2016865442361
 30
0.0
 11
612.96226620937375
 21
-1001.1016853808389
 31
0.0
  0
LINE
  5
1C125
  8
01
 10
609.96226620937387
 20
-998.9016784004524
 30
0.0
 11
609.46226620937387
 21
-998.80167723705472
 31
0.0
  0
LINE
  5
1C126
  8
01
 10
609.96226620937387
 20
-1000.501678400452
 30
0.0
 11
609.46226620937387
 21
-1000.4016772370539
 31
0.0
  0
LINE
  5
1C127
  8
01
 10
609.46226620937387
 20
-1000.4016772370539
 30
0.0
 11
613.46226620937387
 21
-999.60168654423649
 31
0.0
  0
LINE
  5
1C128
  8
01
 10
613.46226620937387
 20
-993.20168654423207
 30
0.0
 11
612.96226620937375
 21
-993.1016853808344
 31
0.0
  0
LINE
  5
1C129
  8
01
 10
613.46226620937387
 20
-991.60168654422762
 30
0.0
 11
612.96226620937375
 21
-991.50168538083074
 31
0.0
  0
LINE
  5
1C12A
  8
01
 10
613.46226620937387
 20
-996.40168654423212
 30
0.0
 11
612.96226620937375
 21
-996.30168538083444
 31
0.0
  0
LINE
  5
1C12B
  8
01
 10
613.46226620937387
 20
-994.80168654423233
 30
0.0
 11
612.96226620937375
 21
-994.70168538083465
 31
0.0
  0
LINE
  5
1C12C
  8
01
 10
609.96226620937387
 20
-990.90167840044739
 30
0.0
 11
609.46226620937387
 21
-990.80167723705028
 31
0.0
  0
LINE
  5
1C12D
  8
01
 10
609.96226620937387
 20
-992.50167840044821
 30
0.0
 11
609.46226620937387
 21
-992.40167723705031
 31
0.0
  0
LINE
  5
1C12E
  8
01
 10
609.96226620937387
 20
-995.70167840044815
 30
0.0
 11
609.46226620937387
 21
-995.60167723705047
 31
0.0
  0
LINE
  5
1C12F
  8
01
 10
609.96226620937387
 20
-994.10167840044801
 30
0.0
 11
609.46226620937387
 21
-994.00167723705033
 31
0.0
  0
LINE
  5
1C130
  8
01
 10
609.46226620937387
 20
-994.00167723705033
 30
0.0
 11
613.46226620937387
 21
-993.20168654423207
 31
0.0
  0
LINE
  5
1C131
  8
01
 10
609.46226620937387
 20
-992.40167723705031
 30
0.0
 11
613.46226620937387
 21
-991.60168654422762
 31
0.0
  0
LINE
  5
1C132
  8
01
 10
609.46226620937387
 20
-995.60167723705047
 30
0.0
 11
613.46226620937387
 21
-994.80168654423233
 31
0.0
  0
LINE
  5
1C133
  8
01
 10
609.46226620937387
 20
-997.20167723705026
 30
0.0
 11
613.46226620937387
 21
-996.40168654423212
 31
0.0
  0
LINE
  5
1C134
  8
01
 10
612.96226620937375
 20
-1007.501685380725
 30
0.0
 11
609.96226620937387
 21
-1007.50167840034
 31
0.0
  0
LINE
  5
1C135
  8
01
 10
614.96221967347583
 20
-1006.501690034204
 30
0.0
 11
607.96221967347583
 21
-1006.50167374664
 31
0.0
  0
LINE
  5
1C136
  8
01
 10
609.96226620937387
 20
-1006.901678400456
 30
0.0
 11
609.46226620937387
 21
-1006.801677237059
 31
0.0
  0
LINE
  5
1C137
  8
01
 10
609.46226620937387
 20
-1006.801677237059
 30
0.0
 11
613.46226620937387
 21
-1006.00168654424
 31
0.0
  0
LINE
  5
1C138
  8
01
 10
613.46226620937387
 20
-1006.00168654424
 30
0.0
 11
612.96226620937375
 21
-1005.901685380843
 31
0.0
  0
LINE
  5
1C139
  8
01
 10
609.96226620937387
 20
-1005.301678400456
 30
0.0
 11
609.46226620937387
 21
-1005.201677237059
 31
0.0
  0
LINE
  5
1C13A
  8
01
 10
609.96226620937387
 20
-1003.701678400457
 30
0.0
 11
609.46226620937387
 21
-1003.601677237059
 31
0.0
  0
LINE
  5
1C13B
  8
01
 10
609.46226620937387
 20
-1003.601677237059
 30
0.0
 11
613.46226620937387
 21
-1002.801686544241
 31
0.0
  0
LINE
  5
1C13C
  8
01
 10
613.46226620937387
 20
-1004.401686544241
 30
0.0
 11
612.96226620937375
 21
-1004.301685380843
 31
0.0
  0
LINE
  5
1C13D
  8
01
 10
613.46226620937387
 20
-1002.801686544241
 30
0.0
 11
612.96226620937375
 21
-1002.7016853808429
 31
0.0
  0
LINE
  5
1C13E
  8
01
 10
609.46226620937387
 20
-1005.201677237059
 30
0.0
 11
613.46226620937387
 21
-1004.401686544241
 31
0.0
  0
LINE
  5
1C13F
  8
01
 10
609.96226620937387
 20
-1002.101678400452
 30
0.0
 11
609.46226620937387
 21
-1002.001677237055
 31
0.0
  0
LINE
  5
1C140
  8
01
 10
609.46226620937387
 20
-976.40167723704599
 30
0.0
 11
613.46226620937387
 21
-975.60168654422341
 31
0.0
  0
LINE
  5
1C141
  8
01
 10
609.46226620937387
 20
-973.20167723704583
 30
0.0
 11
613.46226620937387
 21
-972.40168654422337
 31
0.0
  0
LINE
  5
1C142
  8
01
 10
613.46226620937387
 20
-972.40168654422337
 30
0.0
 11
612.96226620937375
 21
-972.30168538082603
 31
0.0
  0
LINE
  5
1C143
  8
01
 10
609.96226620937387
 20
-971.70167840044326
 30
0.0
 11
609.46226620937387
 21
-971.60167723704581
 31
0.0
  0
LINE
  5
1C144
  8
01
 10
613.46226620937387
 20
-975.60168654422341
 30
0.0
 11
612.96226620937375
 21
-975.50168538082619
 31
0.0
  0
LINE
  5
1C145
  8
01
 10
613.46226620937387
 20
-974.00168654422316
 30
0.0
 11
612.96226620937375
 21
-973.90168538082617
 31
0.0
  0
LINE
  5
1C146
  8
01
 10
609.96226620937387
 20
-973.30167840044305
 30
0.0
 11
609.46226620937387
 21
-973.20167723704583
 31
0.0
  0
LINE
  5
1C147
  8
01
 10
609.96226620937387
 20
-974.90167840044296
 30
0.0
 11
609.46226620937387
 21
-974.80167723704585
 31
0.0
  0
LINE
  5
1C148
  8
01
 10
609.46226620937387
 20
-974.80167723704585
 30
0.0
 11
613.46226620937387
 21
-974.00168654422316
 31
0.0
  0
LINE
  5
1C149
  8
01
 10
613.46226620937387
 20
-969.20168654422343
 30
0.0
 11
612.96226620937375
 21
-969.10168538082621
 31
0.0
  0
LINE
  5
1C14A
  8
01
 10
613.46226620937387
 20
-970.80168654422334
 30
0.0
 11
612.96226620937375
 21
-970.70168538082635
 31
0.0
  0
LINE
  5
1C14B
  8
01
 10
609.96226620937387
 20
-970.10167840044301
 30
0.0
 11
609.46226620937387
 21
-970.00167723704578
 31
0.0
  0
LINE
  5
1C14C
  8
01
 10
609.46226620937387
 20
-970.00167723704578
 30
0.0
 11
613.46226620937387
 21
-969.20168654422343
 31
0.0
  0
LINE
  5
1C14D
  8
01
 10
609.46226620937387
 20
-971.60167723704581
 30
0.0
 11
613.46226620937387
 21
-970.80168654422334
 31
0.0
  0
LINE
  5
1C14E
  8
01
 10
609.96226620937387
 20
-982.90167840044353
 30
0.0
 11
609.46226620937387
 21
-982.80167723704585
 31
0.0
  0
LINE
  5
1C14F
  8
01
 10
613.46226620937387
 20
-978.80168654422755
 30
0.0
 11
612.96226620937375
 21
-978.70168538082987
 31
0.0
  0
LINE
  5
1C150
  8
01
 10
613.46226620937387
 20
-977.20168654422343
 30
0.0
 11
612.96226620937375
 21
-977.10168538082621
 31
0.0
  0
LINE
  5
1C151
  8
01
 10
613.46226620937387
 20
-982.0016865442276
 30
0.0
 11
612.96226620937375
 21
-981.90168538083003
 31
0.0
  0
LINE
  5
1C152
  8
01
 10
613.46226620937387
 20
-980.4016865442278
 30
0.0
 11
612.96226620937375
 21
-980.30168538083012
 31
0.0
  0
LINE
  5
1C153
  8
01
 10
609.96226620937387
 20
-976.50167840044298
 30
0.0
 11
609.46226620937387
 21
-976.40167723704599
 31
0.0
  0
LINE
  5
1C154
  8
01
 10
609.96226620937387
 20
-978.10167840044369
 30
0.0
 11
609.46226620937387
 21
-978.00167723704578
 31
0.0
  0
LINE
  5
1C155
  8
01
 10
609.96226620937387
 20
-981.30167840044373
 30
0.0
 11
609.46226620937387
 21
-981.20167723704606
 31
0.0
  0
LINE
  5
1C156
  8
01
 10
609.96226620937387
 20
-979.70167840044348
 30
0.0
 11
609.46226620937387
 21
-979.60167723704581
 31
0.0
  0
LINE
  5
1C157
  8
01
 10
609.46226620937387
 20
-979.60167723704581
 30
0.0
 11
613.46226620937387
 21
-978.80168654422755
 31
0.0
  0
LINE
  5
1C158
  8
01
 10
609.46226620937387
 20
-978.00167723704578
 30
0.0
 11
613.46226620937387
 21
-977.20168654422343
 31
0.0
  0
LINE
  5
1C159
  8
01
 10
609.46226620937387
 20
-981.20167723704606
 30
0.0
 11
613.46226620937387
 21
-980.4016865442278
 31
0.0
  0
LINE
  5
1C15A
  8
01
 10
609.46226620937387
 20
-982.80167723704585
 30
0.0
 11
613.46226620937387
 21
-982.0016865442276
 31
0.0
  0
LINE
  5
1C15B
  8
01
 10
609.46226620937387
 20
-968.40167723704599
 30
0.0
 11
613.46226620937387
 21
-967.60168654422341
 31
0.0
  0
LINE
  5
1C15C
  8
01
 10
613.46226620937387
 20
-967.60168654422341
 30
0.0
 11
612.96226620937375
 21
-967.50168538082619
 31
0.0
  0
LINE
  5
1C15D
  8
01
 10
609.96226620937387
 20
-966.90167840044319
 30
0.0
 11
609.46226620937387
 21
-966.80167723704596
 31
0.0
  0
LINE
  5
1C15E
  8
01
 10
609.96226620937387
 20
-968.50167840044298
 30
0.0
 11
609.46226620937387
 21
-968.40167723704599
 31
0.0
  0
LINE
  5
1C15F
  8
01
 10
613.46226620937387
 20
-964.40168654422337
 30
0.0
 11
612.96226620937375
 21
-964.30168538082626
 31
0.0
  0
LINE
  5
1C160
  8
01
 10
613.46226620937387
 20
-966.00168654422339
 30
0.0
 11
612.96226620937375
 21
-965.90168538082639
 31
0.0
  0
LINE
  5
1C161
  8
01
 10
609.96226620937387
 20
-965.30167840044305
 30
0.0
 11
609.46226620937387
 21
-965.20167723704583
 31
0.0
  0
LINE
  5
1C162
  8
01
 10
609.46226620937387
 20
-965.20167723704583
 30
0.0
 11
613.46226620937387
 21
-964.40168654422337
 31
0.0
  0
LINE
  5
1C163
  8
01
 10
609.46226620937387
 20
-966.80167723704596
 30
0.0
 11
613.46226620937387
 21
-966.00168654422339
 31
0.0
  0
LINE
  5
1C164
  8
01
 10
611.46221967347583
 20
-1007.501681890424
 30
0.0
 11
612.03956916706954
 21
-1006.501683233796
 31
0.0
  0
LINE
  5
1C170
  8
01
 10
606.46221967347537
 20
-1038.5016818904221
 30
0.0
 11
834.46221967347572
 21
-1038.5016818904201
 31
0.0
  0
LINE
  5
1C218
  8
1PHANTOM
 10
918.4622196734764
 20
-1082.3016818904221
 30
0.0
 11
940.46221967347628
 21
-1082.3016818904221
 31
0.0
  0
LINE
  5
1C2F8
  8
1DIM
 10
611.46221967347583
 20
-1082.204391406857
 30
0.0
 11
611.46221967347583
 21
-1104.5016818904201
 31
0.0
  0
LINE
  5
1C2F9
  8
1DIM
 10
629.46221967347583
 20
-1078.204391406857
 30
0.0
 11
629.46221967347583
 21
-1104.5016818904201
 31
0.0
  0
LINE
  5
1C2FA
  8
1DIM
 10
613.46221967347583
 20
-1103.501681890421
 30
0.0
 11
627.46221967347583
 21
-1103.501681890421
 31
0.0
  0
LINE
  5
1C2FE
  8
1DIM
 10
811.46221967347583
 20
-1082.204391406857
 30
0.0
 11
811.46221967347583
 21
-1114.501681890421
 31
0.0
  0
LINE
  5
1C2FF
  8
1DIM
 10
829.46221967347583
 20
-1078.204391406857
 30
0.0
 11
829.46221967347583
 21
-1114.501681890421
 31
0.0
  0
LINE
  5
1C300
  8
1DIM
 10
813.46221967347583
 20
-1113.5016818904201
 30
0.0
 11
827.46221967347594
 21
-1113.5016818904201
 31
0.0
  0
LINE
  5
1C304
  8
1DIM
 10
833.36492918991144
 20
-1074.3016818904221
 30
0.0
 11
856.46221967347594
 21
-1074.3016818904221
 31
0.0
  0
LINE
  5
1C305
  8
1DIM
 10
834.46221967347606
 20
-1068.5016818904221
 30
0.0
 11
856.46221967347594
 21
-1068.5016818904221
 31
0.0
  0
LINE
  5
1C306
  8
1DIM
 10
855.46221967347606
 20
-1072.3016818904221
 30
0.0
 11
855.46221967347606
 21
-1070.5016818904221
 31
0.0
  0
LINE
  5
1C307
  8
1DIM
 10
855.46221967347606
 20
-1068.5016818904221
 30
0.0
 11
855.46221967347606
 21
-1057.768348557089
 31
0.0
  0
LINE
  5
1C30B
  8
1DIM
 10
815.36492918991144
 20
-1078.3016818904221
 30
0.0
 11
856.46221967347594
 21
-1078.3016818904221
 31
0.0
  0
LINE
  5
1C30C
  8
1DIM
 10
833.36492918991144
 20
-1074.3016818904221
 30
0.0
 11
856.46221967347594
 21
-1074.3016818904221
 31
0.0
  0
LINE
  5
1C30D
  8
1DIM
 10
855.46221967347606
 20
-1072.3016818904221
 30
0.0
 11
855.46221967347606
 21
-1070.3016818904221
 31
0.0
  0
LINE
  5
1C30E
  8
1DIM
 10
855.46221967347606
 20
-1080.3016818904221
 30
0.0
 11
855.46221967347606
 21
-1089.2942303163859
 31
0.0
  0
LINE
  5
1C30F
  8
1DIM
 10
855.46221967347606
 20
-1074.3016818904221
 30
0.0
 11
855.46221967347606
 21
-1078.3016818904221
 31
0.0
  0
LINE
  5
1C313
  8
1DIM
 10
629.46221967347583
 20
-1078.204391406857
 30
0.0
 11
629.46221967347583
 21
-1104.5016818904201
 31
0.0
  0
LINE
  5
1C314
  8
1DIM
 10
829.46221967347583
 20
-1078.204391406857
 30
0.0
 11
829.46221967347583
 21
-1104.5016818904201
 31
0.0
  0
LINE
  5
1C315
  8
1DIM
 10
631.46221967347583
 20
-1103.501681890421
 30
0.0
 11
827.46221967347594
 21
-1103.501681890421
 31
0.0
  0
LINE
  5
1C319
  8
1DIM
 10
611.46221967347583
 20
-1082.204391406857
 30
0.0
 11
611.46221967347583
 21
-1114.501681890421
 31
0.0
  0
LINE
  5
1C31A
  8
1DIM
 10
811.46221967347583
 20
-1082.204391406857
 30
0.0
 11
811.46221967347583
 21
-1114.501681890421
 31
0.0
  0
LINE
  5
1C31B
  8
1DIM
 10
613.46221967347583
 20
-1113.5016818904201
 30
0.0
 11
809.46221967347572
 21
-1113.5016818904201
 31
0.0
  0
LINE
  5
1C31F
  8
1DIM
 10
605.46221967347572
 20
-1037.3016818904221
 30
0.0
 11
605.46221967347572
 21
-1059.5016818904201
 31
0.0
  0
LINE
  5
1C320
  8
1DIM
 10
835.46221967347617
 20
-1037.3016818904221
 30
0.0
 11
835.46221967347617
 21
-1059.5016818904201
 31
0.0
  0
LINE
  5
1C321
  8
1DIM
 10
607.46221967347572
 20
-1058.5016818904201
 30
0.0
 11
833.46221967347606
 21
-1058.5016818904201
 31
0.0
  0
LINE
  5
1C325
  8
1PHANTOM
 10
924.46221967347651
 20
-1075.8364114971489
 30
0.0
 11
924.46221967347651
 21
-1082.1864113230749
 31
0.0
  0
LINE
  5
1C326
  8
1PHANTOM
 10
924.46221967347651
 20
-1075.8364114971489
 30
0.0
 11
924.11221967347615
 21
-1075.486411497149
 31
0.0
  0
LINE
  5
1C327
  8
1PHANTOM
 10
924.46221967347651
 20
-1082.1864113230749
 30
0.0
 11
925.4622196734764
 21
-1083.186411397149
 31
0.0
  0
LINE
  5
1C328
  8
1PHANTOM
 10
924.11221967347615
 20
-1075.486411497149
 30
0.0
 11
920.81221967347631
 21
-1075.486411497149
 31
0.0
  0
LINE
  5
1C329
  8
1PHANTOM
 10
925.4622196734764
 20
-1083.186411397149
 30
0.0
 11
925.4622196734764
 21
-1083.486411497149
 31
0.0
  0
LINE
  5
1C32A
  8
1PHANTOM
 10
920.81221967347631
 20
-1075.486411497149
 30
0.0
 11
920.4622196734764
 21
-1075.8364114971489
 31
0.0
  0
LINE
  5
1C32B
  8
1PHANTOM
 10
925.4622196734764
 20
-1083.486411497149
 30
0.0
 11
919.4622196734764
 21
-1083.486411497149
 31
0.0
  0
LINE
  5
1C32C
  8
1PHANTOM
 10
920.4622196734764
 20
-1075.8364114971489
 30
0.0
 11
920.4622196734764
 21
-1082.1864113230749
 31
0.0
  0
LINE
  5
1C32D
  8
1PHANTOM
 10
919.4622196734764
 20
-1083.1864114871489
 30
0.0
 11
919.4622196734764
 21
-1083.486411497149
 31
0.0
  0
LINE
  5
1C32E
  8
1PHANTOM
 10
920.4622196734764
 20
-1082.1864113230749
 30
0.0
 11
919.4622196734764
 21
-1083.1864114871489
 31
0.0
  0
LINE
  5
1C32F
  8
1DIM
 10
834.26221967347624
 20
-1038.5016818904221
 30
0.0
 11
856.46221967347594
 21
-1038.5016818904221
 31
0.0
  0
LINE
  5
1C330
  8
1DIM
 10
835.46221967347594
 20
-983.50168189042222
 30
0.0
 11
856.46221967347594
 21
-983.50168189042222
 31
0.0
  0
LINE
  5
1C331
  8
1DIM
 10
855.46221967347606
 20
-1036.5016818904221
 30
0.0
 11
855.46221967347606
 21
-985.50168189042211
 31
0.0
  0
LINE
  5
1C335
  8
1DIM
 10
834.46221967347606
 20
-1068.5016818904221
 30
0.0
 11
866.46221967347606
 21
-1068.5016818904221
 31
0.0
  0
LINE
  5
1C336
  8
1DIM
 10
834.46221967347606
 20
-1083.501681890421
 30
0.0
 11
866.46221967347606
 21
-1083.501681890421
 31
0.0
  0
LINE
  5
1C337
  8
1DIM
 10
865.46221967347606
 20
-1070.5016818904221
 30
0.0
 11
865.46221967347606
 21
-1081.501681890421
 31
0.0
  0
TEXT
  5
1C33B
  8
1DIM
 10
892.73650569078313
 20
-1036.265273555613
 30
0.0
 40
3.5
  1
材質：ステンレス
  0
TEXT
  5
1C33C
  8
1DIM
 10
892.73650569078313
 20
-1042.098606888947
 30
0.0
 40
3.5
  1
仕上：各種仕上
  0
TEXT
  5
1C33D
  8
1DIM
 10
892.03650569078309
 20
-1047.93194022228
 30
0.0
 40
3.5
  1
※ヘアライン方向：横目
  0
SOLID
  5
1C33E
  8
1DIM
 10
888.74485973461617
 20
-1066.1557745845801
 30
0.0
 11
888.22981416209211
 21
-1068.1168557071589
 31
0.0
 12
888.08099312337322
 22
-1066.094737162279
 32
0.0
 13
888.08099312337322
 23
-1066.094737162279
 33
0.0
  0
TEXT
  5
1C340
  8
1HATCH
 10
944.11732091586725
 20
-1016.009839083758
 30
0.0
 40
3.5
  1
PB
  0
SOLID
  5
1C341
  8
1HATCH
 10
945.02185102751025
 20
-1035.162600087448
 30
0.0
 11
945.0421882955543
 21
-1037.1900856007469
 31
0.0
 12
944.36538747011821
 22
-1035.278789769694
 32
0.0
 13
944.36538747011821
 23
-1035.278789769694
 33
0.0
  0
SOLID
  5
1C343
  8
1DIM
 10
953.08537184004092
 20
-1035.1669866175471
 30
0.0
 11
953.54017050949562
 21
-1037.142909005034
 31
0.0
 12
952.46911585866428
 22
-1035.421295504261
 32
0.0
 13
952.46911585866428
 23
-1035.421295504261
 33
0.0
  0
TEXT
  5
1C345
  8
1DIM
 10
950.28466541040586
 20
-1022.011185100882
 30
0.0
 40
3.5
  1
合板9mm以上
  0
LINE
  5
1C346
  8
1DIM
 10
952.77724384935254
 20
-1035.2941410609039
 30
0.0
 11
947.58466541040582
 21
-1022.7111851008819
 31
0.0
  0
LINE
  5
1C347
  8
1DIM
 10
947.58466541040582
 20
-1022.7111851008819
 30
0.0
 11
979.48466541040591
 21
-1022.7111851008819
 31
0.0
  0
LINE
  5
1C348
  8
1HATCH
 10
944.69361924881412
 20
-1035.220694928571
 30
0.0
 11
941.41732091586744
 21
-1016.709839083758
 31
0.0
  0
LINE
  5
1C349
  8
1HATCH
 10
941.41732091586744
 20
-1016.709839083758
 30
0.0
 11
949.95065424920074
 21
-1016.709839083758
 31
0.0
  0
LINE
  5
1C34A
  8
1DIM
 10
888.41292642899475
 20
-1066.12525587343
 30
0.0
 11
890.02130208271524
 21
-1048.63194022228
 31
0.0
  0
LINE
  5
1C34B
  8
1DIM
 10
890.02130208271524
 20
-1048.63194022228
 30
0.0
 11
937.98796874938193
 21
-1048.63194022228
 31
0.0
  0
TEXT
  5
1C34C
  8
1DIM
 10
864.76221967347612
 20
-1078.335015223754
 30
0.0
 40
3.5
  1
15
 50
90.0
  0
LINE
  5
1C34D
  8
0
  6
BYBLOCK
 10
865.99811805347622
 20
-1081.501681890421
 30
0.0
 11
865.46221967347606
 21
-1083.501681890421
 31
0.0
  0
LINE
  5
1C34E
  8
0
  6
BYBLOCK
 10
865.46221967347606
 20
-1083.501681890421
 30
0.0
 11
864.92632129347601
 21
-1081.501681890421
 31
0.0
  0
LINE
  5
1C34F
  8
0
  6
BYBLOCK
 10
865.46221967347606
 20
-1083.501681890421
 30
0.0
 11
865.46221967347606
 21
-1081.501681890421
 31
0.0
  0
LINE
  5
1C350
  8
0
  6
BYBLOCK
 10
864.92632129347601
 20
-1070.5016818904221
 30
0.0
 11
865.46221967347606
 21
-1068.5016818904221
 31
0.0
  0
LINE
  5
1C351
  8
0
  6
BYBLOCK
 10
865.46221967347606
 20
-1068.5016818904221
 30
0.0
 11
865.99811805347622
 21
-1070.5016818904221
 31
0.0
  0
LINE
  5
1C352
  8
0
  6
BYBLOCK
 10
865.46221967347606
 20
-1068.5016818904221
 30
0.0
 11
865.46221967347606
 21
-1070.5016818904221
 31
0.0
  0
TEXT
  5
1C353
  8
1DIM
 10
854.76221967347624
 20
-1013.9183485570881
 30
0.0
 40
3.5
  1
55
 50
90.0
  0
LINE
  5
1C354
  8
0
  6
BYBLOCK
 10
854.92632129347589
 20
-985.50168189042211
 30
0.0
 11
855.46221967347606
 21
-983.50168189042222
 31
0.0
  0
LINE
  5
1C355
  8
0
  6
BYBLOCK
 10
855.46221967347606
 20
-983.50168189042222
 30
0.0
 11
855.99811805347599
 21
-985.50168189042211
 31
0.0
  0
LINE
  5
1C356
  8
0
  6
BYBLOCK
 10
855.46221967347606
 20
-983.50168189042222
 30
0.0
 11
855.46221967347606
 21
-985.50168189042211
 31
0.0
  0
LINE
  5
1C357
  8
0
  6
BYBLOCK
 10
855.99811805347599
 20
-1036.5016818904221
 30
0.0
 11
855.46221967347606
 21
-1038.5016818904221
 31
0.0
  0
LINE
  5
1C358
  8
0
  6
BYBLOCK
 10
855.46221967347606
 20
-1038.5016818904221
 30
0.0
 11
854.92632129347589
 21
-1036.5016818904221
 31
0.0
  0
LINE
  5
1C359
  8
0
  6
BYBLOCK
 10
855.46221967347606
 20
-1038.5016818904221
 30
0.0
 11
855.46221967347606
 21
-1036.5016818904221
 31
0.0
  0
TEXT
  5
1C35A
  8
1DIM
 10
716.08721967347594
 20
-1057.80168189042
 30
0.0
 40
3.5
  1
230
  0
LINE
  5
1C35B
  8
0
  6
BYBLOCK
 10
833.46221967347606
 20
-1057.9657835104199
 30
0.0
 11
835.46221967347617
 21
-1058.5016818904201
 31
0.0
  0
LINE
  5
1C35C
  8
0
  6
BYBLOCK
 10
835.46221967347617
 20
-1058.5016818904201
 30
0.0
 11
833.46221967347606
 21
-1059.03758027042
 31
0.0
  0
LINE
  5
1C35D
  8
0
  6
BYBLOCK
 10
835.46221967347617
 20
-1058.5016818904201
 30
0.0
 11
833.46221967347606
 21
-1058.5016818904201
 31
0.0
  0
LINE
  5
1C35E
  8
0
  6
BYBLOCK
 10
607.46221967347572
 20
-1059.03758027042
 30
0.0
 11
605.46221967347572
 21
-1058.5016818904201
 31
0.0
  0
LINE
  5
1C35F
  8
0
  6
BYBLOCK
 10
605.46221967347572
 20
-1058.5016818904201
 30
0.0
 11
607.46221967347572
 21
-1057.9657835104199
 31
0.0
  0
LINE
  5
1C360
  8
0
  6
BYBLOCK
 10
605.46221967347572
 20
-1058.5016818904201
 30
0.0
 11
607.46221967347572
 21
-1058.5016818904201
 31
0.0
  0
TEXT
  5
1C361
  8
1DIM
 10
705.62888634014234
 20
-1112.80168189042
 30
0.0
 40
3.5
  1
P200
  0
LINE
  5
1C362
  8
0
  6
BYBLOCK
 10
809.46221967347572
 20
-1112.9657835104199
 30
0.0
 11
811.46221967347583
 21
-1113.5016818904201
 31
0.0
  0
LINE
  5
1C363
  8
0
  6
BYBLOCK
 10
811.46221967347583
 20
-1113.5016818904201
 30
0.0
 11
809.46221967347572
 21
-1114.03758027042
 31
0.0
  0
LINE
  5
1C364
  8
0
  6
BYBLOCK
 10
811.46221967347583
 20
-1113.5016818904201
 30
0.0
 11
809.46221967347572
 21
-1113.5016818904201
 31
0.0
  0
LINE
  5
1C365
  8
0
  6
BYBLOCK
 10
613.46221967347583
 20
-1114.03758027042
 30
0.0
 11
611.46221967347583
 21
-1113.5016818904201
 31
0.0
  0
LINE
  5
1C366
  8
0
  6
BYBLOCK
 10
611.46221967347583
 20
-1113.5016818904201
 30
0.0
 11
613.46221967347583
 21
-1112.9657835104199
 31
0.0
  0
LINE
  5
1C367
  8
0
  6
BYBLOCK
 10
611.46221967347583
 20
-1113.5016818904201
 30
0.0
 11
613.46221967347583
 21
-1113.5016818904201
 31
0.0
  0
TEXT
  5
1C368
  8
1DIM
 10
723.62888634014246
 20
-1102.80168189042
 30
0.0
 40
3.5
  1
P200
  0
LINE
  5
1C369
  8
0
  6
BYBLOCK
 10
827.46221967347594
 20
-1102.965783510421
 30
0.0
 11
829.46221967347583
 21
-1103.501681890421
 31
0.0
  0
LINE
  5
1C36A
  8
0
  6
BYBLOCK
 10
829.46221967347583
 20
-1103.501681890421
 30
0.0
 11
827.46221967347594
 21
-1104.03758027042
 31
0.0
  0
LINE
  5
1C36B
  8
0
  6
BYBLOCK
 10
829.46221967347583
 20
-1103.501681890421
 30
0.0
 11
827.46221967347594
 21
-1103.501681890421
 31
0.0
  0
LINE
  5
1C36C
  8
0
  6
BYBLOCK
 10
631.46221967347583
 20
-1104.03758027042
 30
0.0
 11
629.46221967347583
 21
-1103.501681890421
 31
0.0
  0
LINE
  5
1C36D
  8
0
  6
BYBLOCK
 10
629.46221967347583
 20
-1103.501681890421
 30
0.0
 11
631.46221967347583
 21
-1102.965783510421
 31
0.0
  0
LINE
  5
1C36E
  8
0
  6
BYBLOCK
 10
629.46221967347583
 20
-1103.501681890421
 30
0.0
 11
631.46221967347583
 21
-1103.501681890421
 31
0.0
  0
TEXT
  5
1C36F
  8
1DIM
 10
854.76221967347601
 20
-1088.5108969830519
 30
0.0
 40
3.5
  1
4
 50
90.0
  0
LINE
  5
1C370
  8
0
  6
BYBLOCK
 10
854.92632129347589
 20
-1080.3016818904221
 30
0.0
 11
855.46221967347606
 21
-1078.3016818904221
 31
0.0
  0
LINE
  5
1C371
  8
0
  6
BYBLOCK
 10
855.46221967347606
 20
-1078.3016818904221
 30
0.0
 11
855.99811805347599
 21
-1080.3016818904221
 31
0.0
  0
LINE
  5
1C372
  8
0
  6
BYBLOCK
 10
855.46221967347606
 20
-1078.3016818904221
 30
0.0
 11
855.46221967347606
 21
-1080.3016818904221
 31
0.0
  0
LINE
  5
1C373
  8
0
  6
BYBLOCK
 10
855.99811805347599
 20
-1072.3016818904221
 30
0.0
 11
855.46221967347606
 21
-1074.3016818904221
 31
0.0
  0
LINE
  5
1C374
  8
0
  6
BYBLOCK
 10
855.46221967347606
 20
-1074.3016818904221
 30
0.0
 11
854.92632129347589
 21
-1072.3016818904221
 31
0.0
  0
LINE
  5
1C375
  8
0
  6
BYBLOCK
 10
855.46221967347606
 20
-1074.3016818904221
 30
0.0
 11
855.46221967347606
 21
-1072.3016818904221
 31
0.0
  0
TEXT
  5
1C376
  8
1DIM
 10
854.76221967347624
 20
-1065.6350152237551
 30
0.0
 40
3.5
  1
5.8
 50
90.0
  0
LINE
  5
1C377
  8
0
  6
BYBLOCK
 10
854.92632129347589
 20
-1070.5016818904221
 30
0.0
 11
855.46221967347606
 21
-1068.5016818904221
 31
0.0
  0
LINE
  5
1C378
  8
0
  6
BYBLOCK
 10
855.46221967347606
 20
-1068.5016818904221
 30
0.0
 11
855.99811805347599
 21
-1070.5016818904221
 31
0.0
  0
LINE
  5
1C379
  8
0
  6
BYBLOCK
 10
855.46221967347606
 20
-1068.5016818904221
 30
0.0
 11
855.46221967347606
 21
-1070.5016818904221
 31
0.0
  0
LINE
  5
1C37A
  8
0
  6
BYBLOCK
 10
855.99811805347599
 20
-1072.3016818904221
 30
0.0
 11
855.46221967347606
 21
-1074.3016818904221
 31
0.0
  0
LINE
  5
1C37B
  8
0
  6
BYBLOCK
 10
855.46221967347606
 20
-1074.3016818904221
 30
0.0
 11
854.92632129347589
 21
-1072.3016818904221
 31
0.0
  0
LINE
  5
1C37C
  8
0
  6
BYBLOCK
 10
855.46221967347606
 20
-1074.3016818904221
 30
0.0
 11
855.46221967347606
 21
-1072.3016818904221
 31
0.0
  0
TEXT
  5
1C37D
  8
1DIM
 10
818.12888634014246
 20
-1112.80168189042
 30
0.0
 40
3.5
  1
18
  0
LINE
  5
1C37E
  8
0
  6
BYBLOCK
 10
827.46221967347594
 20
-1112.9657835104199
 30
0.0
 11
829.46221967347583
 21
-1113.5016818904201
 31
0.0
  0
LINE
  5
1C37F
  8
0
  6
BYBLOCK
 10
829.46221967347583
 20
-1113.5016818904201
 30
0.0
 11
827.46221967347594
 21
-1114.03758027042
 31
0.0
  0
LINE
  5
1C380
  8
0
  6
BYBLOCK
 10
829.46221967347583
 20
-1113.5016818904201
 30
0.0
 11
827.46221967347594
 21
-1113.5016818904201
 31
0.0
  0
LINE
  5
1C381
  8
0
  6
BYBLOCK
 10
813.46221967347583
 20
-1114.03758027042
 30
0.0
 11
811.46221967347583
 21
-1113.5016818904201
 31
0.0
  0
LINE
  5
1C382
  8
0
  6
BYBLOCK
 10
811.46221967347583
 20
-1113.5016818904201
 30
0.0
 11
813.46221967347583
 21
-1112.9657835104199
 31
0.0
  0
LINE
  5
1C383
  8
0
  6
BYBLOCK
 10
811.46221967347583
 20
-1113.5016818904201
 30
0.0
 11
813.46221967347583
 21
-1113.5016818904201
 31
0.0
  0
TEXT
  5
1C384
  8
1DIM
 10
618.12888634014234
 20
-1102.80168189042
 30
0.0
 40
3.5
  1
18
  0
LINE
  5
1C385
  8
0
  6
BYBLOCK
 10
627.46221967347583
 20
-1102.965783510421
 30
0.0
 11
629.46221967347583
 21
-1103.501681890421
 31
0.0
  0
LINE
  5
1C386
  8
0
  6
BYBLOCK
 10
629.46221967347583
 20
-1103.501681890421
 30
0.0
 11
627.46221967347583
 21
-1104.03758027042
 31
0.0
  0
LINE
  5
1C387
  8
0
  6
BYBLOCK
 10
629.46221967347583
 20
-1103.501681890421
 30
0.0
 11
627.46221967347583
 21
-1103.501681890421
 31
0.0
  0
LINE
  5
1C388
  8
0
  6
BYBLOCK
 10
613.46221967347583
 20
-1104.03758027042
 30
0.0
 11
611.46221967347583
 21
-1103.501681890421
 31
0.0
  0
LINE
  5
1C389
  8
0
  6
BYBLOCK
 10
611.46221967347583
 20
-1103.501681890421
 30
0.0
 11
613.46221967347583
 21
-1102.965783510421
 31
0.0
  0
LINE
  5
1C38A
  8
0
  6
BYBLOCK
 10
611.46221967347583
 20
-1103.501681890421
 30
0.0
 11
613.46221967347583
 21
-1103.501681890421
 31
0.0
  0
VIEWPORT
  5
57
 67
     1
  8
0
 10
-12.71820606546887
 20
10.09248672500371
 30
0.0
 40
405.38275048676093
 41
287.02546530000131
 68
     1
 69
     1
1001
ACAD
1000
MVIEW
1002
{
1070
    16
1010
0.0
1020
0.0
1030
0.0
1010
0.0
1020
0.0
1030
1.0
1040
0.0
1040
287.02546530000131
1040
-12.71820606546887
1040
10.09248672500371
1040
50.0
1040
0.0
1040
0.0
1070
     0
1070
   100
1070
     1
1070
     1
1070
     0
1070
     0
1070
     0
1070
     0
1040
0.0
1040
0.0
1040
0.0
1040
10.0
1040
10.0
1040
10.0
1040
10.0
1070
     0
1002
{
1002
}
1002
}
  0
ENDSEC
  0
EOF
