  0
SECTION
  2
HEADER
  9
$ACADVER
  1
AC1009
  9
$INSBASE
 10
0.0
 20
0.0
 30
0.0
  9
$EXTMIN
 10
-252.83918736865041
 20
-1868.9642148460671
 30
0.0
  9
$EXTMAX
 10
-76.190686733943565
 20
-1657.1642248460671
 30
0.0
  9
$LIMMIN
 10
0.0
 20
0.0
  9
$LIMMAX
 10
420.0
 20
297.0
  9
$ORTHOMODE
 70
     0
  9
$REGENMODE
 70
     1
  9
$FILLMODE
 70
     1
  9
$QTEXTMODE
 70
     0
  9
$MIRRTEXT
 70
     0
  9
$DRAGMODE
 70
     2
  9
$LTSCALE
 40
0.5
  9
$OSMODE
 70
    63
  9
$ATTMODE
 70
     1
  9
$TEXTSIZE
 40
4.0
  9
$TRACEWID
 40
1.0
  9
$TEXTSTYLE
  7
STANDARD
  9
$CLAYER
  8
1TEXT
  9
$CELTYPE
  6
BYLAYER
  9
$CECOLOR
 62
   256
  9
$DIMSCALE
 40
1.0
  9
$DIMASZ
 40
2.0
  9
$DIMEXO
 40
0.0
  9
$DIMDLI
 40
7.0
  9
$DIMRND
 40
0.0
  9
$DIMDLE
 40
0.0
  9
$DIMEXE
 40
1.0
  9
$DIMTP
 40
0.0
  9
$DIMTM
 40
0.0
  9
$DIMTXT
 40
3.5
  9
$DIMCEN
 40
0.0
  9
$DIMTSZ
 40
0.0
  9
$DIMTOL
 70
     0
  9
$DIMLIM
 70
     0
  9
$DIMTIH
 70
     0
  9
$DIMTOH
 70
     0
  9
$DIMSE1
 70
     0
  9
$DIMSE2
 70
     0
  9
$DIMTAD
 70
     1
  9
$DIMZIN
 70
     8
  9
$DIMBLK
  1

  9
$DIMASO
 70
     1
  9
$DIMSHO
 70
     1
  9
$DIMPOST
  1
 
  9
$DIMAPOST
  1

  9
$DIMALT
 70
     0
  9
$DIMALTD
 70
     2
  9
$DIMALTF
 40
25.399999999999999
  9
$DIMLFAC
 40
1.0
  9
$DIMTOFL
 70
     1
  9
$DIMTVP
 40
0.0
  9
$DIMTIX
 70
     0
  9
$DIMSOXD
 70
     0
  9
$DIMSAH
 70
     1
  9
$DIMBLK1
  1
OPEN30
  9
$DIMBLK2
  1
OPEN30
  9
$DIMSTYLE
  2
NEWX10
  9
$DIMCLRD
 70
   256
  9
$DIMCLRE
 70
   256
  9
$DIMCLRT
 70
   201
  9
$DIMTFAC
 40
0.7
  9
$DIMGAP
 40
0.7
  9
$LUNITS
 70
     2
  9
$LUPREC
 70
     4
  9
$SKETCHINC
 40
1.0
  9
$FILLETRAD
 40
0.0
  9
$AUNITS
 70
     0
  9
$AUPREC
 70
     2
  9
$MENU
  1
acad
  9
$ELEVATION
 40
0.0
  9
$PELEVATION
 40
0.0
  9
$THICKNESS
 40
0.0
  9
$LIMCHECK
 70
     0
  9
$BLIPMODE
 70
     0
  9
$CHAMFERA
 40
10.0
  9
$CHAMFERB
 40
10.0
  9
$SKPOLY
 70
     0
  9
$TDCREATE
 40
2453033.7326634838
  9
$TDUPDATE
 40
2457014.7273110072
  9
$TDINDWG
 40
0.3467484144
  9
$TDUSRTIMER
 40
0.3467484144
  9
$USRTIMER
 70
     1
  9
$ANGBASE
 50
0.0
  9
$ANGDIR
 70
     0
  9
$PDMODE
 70
     0
  9
$PDSIZE
 40
0.0
  9
$PLINEWID
 40
0.0
  9
$COORDS
 70
     0
  9
$SPLFRAME
 70
     0
  9
$SPLINETYPE
 70
     6
  9
$SPLINESEGS
 70
     8
  9
$ATTDIA
 70
     0
  9
$ATTREQ
 70
     1
  9
$HANDLING
 70
     1
  9
$HANDSEED
  5
A0AB
  9
$SURFTAB1
 70
     6
  9
$SURFTAB2
 70
     6
  9
$SURFTYPE
 70
     6
  9
$SURFU
 70
     6
  9
$SURFV
 70
     6
  9
$UCSNAME
  2

  9
$UCSORG
 10
0.0
 20
0.0
 30
0.0
  9
$UCSXDIR
 10
1.0
 20
0.0
 30
0.0
  9
$UCSYDIR
 10
0.0
 20
1.0
 30
0.0
  9
$PUCSNAME
  2

  9
$PUCSORG
 10
0.0
 20
0.0
 30
0.0
  9
$PUCSXDIR
 10
1.0
 20
0.0
 30
0.0
  9
$PUCSYDIR
 10
0.0
 20
1.0
 30
0.0
  9
$USERI1
 70
     0
  9
$USERI2
 70
     0
  9
$USERI3
 70
     0
  9
$USERI4
 70
     0
  9
$USERI5
 70
     0
  9
$USERR1
 40
0.0
  9
$USERR2
 40
0.0
  9
$USERR3
 40
0.0
  9
$USERR4
 40
0.0
  9
$USERR5
 40
0.0
  9
$WORLDVIEW
 70
     1
  9
$SHADEDGE
 70
     3
  9
$SHADEDIF
 70
    70
  9
$TILEMODE
 70
     1
  9
$MAXACTVP
 70
    48
  9
$PLIMCHECK
 70
     0
  9
$PEXTMIN
 10
1.0000000000000000E+020
 20
1.0000000000000000E+020
 30
1.0000000000000000E+020
  9
$PEXTMAX
 10
-1.0000000000000000E+020
 20
-1.0000000000000000E+020
 30
-1.0000000000000000E+020
  9
$PLIMMIN
 10
0.0
 20
0.0
  9
$PLIMMAX
 10
420.0
 20
297.0
  9
$UNITMODE
 70
     0
  9
$VISRETAIN
 70
     1
  9
$PLINEGEN
 70
     0
  9
$PSLTSCALE
 70
     1
  0
ENDSEC
  0
SECTION
  2
TABLES
  0
TABLE
  2
VPORT
 70
     1
  0
VPORT
  2
*ACTIVE
 70
     0
 10
0.0
 20
0.0
 11
1.0
 21
1.0
 12
-164.50613585425
 22
-1763.0224645615399
 13
0.0
 23
0.0
 14
10.0
 24
10.0
 15
10.0
 25
10.0
 16
0.0
 26
0.0
 36
1.0
 17
0.0
 27
0.0
 37
0.0
 40
224.8337002983944
 41
2.1749379652605461
 42
50.0
 43
0.0
 44
0.0
 50
0.0
 51
0.0
 71
     0
 72
   100
 73
     1
 74
     1
 75
     0
 76
     0
 77
     0
 78
     0
  0
ENDTAB
  0
TABLE
  2
LTYPE
 70
    16
  0
LTYPE
  2
CONTINUOUS
 70
     0
  3
Solid line
 72
    65
 73
     0
 40
0.0
  0
LTYPE
  2
CENTER2
 70
     0
  3
Center (.5x) ___ _ ___ _ ___ _ ___ _ ___ _ ___
 72
    65
 73
     4
 40
28.574999999999999
 49
19.050000000000001
 49
-3.1749999999999989
 49
3.1749999999999989
 49
-3.1749999999999989
  0
LTYPE
  2
XREF1|CENTER2
 70
    48
  3
Center (.5x) ___ _ ___ _ ___ _ ___ _ ___ _ ___
 72
    65
 73
     4
 40
28.574999999999999
 49
19.050000000000001
 49
-3.1749999999999989
 49
3.1749999999999989
 49
-3.1749999999999989
  0
LTYPE
  2
HIDDEN
 70
     0
  3
Hidden __ __ __ __ __ __ __ __ __ __ __ __ __ _
 72
    65
 73
     2
 40
9.5249999999999986
 49
6.3499999999999988
 49
-3.1749999999999989
  0
LTYPE
  2
A3WAKUDAKE|CENTER2
 70
    48
  3
Center (.5x) ___ _ ___ _ ___ _ ___ _ ___ _ ___
 72
    65
 73
     4
 40
28.574999999999999
 49
19.050000000000001
 49
-3.1749999999999989
 49
3.1749999999999989
 49
-3.1749999999999989
  0
ENDTAB
  0
TABLE
  2
LAYER
 70
    49
  0
LAYER
  2
0
 70
     0
 62
     7
  6
CONTINUOUS
  0
LAYER
  2
1CENTER
 70
     0
 62
     7
  6
CENTER2
  0
LAYER
  2
1TEXT
 70
     0
 62
     7
  6
CONTINUOUS
  0
LAYER
  2
1DIM
 70
     0
 62
     7
  6
CONTINUOUS
  0
LAYER
  2
1HIDDEN
 70
     0
 62
     7
  6
HIDDEN
  0
LAYER
  2
01
 70
     0
 62
     1
  6
CONTINUOUS
  0
LAYER
  2
A3WAKUDAKE|THICK
 70
    48
 62
     7
  6
CONTINUOUS
  0
LAYER
  2
A3WAKUDAKE|POINT
 70
    48
 62
     7
  6
CONTINUOUS
  0
LAYER
  2
A3WAKUDAKE|1CENTER
 70
    48
 62
     7
  6
A3WAKUDAKE|CENTER2
  0
LAYER
  2
A3WAKUDAKE|0-6
 70
    48
 62
     7
  6
CONTINUOUS
  0
LAYER
  2
A3WAKUDAKE|1DIM
 70
    48
 62
     7
  6
CONTINUOUS
  0
LAYER
  2
XREF1|1CENTER
 70
    48
 62
     7
  6
XREF1|CENTER2
  0
ENDTAB
  0
TABLE
  2
STYLE
 70
    23
  0
STYLE
  2
STANDARD
 70
     0
 40
0.0
 41
1.0
 50
0.0
 71
     0
 42
4.0
  3
txt.shx
  4
extfont.shx
  0
ENDTAB
  0
TABLE
  2
VIEW
 70
     5
  0
ENDTAB
  0
TABLE
  2
UCS
 70
     0
  0
ENDTAB
  0
TABLE
  2
APPID
 70
    14
  0
APPID
  2
ACAD
 70
     0
  0
APPID
  2
DRAWINGVARIABLESXDATA
 70
     0
  0
APPID
  2
CONTENTTABDATA
 70
     0
  0
APPID
  2
CONTENTCURRENTTAB
 70
     0
  0
APPID
  2
CONTENTBLOCKDESCRIPTION
 70
     0
  0
APPID
  2
CONTENTBLOCKICON
 70
     0
  0
APPID
  2
CONTENTLONGBLOCKNAME
 70
     0
  0
APPID
  2
ACAD_PSEXT
 70
     0
  0
APPID
  2
ACAD_DSTYLE_DIMTEXT_FILL
 70
     0
  0
APPID
  2
ACAD_DSTYLE_DIMRADIAL_EXTENSION
 70
     0
  0
APPID
  2
ACLAYERTOOLS
 70
     0
  0
APPID
  2
ACAD_MLEADERVER
 70
     0
  0
APPID
  2
ACAD_EXEMPT_FROM_CAD_STANDARDS
 70
     0
  0
APPID
  2
ACAD_NAV_VCDISPLAY
 70
     0
  0
ENDTAB
  0
TABLE
  2
DIMSTYLE
 70
     8
  0
DIMSTYLE
  2
NEWX10
 70
     0
  3
 
  4

  5

  6
OPEN30
  7
OPEN30
 40
1.0
 41
2.0
 42
0.0
 43
7.0
 44
1.0
 45
0.0
 46
0.0
 47
0.0
 48
0.0
140
3.5
141
0.0
142
0.0
143
25.399999999999999
144
1.0
145
0.0
146
0.7
147
0.7
 71
     0
 72
     0
 73
     0
 74
     0
 75
     0
 76
     0
 77
     1
 78
     8
170
     0
171
     2
172
     1
173
     1
174
     0
175
     0
176
   256
177
   256
178
   201
  0
ENDTAB
  0
ENDSEC
  0
SECTION
  2
BLOCKS
  0
BLOCK
  8
0
  2
$MODEL_SPACE
 70
     0
 10
0.0
 20
0.0
 30
0.0
  3
$MODEL_SPACE
  1

  0
ENDBLK
  5
1A
  8
0
  0
BLOCK
 67
     1
  8
0
  2
$PAPER_SPACE
 70
     0
 10
0.0
 20
0.0
 30
0.0
  3
$PAPER_SPACE
  1

  0
ENDBLK
  5
17
 67
     1
  8
0
  0
BLOCK
  8
0
  2
_OPEN30
 70
     0
 10
0.0
 20
0.0
 30
0.0
  3
_OPEN30
  1

  0
LINE
  5
44
  8
0
  6
BYBLOCK
 62
     0
 10
-1.0
 20
0.26794919
 30
0.0
 11
0.0
 21
0.0
 31
0.0
  0
LINE
  5
45
  8
0
  6
BYBLOCK
 62
     0
 10
0.0
 20
0.0
 30
0.0
 11
-1.0
 21
-0.26794919
 31
0.0
  0
LINE
  5
46
  8
0
  6
BYBLOCK
 62
     0
 10
0.0
 20
0.0
 30
0.0
 11
-1.0
 21
0.0
 31
0.0
  0
ENDBLK
  5
47
  8
0
  0
BLOCK
  8
0
  2
XREF1
 70
    36
 10
0.0
 20
0.0
 30
0.0
  3
XREF1
  1
D:\ACLT\FORMAT\KAWAJUN(9)図面用.dwg
  0
ENDBLK
  5
5D
  8
0
  0
BLOCK
  8
0
  2
A3WAKUDAKE
 70
    36
 10
0.0
 20
0.0
 30
0.0
  3
A3WAKUDAKE
  1
D:\ACLT\FORMAT\A3WAKUdake.dwg
  0
ENDBLK
  5
6DC
  8
0
  0
ENDSEC
  0
SECTION
  2
ENTITIES
  0
TEXT
  5
30E6
  8
1TEXT
 10
-230.3067752583527
 20
-1664.1642248460671
 30
0.0
 40
7.0
  1
PC-056-X
 41
1.0098214000000001
  0
LINE
  5
8CD0
  8
1CENTER
 10
-155.3067752583527
 20
-1686.9642148460671
 30
0.0
 11
-155.3067752583527
 21
-1680.9642148460671
 31
0.0
  0
LINE
  5
8CD1
  8
1CENTER
 10
-158.3067752583527
 20
-1683.9642148460671
 30
0.0
 11
-152.3067752583527
 21
-1683.9642148460671
 31
0.0
  0
LINE
  5
8CD2
  8
1CENTER
 10
-225.3067752583527
 20
-1686.9642148460671
 30
0.0
 11
-225.3067752583527
 21
-1680.9642148460671
 31
0.0
  0
LINE
  5
8CD3
  8
1CENTER
 10
-228.3067752583527
 20
-1683.9642148460671
 30
0.0
 11
-222.3067752583527
 21
-1683.9642148460671
 31
0.0
  0
LINE
  5
8CDC
  8
1CENTER
 10
-101.3067752583528
 20
-1774.566769487197
 30
0.0
 11
-101.3067752583528
 21
-1782.5667694871979
 31
0.0
  0
LINE
  5
91A5
  8
1CENTER
 10
-225.3067752583527
 20
-1774.963312589115
 30
0.0
 11
-225.3067752583527
 21
-1782.963312589115
 31
0.0
  0
LINE
  5
91A6
  8
1CENTER
 10
-155.30677525835259
 20
-1774.963312589115
 30
0.0
 11
-155.30677525835259
 21
-1782.963312589115
 31
0.0
  0
LINE
  5
9BF6
  8
01
 10
-226.3067752583527
 20
-1679.9642148460671
 30
0.0
 11
-154.30677525835259
 21
-1679.9642148460671
 31
0.0
  0
LINE
  5
9BF8
  8
01
 10
-226.3067752583527
 20
-1687.9642148460671
 30
0.0
 11
-221.53177525835281
 21
-1687.9642148460671
 31
0.0
  0
ARC
  5
9BF9
  8
01
 10
-226.3067752583527
 20
-1683.9642148460671
 30
0.0
 40
4.0
 50
90.000002999999325
 51
270.0
  0
LINE
  5
9BFB
  8
01
 10
-159.08179525835271
 20
-1687.9642148460671
 30
0.0
 11
-154.30677525835259
 21
-1687.9642148460671
 31
0.0
  0
ARC
  5
9BFC
  8
01
 10
-190.30677525835259
 20
-1632.9642148460671
 30
0.0
 40
60.0
 50
251.8051200000003
 51
288.19487000000203
  0
ARC
  5
9BFD
  8
01
 10
-221.53177525835281
 20
-1727.9642148460671
 30
0.0
 40
40.0
 50
71.805129999997973
 51
90.000002999999325
  0
ARC
  5
9BFE
  8
01
 10
-159.08179525835271
 20
-1727.9642148460671
 30
0.0
 40
40.0
 50
90.000002999999325
 51
108.1948799999997
  0
ARC
  5
9BFF
  8
01
 10
-154.30677525835259
 20
-1683.9642148460671
 30
0.0
 40
4.0
 50
270.0
 51
90.000002999999325
  0
LINE
  5
9C29
  8
01
 10
-230.3067752583527
 20
-1780.9642148460671
 30
0.0
 11
-221.3067752583527
 21
-1780.9642148460671
 31
0.0
  0
ARC
  5
9C2A
  8
01
 10
-200.7130552583528
 20
-1785.8846848460671
 30
0.0
 40
30.0
 50
121.3532999999978
 51
170.55988999999721
  0
LINE
  5
9C2C
  8
01
 10
-159.3067752583527
 20
-1780.9642148460671
 30
0.0
 11
-150.30677525835259
 21
-1780.9642148460671
 31
0.0
  0
ARC
  5
9C2D
  8
01
 10
-179.90052525835259
 20
-1785.8846848460671
 30
0.0
 40
30.0
 50
9.4401052000050747
 51
58.646708999999802
  0
ARC
  5
9C2E
  8
01
 10
-179.90052525835259
 20
-1785.8846848460671
 30
0.0
 40
22.0
 50
20.596904999998319
 51
58.646708999999802
  0
ARC
  5
9C2F
  8
01
 10
-200.7130552583528
 20
-1785.8846848460671
 30
0.0
 40
22.0
 50
121.3532999999978
 51
159.40308999999891
  0
ARC
  5
9C30
  8
01
 10
-190.30677525835259
 20
-1802.9642148460671
 30
0.0
 40
42.0
 50
58.646708999999802
 51
121.3532999999978
  0
ARC
  5
9C31
  8
01
 10
-190.30677525835259
 20
-1802.9642148460671
 30
0.0
 40
50.0
 50
58.646708999999802
 51
121.3532999999978
  0
LINE
  5
9C32
  8
01
 10
-221.3067752583527
 20
-1778.1453048460669
 30
0.0
 11
-221.3067752583527
 21
-1780.9642148460671
 31
0.0
  0
LINE
  5
9C33
  8
01
 10
-159.3067752583527
 20
-1778.1453048460669
 30
0.0
 11
-159.3067752583527
 21
-1780.9642148460671
 31
0.0
  0
ARC
  5
9C36
  8
01
 10
-163.40677525835261
 20
-1780.9642148460671
 30
0.0
 40
58.099997999999992
 50
0.0
 51
23.536576999997362
  0
LINE
  5
9C37
  8
01
 10
-97.306775258352886
 20
-1756.9642148460671
 30
0.0
 11
-97.306775258352886
 21
-1780.9642148460671
 31
0.0
  0
ARC
  5
9C38
  8
01
 10
-108.3067752583527
 20
-1756.9642148460671
 30
0.0
 40
2.0
 50
123.6123800000022
 51
203.53660296442089
  0
ARC
  5
9C39
  8
1HIDDEN
 10
-101.3067752583526
 20
-1756.9642148460671
 30
0.0
 40
4.0
 50
272.04671000000008
 51
0.0
  0
ARC
  5
9C3A
  8
01
 10
-101.6639152583525
 20
-1766.9578048460669
 30
0.0
 40
14.0
 50
87.953289000000268
 51
123.6123800000022
  0
ARC
  5
9C3B
  8
01
 10
-101.3067752583526
 20
-1756.9642148460671
 30
0.0
 40
4.0
 50
0.0
 51
87.953289000000268
  0
ARC
  5
9C3C
  8
1HIDDEN
 10
-101.6639152583525
 20
-1746.970564846067
 30
0.0
 40
14.0
 50
233.86750874945369
 51
272.04671000000008
  0
LINE
  5
9C3D
  8
01
 10
-105.3067752583529
 20
-1780.9642148460671
 30
0.0
 11
-97.306775258352886
 21
-1780.9642148460671
 31
0.0
  0
LINE
  5
9F1A
  8
1DIM
 10
-230.3067752583527
 20
-1868.9642148460671
 30
0.0
 11
-160.3067752583527
 21
-1868.9642148460671
 31
0.0
  0
TEXT
  5
9F1B
  8
1TEXT
 10
-223.55439430597161
 20
-1846.4642148460671
 30
0.0
 40
4.0
  1
表面処理：
 72
     1
 11
-212.90677525835261
 21
-1846.4642148460671
 31
0.0
  0
TEXT
  5
9F1C
  8
1TEXT
 10
-222.2401085916859
 20
-1860.299503505591
 30
0.0
 40
4.0
  1
クローム
 72
     1
 11
-212.90677525835261
 21
-1860.299503505591
 31
0.0
  0
TEXT
  5
9F1D
  8
1TEXT
 10
-224.1067752583526
 20
-1853.4421098660509
 30
0.0
 40
4.0
  1
本金メッキ
 72
     1
 11
-212.90677525835261
 21
-1853.4421098660509
 31
0.0
  0
LINE
  5
9F1E
  8
1DIM
 10
-230.3067752583527
 20
-1840.9642148460671
 30
0.0
 11
-160.3067752583527
 21
-1840.9642148460671
 31
0.0
  0
LINE
  5
9F1F
  8
1DIM
 10
-230.3067752583527
 20
-1854.9642148460671
 30
0.0
 11
-160.3067752583527
 21
-1854.9642148460671
 31
0.0
  0
LINE
  5
9F20
  8
1DIM
 10
-230.3067752583527
 20
-1847.9642148460671
 30
0.0
 11
-160.3067752583527
 21
-1847.9642148460671
 31
0.0
  0
LINE
  5
9F21
  8
1DIM
 10
-230.3067752583527
 20
-1861.9642148460671
 30
0.0
 11
-160.3067752583527
 21
-1861.9642148460671
 31
0.0
  0
LINE
  5
9F22
  8
1DIM
 10
-230.3067752583527
 20
-1861.9642148460671
 30
0.0
 11
-160.3067752583527
 21
-1861.9642148460671
 31
0.0
  0
LINE
  5
9F23
  8
1DIM
 10
-195.30677525835259
 20
-1840.9642148460671
 30
0.0
 11
-195.30677525835259
 21
-1868.9642148460671
 31
0.0
  0
TEXT
  5
9F24
  8
1TEXT
 10
-184.70677525835259
 20
-1846.4642148460671
 30
0.0
 40
4.0
  1
コード
 72
     1
 11
-177.90677525835261
 21
-1846.4642148460671
 31
0.0
  0
TEXT
  5
9F25
  8
1TEXT
 10
-229.1734419250192
 20
-1867.2751284576379
 30
0.0
 40
4.0
  1
サテンニッケル
 72
     1
 11
-212.90677525835261
 21
-1867.2751284576379
 31
0.0
  0
LINE
  5
9F26
  8
1DIM
 10
-230.3067752583527
 20
-1868.9642148460671
 30
0.0
 11
-230.3067752583527
 21
-1840.9642148460671
 31
0.0
  0
LINE
  5
9F27
  8
1DIM
 10
-160.3067752583527
 20
-1868.9642148460671
 30
0.0
 11
-160.3067752583527
 21
-1840.9642148460671
 31
0.0
  0
TEXT
  5
9F28
  8
1TEXT
 10
-193.2067752583531
 20
-1853.4642148460671
 30
0.0
 40
4.0
  1
PC-056-XG
 41
0.9
 72
     1
 11
-177.90677525835309
 21
-1853.4642148460671
 31
0.0
  0
TEXT
  5
9F29
  8
1TEXT
 10
-193.2067752583531
 20
-1860.4642148460671
 30
0.0
 40
4.0
  1
PC-056-XC
 41
0.9
 72
     1
 11
-177.90677525835309
 21
-1860.4642148460671
 31
0.0
  0
TEXT
  5
9F2A
  8
1TEXT
 10
-193.2067752583531
 20
-1867.4642148460671
 30
0.0
 40
4.0
  1
PC-056-XN
 41
0.9
 72
     1
 11
-177.90677525835309
 21
-1867.4642148460671
 31
0.0
  0
TEXT
  5
9FC6
  8
01
 10
-252.83918736865041
 20
-1737.9164020615301
 30
0.0
 40
3.5
  1
材質：亜鉛ダイキャスト
  0
TEXT
  5
9FC7
  8
01
 10
-244.6725207019837
 20
-1743.7497353948629
 30
0.0
 40
3.5
  1
仕上げ：各種メッキ
  0
SOLID
  5
9FC8
  8
1DIM
 10
-199.43838730323699
 20
-1751.959860705816
 30
0.0
 11
-198.2438409022844
 21
-1753.5982043837671
 31
0.0
 12
-199.9051719338724
 22
-1752.435840277906
 32
0.0
 13
-199.9051719338724
 23
-1752.435840277906
 33
0.0
1001
ACAD
1000
DSTYLE
1002
{
1070
    45
1040
0.5
1002
}
  0
LINE
  5
9FCC
  8
1DIM
 10
-97.306775258352886
 20
-1780.9642148460671
 30
0.0
 11
-97.306775258352886
 21
-1811.9642148460639
 31
0.0
  0
LINE
  5
9FCD
  8
1DIM
 10
-105.3067752583529
 20
-1780.9642148460671
 30
0.0
 11
-105.3067752583529
 21
-1811.9642148460639
 31
0.0
  0
LINE
  5
9FCE
  8
1DIM
 10
-99.306775258352914
 20
-1810.9642148460639
 30
0.0
 11
-103.3067752583529
 21
-1810.9642148460639
 31
0.0
  0
LINE
  5
9FD2
  8
1DIM
 10
-221.3067752583527
 20
-1780.9642148460671
 30
0.0
 11
-221.3067752583527
 21
-1801.9642148460671
 31
0.0
  0
LINE
  5
9FD3
  8
1DIM
 10
-159.3067752583527
 20
-1780.9642148460671
 30
0.0
 11
-159.3067752583527
 21
-1801.9642148460671
 31
0.0
  0
LINE
  5
9FD4
  8
1DIM
 10
-219.3067752583527
 20
-1800.9642148460671
 30
0.0
 11
-161.3067752583527
 21
-1800.9642148460671
 31
0.0
  0
LINE
  5
9FD8
  8
1DIM
 10
-152.3067752583527
 20
-1683.9642148460671
 30
0.0
 11
-129.30677525835279
 21
-1683.9642148460671
 31
0.0
  0
LINE
  5
9FD9
  8
1DIM
 10
-154.30677525835259
 20
-1679.9642148460671
 30
0.0
 11
-129.30677525835279
 21
-1679.9642148460671
 31
0.0
  0
LINE
  5
9FDA
  8
1DIM
 10
-130.30677525835279
 20
-1685.9642148460671
 30
0.0
 11
-130.30677525835279
 21
-1687.9642148460671
 31
0.0
  0
LINE
  5
9FDB
  8
1DIM
 10
-130.30677525835279
 20
-1677.9642148460671
 30
0.0
 11
-130.30677525835279
 21
-1675.9642148460671
 31
0.0
  0
LINE
  5
9FDC
  8
1DIM
 10
-130.30677525835279
 20
-1683.9642148460671
 30
0.0
 11
-130.30677525835279
 21
-1679.9642148460671
 31
0.0
  0
TEXT
  5
9FE0
  8
1TEXT
 10
-89.024020067276894
 20
-1798.886918025697
 30
0.0
 40
3.5
  1
M4-5
  0
SOLID
  5
9FE1
  8
1DIM
 10
-100.5713661222334
 20
-1782.8537236794041
 30
0.0
 11
-101.30678048081511
 21
-1780.964206060459
 31
0.0
 12
-99.998301724661104
 22
-1782.513074826948
 32
0.0
 13
-99.998301724661104
 23
-1782.513074826948
 33
0.0
  0
LINE
  5
9FE3
  8
1DIM
 10
-190.30677525835259
 20
-1760.9642148460671
 30
0.0
 11
-129.3067752583527
 21
-1760.9642148460671
 31
0.0
  0
LINE
  5
9FE4
  8
1DIM
 10
-150.30673721148611
 20
-1780.9641926326381
 30
0.0
 11
-129.3067752583527
 21
-1780.9641926326381
 31
0.0
  0
LINE
  5
9FE5
  8
1DIM
 10
-130.3067752583527
 20
-1762.9642148460671
 30
0.0
 11
-130.3067752583527
 21
-1778.9641926326381
 31
0.0
  0
LINE
  5
9FE9
  8
1DIM
 10
-154.30677525835259
 20
-1679.9642148460671
 30
0.0
 11
-119.3067752583528
 21
-1679.9642148460671
 31
0.0
  0
LINE
  5
9FEA
  8
1DIM
 10
-190.30677525835259
 20
-1692.9642148460671
 30
0.0
 11
-119.3067752583528
 21
-1692.9642148460671
 31
0.0
  0
LINE
  5
9FEB
  8
1DIM
 10
-120.3067752583528
 20
-1681.9642148460671
 30
0.0
 11
-120.3067752583528
 21
-1690.9642148460671
 31
0.0
  0
LINE
  5
9FEF
  8
1DIM
 10
-190.30677525835259
 20
-1752.9642148460671
 30
0.0
 11
-119.3067752583527
 21
-1752.9642148460671
 31
0.0
  0
LINE
  5
9FF0
  8
1DIM
 10
-150.30673721148611
 20
-1780.9641926326381
 30
0.0
 11
-119.3067752583527
 21
-1780.9641926326381
 31
0.0
  0
LINE
  5
9FF1
  8
1DIM
 10
-120.3067752583527
 20
-1754.9642148460671
 30
0.0
 11
-120.3067752583527
 21
-1778.9641926326381
 31
0.0
  0
LINE
  5
9FF5
  8
1DIM
 10
-225.3067752583527
 20
-1782.963312589115
 30
0.0
 11
-225.3067752583527
 21
-1811.9642148460671
 31
0.0
  0
LINE
  5
9FF6
  8
1DIM
 10
-230.3067752583527
 20
-1780.9642148460671
 30
0.0
 11
-230.3067752583527
 21
-1811.9642148460671
 31
0.0
  0
LINE
  5
9FF7
  8
1DIM
 10
-223.3067752583527
 20
-1810.9642148460671
 30
0.0
 11
-221.3067752583527
 21
-1810.9642148460671
 31
0.0
  0
LINE
  5
9FF8
  8
1DIM
 10
-232.3067752583527
 20
-1810.9642148460671
 30
0.0
 11
-234.3067752583527
 21
-1810.9642148460671
 31
0.0
  0
LINE
  5
9FF9
  8
1DIM
 10
-225.3067752583527
 20
-1810.9642148460671
 30
0.0
 11
-230.3067752583527
 21
-1810.9642148460671
 31
0.0
  0
LINE
  5
9FFD
  8
1DIM
 10
-155.30677525835259
 20
-1782.963312589115
 30
0.0
 11
-155.30677525835259
 21
-1811.9642148460639
 31
0.0
  0
LINE
  5
9FFE
  8
1DIM
 10
-150.30673721148611
 20
-1780.9641926326381
 30
0.0
 11
-150.30673721148611
 21
-1811.9642148460639
 31
0.0
  0
LINE
  5
9FFF
  8
1DIM
 10
-157.30677525835259
 20
-1810.9642148460639
 30
0.0
 11
-159.30677525835259
 21
-1810.9642148460639
 31
0.0
  0
LINE
  5
A000
  8
1DIM
 10
-148.30673721148611
 20
-1810.9642148460639
 30
0.0
 11
-146.30673721148611
 21
-1810.9642148460639
 31
0.0
  0
LINE
  5
A001
  8
1DIM
 10
-155.30677525835259
 20
-1810.9642148460639
 30
0.0
 11
-150.30673721148611
 21
-1810.9642148460639
 31
0.0
  0
LINE
  5
A005
  8
1DIM
 10
-225.3067752583527
 20
-1782.963312589115
 30
0.0
 11
-225.3067752583527
 21
-1811.9642148460671
 31
0.0
  0
LINE
  5
A006
  8
1DIM
 10
-155.30677525835259
 20
-1782.963312589115
 30
0.0
 11
-155.30677525835259
 21
-1811.9642148460671
 31
0.0
  0
LINE
  5
A007
  8
1DIM
 10
-223.3067752583527
 20
-1810.9642148460671
 30
0.0
 11
-157.30677525835259
 21
-1810.9642148460671
 31
0.0
  0
LINE
  5
A00B
  8
1DIM
 10
-230.3067752583527
 20
-1683.9642148460671
 30
0.0
 11
-230.3067752583527
 21
-1715.1642248460689
 31
0.0
  0
LINE
  5
A00C
  8
1DIM
 10
-150.30677525835259
 20
-1683.9642148460671
 30
0.0
 11
-150.30677525835259
 21
-1715.1642248460689
 31
0.0
  0
LINE
  5
A00D
  8
1DIM
 10
-228.3067752583527
 20
-1714.1642248460689
 30
0.0
 11
-152.3067752583527
 21
-1714.1642248460689
 31
0.0
  0
TEXT
  5
A011
  8
1DIM
 10
-192.9317752583527
 20
-1713.4642248460691
 30
0.0
 40
3.5
  1
80
  0
LINE
  5
A012
  8
0
  6
BYBLOCK
 10
-152.3067752583527
 20
-1713.628326466069
 30
0.0
 11
-150.30677525835259
 21
-1714.1642248460689
 31
0.0
  0
LINE
  5
A013
  8
0
  6
BYBLOCK
 10
-150.30677525835259
 20
-1714.1642248460689
 30
0.0
 11
-152.3067752583527
 21
-1714.7001232260691
 31
0.0
  0
LINE
  5
A014
  8
0
  6
BYBLOCK
 10
-150.30677525835259
 20
-1714.1642248460689
 30
0.0
 11
-152.3067752583527
 21
-1714.1642248460689
 31
0.0
  0
LINE
  5
A015
  8
0
  6
BYBLOCK
 10
-228.3067752583527
 20
-1714.7001232260691
 30
0.0
 11
-230.3067752583527
 21
-1714.1642248460689
 31
0.0
  0
LINE
  5
A016
  8
0
  6
BYBLOCK
 10
-230.3067752583527
 20
-1714.1642248460689
 30
0.0
 11
-228.3067752583527
 21
-1713.628326466069
 31
0.0
  0
LINE
  5
A017
  8
0
  6
BYBLOCK
 10
-230.3067752583527
 20
-1714.1642248460689
 30
0.0
 11
-228.3067752583527
 21
-1714.1642248460689
 31
0.0
  0
TEXT
  5
A018
  8
1DIM
 10
-194.6817752583527
 20
-1810.264214846067
 30
0.0
 40
3.5
  1
P70
  0
LINE
  5
A019
  8
0
  6
BYBLOCK
 10
-157.30677525835259
 20
-1810.4283164660669
 30
0.0
 11
-155.30677525835259
 21
-1810.9642148460671
 31
0.0
  0
LINE
  5
A01A
  8
0
  6
BYBLOCK
 10
-155.30677525835259
 20
-1810.9642148460671
 30
0.0
 11
-157.30677525835259
 21
-1811.500113226067
 31
0.0
  0
LINE
  5
A01B
  8
0
  6
BYBLOCK
 10
-155.30677525835259
 20
-1810.9642148460671
 30
0.0
 11
-157.30677525835259
 21
-1810.9642148460671
 31
0.0
  0
LINE
  5
A01C
  8
0
  6
BYBLOCK
 10
-223.3067752583527
 20
-1811.500113226067
 30
0.0
 11
-225.3067752583527
 21
-1810.9642148460671
 31
0.0
  0
LINE
  5
A01D
  8
0
  6
BYBLOCK
 10
-225.3067752583527
 20
-1810.9642148460671
 30
0.0
 11
-223.3067752583527
 21
-1810.4283164660669
 31
0.0
  0
LINE
  5
A01E
  8
0
  6
BYBLOCK
 10
-225.3067752583527
 20
-1810.9642148460671
 30
0.0
 11
-223.3067752583527
 21
-1810.9642148460671
 31
0.0
  0
TEXT
  5
A01F
  8
1DIM
 10
-153.97342290158599
 20
-1810.2642148460641
 30
0.0
 40
3.5
  1
5
  0
LINE
  5
A020
  8
0
  6
BYBLOCK
 10
-148.30673721148611
 20
-1811.5001132260641
 30
0.0
 11
-150.30673721148611
 21
-1810.9642148460639
 31
0.0
  0
LINE
  5
A021
  8
0
  6
BYBLOCK
 10
-150.30673721148611
 20
-1810.9642148460639
 30
0.0
 11
-148.30673721148611
 21
-1810.428316466064
 31
0.0
  0
LINE
  5
A022
  8
0
  6
BYBLOCK
 10
-150.30673721148611
 20
-1810.9642148460639
 30
0.0
 11
-148.30673721148611
 21
-1810.9642148460639
 31
0.0
  0
LINE
  5
A023
  8
0
  6
BYBLOCK
 10
-157.30677525835259
 20
-1810.428316466064
 30
0.0
 11
-155.30677525835259
 21
-1810.9642148460639
 31
0.0
  0
LINE
  5
A024
  8
0
  6
BYBLOCK
 10
-155.30677525835259
 20
-1810.9642148460639
 30
0.0
 11
-157.30677525835259
 21
-1811.5001132260641
 31
0.0
  0
LINE
  5
A025
  8
0
  6
BYBLOCK
 10
-155.30677525835259
 20
-1810.9642148460639
 30
0.0
 11
-157.30677525835259
 21
-1810.9642148460639
 31
0.0
  0
TEXT
  5
A026
  8
1DIM
 10
-228.9734419250193
 20
-1810.264214846067
 30
0.0
 40
3.5
  1
5
  0
LINE
  5
A027
  8
0
  6
BYBLOCK
 10
-232.3067752583527
 20
-1810.4283164660669
 30
0.0
 11
-230.3067752583527
 21
-1810.9642148460671
 31
0.0
  0
LINE
  5
A028
  8
0
  6
BYBLOCK
 10
-230.3067752583527
 20
-1810.9642148460671
 30
0.0
 11
-232.3067752583527
 21
-1811.500113226067
 31
0.0
  0
LINE
  5
A029
  8
0
  6
BYBLOCK
 10
-230.3067752583527
 20
-1810.9642148460671
 30
0.0
 11
-232.3067752583527
 21
-1810.9642148460671
 31
0.0
  0
LINE
  5
A02A
  8
0
  6
BYBLOCK
 10
-223.3067752583527
 20
-1811.500113226067
 30
0.0
 11
-225.3067752583527
 21
-1810.9642148460671
 31
0.0
  0
LINE
  5
A02B
  8
0
  6
BYBLOCK
 10
-225.3067752583527
 20
-1810.9642148460671
 30
0.0
 11
-223.3067752583527
 21
-1810.4283164660669
 31
0.0
  0
LINE
  5
A02C
  8
0
  6
BYBLOCK
 10
-225.3067752583527
 20
-1810.9642148460671
 30
0.0
 11
-223.3067752583527
 21
-1810.9642148460671
 31
0.0
  0
TEXT
  5
A02D
  8
1DIM
 10
-121.0067752583525
 20
-1769.8808704060191
 30
0.0
 40
3.5
  1
28
 50
90.0
  0
LINE
  5
A02E
  8
0
  6
BYBLOCK
 10
-119.77087687835269
 20
-1778.9641926326381
 30
0.0
 11
-120.3067752583527
 21
-1780.9641926326381
 31
0.0
  0
LINE
  5
A02F
  8
0
  6
BYBLOCK
 10
-120.3067752583527
 20
-1780.9641926326381
 30
0.0
 11
-120.84267363835269
 21
-1778.9641926326381
 31
0.0
  0
LINE
  5
A030
  8
0
  6
BYBLOCK
 10
-120.3067752583527
 20
-1780.9641926326381
 30
0.0
 11
-120.3067752583527
 21
-1778.9641926326381
 31
0.0
  0
LINE
  5
A031
  8
0
  6
BYBLOCK
 10
-120.84267363835269
 20
-1754.9642148460671
 30
0.0
 11
-120.3067752583527
 21
-1752.9642148460671
 31
0.0
  0
LINE
  5
A032
  8
0
  6
BYBLOCK
 10
-120.3067752583527
 20
-1752.9642148460671
 30
0.0
 11
-119.77087687835269
 21
-1754.9642148460671
 31
0.0
  0
LINE
  5
A033
  8
0
  6
BYBLOCK
 10
-120.3067752583527
 20
-1752.9642148460671
 30
0.0
 11
-120.3067752583527
 21
-1754.9642148460671
 31
0.0
  0
TEXT
  5
A034
  8
1DIM
 10
-121.0067752583525
 20
-1688.7975481794001
 30
0.0
 40
3.5
  1
13
 50
90.0
  0
LINE
  5
A035
  8
0
  6
BYBLOCK
 10
-119.77087687835269
 20
-1690.9642148460671
 30
0.0
 11
-120.3067752583528
 21
-1692.9642148460671
 31
0.0
  0
LINE
  5
A036
  8
0
  6
BYBLOCK
 10
-120.3067752583528
 20
-1692.9642148460671
 30
0.0
 11
-120.84267363835281
 21
-1690.9642148460671
 31
0.0
  0
LINE
  5
A037
  8
0
  6
BYBLOCK
 10
-120.3067752583528
 20
-1692.9642148460671
 30
0.0
 11
-120.3067752583528
 21
-1690.9642148460671
 31
0.0
  0
LINE
  5
A038
  8
0
  6
BYBLOCK
 10
-120.84267363835281
 20
-1681.9642148460671
 30
0.0
 11
-120.3067752583528
 21
-1679.9642148460671
 31
0.0
  0
LINE
  5
A039
  8
0
  6
BYBLOCK
 10
-120.3067752583528
 20
-1679.9642148460671
 30
0.0
 11
-119.77087687835269
 21
-1681.9642148460671
 31
0.0
  0
LINE
  5
A03A
  8
0
  6
BYBLOCK
 10
-120.3067752583528
 20
-1679.9642148460671
 30
0.0
 11
-120.3067752583528
 21
-1681.9642148460671
 31
0.0
  0
TEXT
  5
A03B
  8
1DIM
 10
-131.00677525835241
 20
-1773.589203739353
 30
0.0
 40
3.5
  1
20
 50
90.0
  0
LINE
  5
A03C
  8
0
  6
BYBLOCK
 10
-129.77087687835271
 20
-1778.9641926326381
 30
0.0
 11
-130.3067752583527
 21
-1780.9641926326381
 31
0.0
  0
LINE
  5
A03D
  8
0
  6
BYBLOCK
 10
-130.3067752583527
 20
-1780.9641926326381
 30
0.0
 11
-130.84267363835269
 21
-1778.9641926326381
 31
0.0
  0
LINE
  5
A03E
  8
0
  6
BYBLOCK
 10
-130.3067752583527
 20
-1780.9641926326381
 30
0.0
 11
-130.3067752583527
 21
-1778.9641926326381
 31
0.0
  0
LINE
  5
A03F
  8
0
  6
BYBLOCK
 10
-130.84267363835269
 20
-1762.9642148460671
 30
0.0
 11
-130.3067752583527
 21
-1760.9642148460671
 31
0.0
  0
LINE
  5
A040
  8
0
  6
BYBLOCK
 10
-130.3067752583527
 20
-1760.9642148460671
 30
0.0
 11
-129.77087687835271
 21
-1762.9642148460671
 31
0.0
  0
LINE
  5
A041
  8
0
  6
BYBLOCK
 10
-130.3067752583527
 20
-1760.9642148460671
 30
0.0
 11
-130.3067752583527
 21
-1762.9642148460671
 31
0.0
  0
LINE
  5
A042
  8
1DIM
 10
-100.2848339234472
 20
-1782.683399253176
 30
0.0
 11
-90.236810879753577
 21
-1799.5869180256971
 31
0.0
  0
LINE
  5
A043
  8
1DIM
 10
-90.236810879753577
 20
-1799.5869180256971
 30
0.0
 11
-87.536810879753574
 21
-1799.5869180256971
 31
0.0
  0
TEXT
  5
A044
  8
1DIM
 10
-131.00677525835249
 20
-1683.130881512734
 30
0.0
 40
3.5
  1
4
 50
90.0
  0
LINE
  5
A045
  8
0
  6
BYBLOCK
 10
-129.77087687835279
 20
-1677.9642148460671
 30
0.0
 11
-130.30677525835279
 21
-1679.9642148460671
 31
0.0
  0
LINE
  5
A046
  8
0
  6
BYBLOCK
 10
-130.30677525835279
 20
-1679.9642148460671
 30
0.0
 11
-130.84267363835281
 21
-1677.9642148460671
 31
0.0
  0
LINE
  5
A047
  8
0
  6
BYBLOCK
 10
-130.30677525835279
 20
-1679.9642148460671
 30
0.0
 11
-130.30677525835279
 21
-1677.9642148460671
 31
0.0
  0
LINE
  5
A048
  8
0
  6
BYBLOCK
 10
-130.84267363835281
 20
-1685.9642148460671
 30
0.0
 11
-130.30677525835279
 21
-1683.9642148460671
 31
0.0
  0
LINE
  5
A049
  8
0
  6
BYBLOCK
 10
-130.30677525835279
 20
-1683.9642148460671
 30
0.0
 11
-129.77087687835279
 21
-1685.9642148460671
 31
0.0
  0
LINE
  5
A04A
  8
0
  6
BYBLOCK
 10
-130.30677525835279
 20
-1683.9642148460671
 30
0.0
 11
-130.30677525835279
 21
-1685.9642148460671
 31
0.0
  0
TEXT
  5
A04B
  8
1DIM
 10
-193.2234419250193
 20
-1800.264214846067
 30
0.0
 40
3.5
  1
62
  0
LINE
  5
A04C
  8
0
  6
BYBLOCK
 10
-161.3067752583527
 20
-1800.4283164660669
 30
0.0
 11
-159.3067752583527
 21
-1800.9642148460671
 31
0.0
  0
LINE
  5
A04D
  8
0
  6
BYBLOCK
 10
-159.3067752583527
 20
-1800.9642148460671
 30
0.0
 11
-161.3067752583527
 21
-1801.500113226067
 31
0.0
  0
LINE
  5
A04E
  8
0
  6
BYBLOCK
 10
-159.3067752583527
 20
-1800.9642148460671
 30
0.0
 11
-161.3067752583527
 21
-1800.9642148460671
 31
0.0
  0
LINE
  5
A04F
  8
0
  6
BYBLOCK
 10
-219.3067752583527
 20
-1801.500113226067
 30
0.0
 11
-221.3067752583527
 21
-1800.9642148460671
 31
0.0
  0
LINE
  5
A050
  8
0
  6
BYBLOCK
 10
-221.3067752583527
 20
-1800.9642148460671
 30
0.0
 11
-219.3067752583527
 21
-1800.4283164660669
 31
0.0
  0
LINE
  5
A051
  8
0
  6
BYBLOCK
 10
-221.3067752583527
 20
-1800.9642148460671
 30
0.0
 11
-219.3067752583527
 21
-1800.9642148460671
 31
0.0
  0
TEXT
  5
A052
  8
1DIM
 10
-104.9234419250195
 20
-1810.2642148460641
 30
0.0
 40
3.5
  1
\U+03C68
  0
LINE
  5
A053
  8
0
  6
BYBLOCK
 10
-103.3067752583529
 20
-1811.5001132260641
 30
0.0
 11
-105.3067752583529
 21
-1810.9642148460639
 31
0.0
  0
LINE
  5
A054
  8
0
  6
BYBLOCK
 10
-105.3067752583529
 20
-1810.9642148460639
 30
0.0
 11
-103.3067752583529
 21
-1810.428316466064
 31
0.0
  0
LINE
  5
A055
  8
0
  6
BYBLOCK
 10
-105.3067752583529
 20
-1810.9642148460639
 30
0.0
 11
-103.3067752583529
 21
-1810.9642148460639
 31
0.0
  0
LINE
  5
A056
  8
0
  6
BYBLOCK
 10
-99.306775258352914
 20
-1810.428316466064
 30
0.0
 11
-97.306775258352886
 21
-1810.9642148460639
 31
0.0
  0
LINE
  5
A057
  8
0
  6
BYBLOCK
 10
-97.306775258352886
 20
-1810.9642148460639
 30
0.0
 11
-99.306775258352914
 21
-1811.5001132260641
 31
0.0
  0
LINE
  5
A058
  8
0
  6
BYBLOCK
 10
-97.306775258352886
 20
-1810.9642148460639
 30
0.0
 11
-99.306775258352914
 21
-1810.9642148460639
 31
0.0
  0
LINE
  5
A059
  8
1DIM
 10
-199.67177961855469
 20
-1752.1978504918609
 30
0.0
 11
-207.57252070198371
 21
-1744.449735394863
 31
0.0
1001
ACAD
1000
DSTYLE
1002
{
1070
    45
1040
0.5
1002
}
  0
VIEWPORT
  5
57
 67
     1
  8
0
 10
81.086695807397064
 20
9.8414732014601896
 30
0.0
 40
583.26959333240802
 41
268.17757685448993
 68
     1
 69
     1
1001
ACAD
1000
MVIEW
1002
{
1070
    16
1010
0.0
1020
0.0
1030
0.0
1010
0.0
1020
0.0
1030
1.0
1040
0.0
1040
268.17757685448993
1040
81.086695807397064
1040
9.8414732014601896
1040
50.0
1040
0.0
1040
0.0
1070
     0
1070
   100
1070
     1
1070
     1
1070
     0
1070
     0
1070
     0
1070
     0
1040
0.0
1040
0.0
1040
0.0
1040
10.0
1040
10.0
1040
10.0
1040
10.0
1070
     0
1002
{
1002
}
1002
}
  0
ENDSEC
  0
EOF
