  0
SECTION
  2
HEADER
  9
$ACADVER
  1
AC1009
  9
$INSBASE
 10
0.0
 20
0.0
 30
0.0
  9
$EXTMIN
 10
786.64074520331985
 20
2.0640372442147732
 30
0.0
  9
$EXTMAX
 10
1001.284184076193
 20
234.1202548062638
 30
0.0
  9
$LIMMIN
 10
0.0
 20
0.0
  9
$LIMMAX
 10
420.0
 20
297.0
  9
$ORTHOMODE
 70
     0
  9
$REGENMODE
 70
     1
  9
$FILLMODE
 70
     1
  9
$QTEXTMODE
 70
     0
  9
$MIRRTEXT
 70
     0
  9
$DRAGMODE
 70
     2
  9
$LTSCALE
 40
0.5
  9
$OSMODE
 70
  2175
  9
$ATTMODE
 70
     1
  9
$TEXTSIZE
 40
4.0
  9
$TRACEWID
 40
1.0
  9
$TEXTSTYLE
  7
STANDARD
  9
$CLAYER
  8
1TEXT
  9
$CELTYPE
  6
BYLAYER
  9
$CECOLOR
 62
   256
  9
$DIMSCALE
 40
1.0
  9
$DIMASZ
 40
2.0
  9
$DIMEXO
 40
0.0
  9
$DIMDLI
 40
7.0
  9
$DIMRND
 40
0.0
  9
$DIMDLE
 40
0.0
  9
$DIMEXE
 40
1.0
  9
$DIMTP
 40
0.0
  9
$DIMTM
 40
0.0
  9
$DIMTXT
 40
3.5
  9
$DIMCEN
 40
0.0
  9
$DIMTSZ
 40
0.0
  9
$DIMTOL
 70
     0
  9
$DIMLIM
 70
     0
  9
$DIMTIH
 70
     0
  9
$DIMTOH
 70
     0
  9
$DIMSE1
 70
     0
  9
$DIMSE2
 70
     0
  9
$DIMTAD
 70
     1
  9
$DIMZIN
 70
     8
  9
$DIMBLK
  1

  9
$DIMASO
 70
     1
  9
$DIMSHO
 70
     1
  9
$DIMPOST
  1
 
  9
$DIMAPOST
  1

  9
$DIMALT
 70
     0
  9
$DIMALTD
 70
     2
  9
$DIMALTF
 40
25.399999999999999
  9
$DIMLFAC
 40
1.0
  9
$DIMTOFL
 70
     1
  9
$DIMTVP
 40
0.0
  9
$DIMTIX
 70
     0
  9
$DIMSOXD
 70
     0
  9
$DIMSAH
 70
     1
  9
$DIMBLK1
  1
OPEN30
  9
$DIMBLK2
  1
OPEN30
  9
$DIMSTYLE
  2
NEWX10
  9
$DIMCLRD
 70
   256
  9
$DIMCLRE
 70
   256
  9
$DIMCLRT
 70
   201
  9
$DIMTFAC
 40
0.7
  9
$DIMGAP
 40
0.7
  9
$LUNITS
 70
     2
  9
$LUPREC
 70
     4
  9
$SKETCHINC
 40
1.0
  9
$FILLETRAD
 40
0.0
  9
$AUNITS
 70
     0
  9
$AUPREC
 70
     2
  9
$MENU
  1
acad
  9
$ELEVATION
 40
0.0
  9
$PELEVATION
 40
0.0
  9
$THICKNESS
 40
0.0
  9
$LIMCHECK
 70
     0
  9
$BLIPMODE
 70
     0
  9
$CHAMFERA
 40
10.0
  9
$CHAMFERB
 40
10.0
  9
$SKPOLY
 70
     0
  9
$TDCREATE
 40
2453033.7326634838
  9
$TDUPDATE
 40
2455593.6901571532
  9
$TDINDWG
 40
0.4542178472
  9
$TDUSRTIMER
 40
0.4542178472
  9
$USRTIMER
 70
     1
  9
$ANGBASE
 50
0.0
  9
$ANGDIR
 70
     0
  9
$PDMODE
 70
     0
  9
$PDSIZE
 40
0.0
  9
$PLINEWID
 40
0.0
  9
$COORDS
 70
     2
  9
$SPLFRAME
 70
     0
  9
$SPLINETYPE
 70
     6
  9
$SPLINESEGS
 70
     8
  9
$ATTDIA
 70
     0
  9
$ATTREQ
 70
     1
  9
$HANDLING
 70
     1
  9
$HANDSEED
  5
9C5D
  9
$SURFTAB1
 70
     6
  9
$SURFTAB2
 70
     6
  9
$SURFTYPE
 70
     6
  9
$SURFU
 70
     6
  9
$SURFV
 70
     6
  9
$UCSNAME
  2

  9
$UCSORG
 10
0.0
 20
0.0
 30
0.0
  9
$UCSXDIR
 10
1.0
 20
0.0
 30
0.0
  9
$UCSYDIR
 10
0.0
 20
1.0
 30
0.0
  9
$PUCSNAME
  2

  9
$PUCSORG
 10
0.0
 20
0.0
 30
0.0
  9
$PUCSXDIR
 10
1.0
 20
0.0
 30
0.0
  9
$PUCSYDIR
 10
0.0
 20
1.0
 30
0.0
  9
$USERI1
 70
     0
  9
$USERI2
 70
     0
  9
$USERI3
 70
     0
  9
$USERI4
 70
     0
  9
$USERI5
 70
     0
  9
$USERR1
 40
0.0
  9
$USERR2
 40
0.0
  9
$USERR3
 40
0.0
  9
$USERR4
 40
0.0
  9
$USERR5
 40
0.0
  9
$WORLDVIEW
 70
     1
  9
$SHADEDGE
 70
     3
  9
$SHADEDIF
 70
    70
  9
$TILEMODE
 70
     1
  9
$MAXACTVP
 70
    48
  9
$PLIMCHECK
 70
     0
  9
$PEXTMIN
 10
1.0000000000000000E+020
 20
1.0000000000000000E+020
 30
1.0000000000000000E+020
  9
$PEXTMAX
 10
-1.0000000000000000E+020
 20
-1.0000000000000000E+020
 30
-1.0000000000000000E+020
  9
$PLIMMIN
 10
0.0
 20
0.0
  9
$PLIMMAX
 10
420.0
 20
297.0
  9
$UNITMODE
 70
     0
  9
$VISRETAIN
 70
     1
  9
$PLINEGEN
 70
     0
  9
$PSLTSCALE
 70
     1
  0
ENDSEC
  0
SECTION
  2
TABLES
  0
TABLE
  2
VPORT
 70
     1
  0
VPORT
  2
*ACTIVE
 70
     0
 10
0.0
 20
0.0
 11
1.0
 21
1.0
 12
893.94589897431399
 22
118.0912176971221
 13
0.0
 23
0.0
 14
10.0
 24
10.0
 15
10.0
 25
10.0
 16
0.0
 26
0.0
 36
1.0
 17
0.0
 27
0.0
 37
0.0
 40
246.1371534168737
 41
1.4123581336696089
 42
50.0
 43
0.0
 44
0.0
 50
0.0
 51
0.0
 71
     0
 72
   100
 73
     1
 74
     1
 75
     0
 76
     0
 77
     0
 78
     0
  0
ENDTAB
  0
TABLE
  2
LTYPE
 70
    12
  0
LTYPE
  2
CONTINUOUS
 70
     0
  3
Solid line
 72
    65
 73
     0
 40
0.0
  0
LTYPE
  2
XREF1|CENTER2
 70
    48
  3
Center (.5x) ___ _ ___ _ ___ _ ___ _ ___ _ ___
 72
    65
 73
     4
 40
28.574999999999999
 49
19.050000000000001
 49
-3.1749999999999989
 49
3.1749999999999989
 49
-3.1749999999999989
  0
LTYPE
  2
A3WAKUDAKE|CENTER2
 70
    48
  3
Center (.5x) ___ _ ___ _ ___ _ ___ _ ___ _ ___
 72
    65
 73
     4
 40
28.574999999999999
 49
19.050000000000001
 49
-3.1749999999999989
 49
3.1749999999999989
 49
-3.1749999999999989
  0
ENDTAB
  0
TABLE
  2
LAYER
 70
    37
  0
LAYER
  2
0
 70
     0
 62
     7
  6
CONTINUOUS
  0
LAYER
  2
1TEXT
 70
     0
 62
     7
  6
CONTINUOUS
  0
LAYER
  2
A3WAKUDAKE|THICK
 70
    48
 62
     7
  6
CONTINUOUS
  0
LAYER
  2
A3WAKUDAKE|POINT
 70
    48
 62
     7
  6
CONTINUOUS
  0
LAYER
  2
A3WAKUDAKE|1CENTER
 70
    48
 62
     7
  6
A3WAKUDAKE|CENTER2
  0
LAYER
  2
A3WAKUDAKE|0-6
 70
    48
 62
     7
  6
CONTINUOUS
  0
LAYER
  2
A3WAKUDAKE|1DIM
 70
    48
 62
     7
  6
CONTINUOUS
  0
LAYER
  2
XREF1|1CENTER
 70
    48
 62
     7
  6
XREF1|CENTER2
  0
LAYER
  2
01
 70
     0
 62
     1
  6
CONTINUOUS
  0
ENDTAB
  0
TABLE
  2
STYLE
 70
     4
  0
STYLE
  2
STANDARD
 70
     0
 40
0.0
 41
1.0
 50
0.0
 71
     0
 42
4.0
  3
romans.shx
  4
extfont2.shx
  0
ENDTAB
  0
TABLE
  2
VIEW
 70
     0
  0
ENDTAB
  0
TABLE
  2
UCS
 70
     0
  0
ENDTAB
  0
TABLE
  2
APPID
 70
    10
  0
APPID
  2
ACAD
 70
     0
  0
APPID
  2
DRAWINGVARIABLESXDATA
 70
     0
  0
APPID
  2
CONTENTTABDATA
 70
     0
  0
APPID
  2
CONTENTCURRENTTAB
 70
     0
  0
APPID
  2
CONTENTBLOCKDESCRIPTION
 70
     0
  0
APPID
  2
CONTENTBLOCKICON
 70
     0
  0
APPID
  2
CONTENTLONGBLOCKNAME
 70
     0
  0
APPID
  2
ACAD_PSEXT
 70
     0
  0
APPID
  2
ACAD_DSTYLE_DIMTEXT_FILL
 70
     0
  0
APPID
  2
ACAD_MLEADERVER
 70
     0
  0
ENDTAB
  0
TABLE
  2
DIMSTYLE
 70
     6
  0
DIMSTYLE
  2
NEWX10
 70
     0
  3
 
  4

  5

  6
OPEN30
  7
OPEN30
 40
1.0
 41
2.0
 42
0.0
 43
7.0
 44
1.0
 45
0.0
 46
0.0
 47
0.0
 48
0.0
140
3.5
141
0.0
142
0.0
143
25.399999999999999
144
1.0
145
0.0
146
0.7
147
0.7
 71
     0
 72
     0
 73
     0
 74
     0
 75
     0
 76
     0
 77
     1
 78
     8
170
     0
171
     2
172
     1
173
     1
174
     0
175
     0
176
   256
177
   256
178
   201
  0
ENDTAB
  0
ENDSEC
  0
SECTION
  2
BLOCKS
  0
BLOCK
  8
0
  2
$MODEL_SPACE
 70
     0
 10
0.0
 20
0.0
 30
0.0
  3
$MODEL_SPACE
  1

  0
ENDBLK
  5
1A
  8
0
  0
BLOCK
 67
     1
  8
0
  2
$PAPER_SPACE
 70
     0
 10
0.0
 20
0.0
 30
0.0
  3
$PAPER_SPACE
  1

  0
ENDBLK
  5
17
 67
     1
  8
0
  0
BLOCK
  8
0
  2
_OPEN30
 70
     0
 10
0.0
 20
0.0
 30
0.0
  3
_OPEN30
  1

  0
LINE
  5
44
  8
0
  6
BYBLOCK
 62
     0
 10
-1.0
 20
0.26794919
 30
0.0
 11
0.0
 21
0.0
 31
0.0
  0
LINE
  5
45
  8
0
  6
BYBLOCK
 62
     0
 10
0.0
 20
0.0
 30
0.0
 11
-1.0
 21
-0.26794919
 31
0.0
  0
LINE
  5
46
  8
0
  6
BYBLOCK
 62
     0
 10
0.0
 20
0.0
 30
0.0
 11
-1.0
 21
0.0
 31
0.0
  0
ENDBLK
  5
47
  8
0
  0
BLOCK
  8
0
  2
XREF1
 70
    36
 10
0.0
 20
0.0
 30
0.0
  3
XREF1
  1
D:\ACLT\FORMAT\KAWAJUN(9)図面用.dwg
  0
ENDBLK
  5
5D
  8
0
  0
BLOCK
  8
0
  2
A3WAKUDAKE
 70
    36
 10
0.0
 20
0.0
 30
0.0
  3
A3WAKUDAKE
  1
D:\ACLT\FORMAT\A3WAKUdake.dwg
  0
ENDBLK
  5
6DC
  8
0
  0
BLOCK
  8
0
  2
*U16
 70
     1
 10
0.0
 20
0.0
 30
0.0
  3
*U16
  1

  0
TEXT
  5
9C3A
  8
1TEXT
 62
   201
 10
862.01406931892495
 20
129.91904447325891
 30
0.0
 40
3.5
  1
L寸法
  0
ENDBLK
  5
9C3C
  8
0
  0
BLOCK
  8
0
  2
*U17
 70
     1
 10
0.0
 20
0.0
 30
0.0
  3
*U17
  1

  0
TEXT
  5
9C3E
  8
1TEXT
 62
   201
 10
818.91406931892482
 20
138.33933122012681
 30
0.0
 40
3.5
  1
10
  0
ENDBLK
  5
9C40
  8
0
  0
BLOCK
  8
0
  2
*U18
 70
     1
 10
0.0
 20
0.0
 30
0.0
  3
*U18
  1

  0
TEXT
  5
9C42
  8
1TEXT
 62
   201
 10
837.79463301414648
 20
138.33933122012641
 30
0.0
 40
3.5
  1
穴数は表による　ピッチは均等割
  0
ENDBLK
  5
9C44
  8
0
  0
BLOCK
  8
0
  2
*U19
 70
     1
 10
0.0
 20
0.0
 30
0.0
  3
*U19
  1

  0
TEXT
  5
9C46
  8
1TEXT
 62
   201
 10
908.91406931892482
 20
138.33933122012641
 30
0.0
 40
3.5
  1
10
  0
ENDBLK
  5
9C48
  8
0
  0
BLOCK
  8
0
  2
*U20
 70
     1
 10
0.0
 20
0.0
 30
0.0
  3
*U20
  1

  0
TEXT
  5
9C4A
  8
1TEXT
 62
   201
 10
947.28504141805479
 20
147.77160359112051
 30
0.0
 40
3.5
  1
8
  0
ENDBLK
  5
9C4C
  8
0
  0
BLOCK
  8
0
  2
*U21
 70
     1
 10
0.0
 20
0.0
 30
0.0
  3
*U21
  1

  0
TEXT
  5
9C4E
  8
1TEXT
 62
   201
 10
926.14967534650782
 20
205.94072985755449
 30
0.0
 40
3.5
  1
15
 50
90.0
  0
ENDBLK
  5
9C50
  8
0
  0
BLOCK
  8
0
  2
*U22
 70
     1
 10
0.0
 20
0.0
 30
0.0
  3
*U22
  1

  0
TEXT
  5
9C52
  8
1TEXT
 62
   201
 10
963.20194682316708
 20
181.41904447326471
 30
0.0
 40
3.5
  1
2
 50
90.0
  0
ENDBLK
  5
9C54
  8
0
  0
BLOCK
  8
0
  2
*U23
 70
     1
 10
0.0
 20
0.0
 30
0.0
  3
*U23
  1

  0
TEXT
  5
9C56
  8
1TEXT
 62
   201
 10
963.20194682316708
 20
164.13571113992859
 30
0.0
 40
3.5
  1
15
 50
90.0
  0
ENDBLK
  5
9C58
  8
0
  0
BLOCK
  8
0
  2
*U24
 70
     1
 10
0.0
 20
0.0
 30
0.0
  3
*U24
  1

  0
TEXT
  5
9C5A
  8
1TEXT
 62
   201
 10
973.76643200878573
 20
165.13571113992711
 30
0.0
 40
3.5
  1
17
 50
90.0
  0
ENDBLK
  5
9C5C
  8
0
  0
ENDSEC
  0
SECTION
  2
ENTITIES
  0
TEXT
  5
87D2
  8
01
 10
785.29431666998653
 20
227.1202548062638
 30
0.0
 40
7.0
  1
PA58-
 41
1.0098214000000001
  0
LINE
  5
9459
  8
01
  6
BYBLOCK
 10
817.49740265225819
 20
160.21904447325909
 30
0.0
 11
917.49740265225819
 21
160.21904447326449
 31
0.0
  0
LINE
  5
945C
  8
01
  6
BYBLOCK
 10
817.99740265225819
 20
177.21904447326449
 30
0.0
 11
916.99740265225807
 21
177.21904447326079
 31
0.0
  0
LINE
  5
945F
  8
01
  6
BYBLOCK
 10
817.49740265225819
 20
176.71904447326449
 30
0.0
 11
817.49740265225796
 21
160.21904447325909
 31
0.0
  0
ARC
  5
9460
  8
01
  6
BYBLOCK
 10
817.99740265225807
 20
175.73608156011721
 30
0.0
 40
0.5
 50
180.0
 51
270.0
  0
ARC
  5
9461
  8
01
  6
BYBLOCK
 10
817.99740265225819
 20
176.71904447326449
 30
0.0
 40
0.5
 50
90.0
 51
180.0
  0
LINE
  5
9462
  8
01
  6
BYBLOCK
 10
917.49740265225819
 20
176.71904447326091
 30
0.0
 11
917.49740265225819
 21
160.21904447325909
 31
0.0
  0
ARC
  5
9463
  8
01
 10
916.99740265225807
 20
176.71904447326091
 30
0.0
 40
0.5
 50
0.0
 51
90.0
  0
ARC
  5
9464
  8
01
 10
916.99740265225807
 20
175.73608156011909
 30
0.0
 40
0.5
 50
270.0
 51
0.0
  0
LINE
  5
9465
  8
01
  6
BYBLOCK
 10
817.99740265225807
 20
175.23608156011721
 30
0.0
 11
916.99740265225807
 21
175.23608156011909
 31
0.0
  0
LINE
  5
9468
  8
01
  6
BYBLOCK
 10
817.49740265225819
 20
202.5240631908913
 30
0.0
 11
817.49740265225637
 21
216.52406319088951
 31
0.0
  0
ARC
  5
9469
  8
01
  6
BYBLOCK
 10
817.99740265225626
 20
216.52406319088951
 30
0.0
 40
0.5
 50
90.0
 51
180.00000000000651
  0
LINE
  5
946A
  8
01
  6
BYBLOCK
 10
817.99740265225819
 20
202.0240631908913
 30
0.0
 11
916.99740265225989
 21
202.0240631908878
 31
0.0
  0
ARC
  5
946D
  8
01
 10
916.99740265225989
 20
202.52406319088769
 30
0.0
 40
0.5
 50
270.0
 51
359.99999999999022
  0
ARC
  5
946E
  8
01
  6
BYBLOCK
 10
817.99740265225819
 20
202.52406319089141
 30
0.0
 40
0.5
 50
180.00000000000651
 51
270.0
  0
LINE
  5
946F
  8
01
  6
BYBLOCK
 10
817.99740265225626
 20
217.02406319088959
 30
0.0
 11
916.99740265226183
 21
217.02406319088769
 31
0.0
  0
LINE
  5
9472
  8
01
  6
BYBLOCK
 10
917.49740265225989
 20
202.5240631908876
 30
0.0
 11
917.49740265226171
 21
216.52406319088769
 31
0.0
  0
ARC
  5
9473
  8
01
 10
916.99740265226183
 20
216.52406319088769
 30
0.0
 40
0.5
 50
359.99999999999352
 51
90.0
  0
LINE
  5
94AE
  8
01
  6
BYBLOCK
 10
955.45170808471937
 20
177.21904447326449
 30
0.0
 11
942.45170808472301
 21
177.21904447326449
 31
0.0
  0
LINE
  5
94AF
  8
01
 10
948.95170808472119
 20
168.21904447325909
 30
0.0
 11
948.95170808472119
 21
158.21904447325909
 31
0.0
  0
LINE
  5
94B0
  8
01
  6
BYBLOCK
 10
944.95170808472312
 20
160.21904447325909
 30
0.0
 11
952.95170808471948
 21
160.21904447325909
 31
0.0
  0
ARC
  5
94B1
  8
01
  6
BYBLOCK
 10
942.45170808472301
 20
176.21904447326449
 30
0.0
 40
1.0
 50
90.0
 51
180.0
  0
LINE
  5
94B2
  8
01
  6
BYBLOCK
 10
941.45170808472312
 20
175.71904447326449
 30
0.0
 11
941.45170808472312
 21
176.21904447326449
 31
0.0
  0
ARC
  5
94B3
  8
01
  6
BYBLOCK
 10
941.95170808472312
 20
175.71904447326449
 30
0.0
 40
0.5
 50
180.0
 51
329.99999999998818
  0
ARC
  5
94B4
  8
01
  6
BYBLOCK
 10
942.8177334885072
 20
175.21904447326449
 30
0.0
 40
0.5
 50
90.0
 51
149.999999999897
  0
LINE
  5
94B5
  8
01
  6
BYBLOCK
 10
944.82935420816568
 20
175.71904447326801
 30
0.0
 11
942.8177334885072
 21
175.71904447326449
 31
0.0
  0
ARC
  5
94B6
  8
01
  6
BYBLOCK
 10
955.45170808471937
 20
176.21904447326449
 30
0.0
 40
1.0
 50
0.0
 51
90.0
  0
LINE
  5
94B7
  8
01
  6
BYBLOCK
 10
956.45170808471937
 20
175.71904447326449
 30
0.0
 11
956.45170808471937
 21
176.21904447326449
 31
0.0
  0
ARC
  5
94B8
  8
01
  6
BYBLOCK
 10
955.95170808471767
 20
175.71904447326449
 30
0.0
 40
0.5
 50
209.999999999869
 51
0.0
  0
ARC
  5
94B9
  8
01
  6
BYBLOCK
 10
955.08568268093347
 20
175.21904447326449
 30
0.0
 40
0.5
 50
30.000000000097049
 51
90.0
  0
LINE
  5
94BA
  8
01
 10
944.95170808472267
 20
160.2190444732561
 30
0.0
 11
946.80989034565255
 21
173.44069827134791
 31
0.0
  0
ARC
  5
94BB
  8
01
 10
944.82935420816921
 20
173.71904447326801
 30
0.0
 40
2.0
 50
351.99999999999898
 51
90.000000000097685
  0
LINE
  5
94BC
  8
01
  6
BYBLOCK
 10
953.0740619612767
 20
175.71904447326801
 30
0.0
 11
955.08568268093541
 21
175.71904447326449
 31
0.0
  0
LINE
  5
94BD
  8
01
 10
952.95170808471994
 20
160.2190444732561
 30
0.0
 11
951.09352582378995
 21
173.44069827134791
 31
0.0
  0
ARC
  5
94BE
  8
01
 10
953.07406196127317
 20
173.71904447326801
 30
0.0
 40
1.9999999999999989
 50
89.999999999895778
 51
188.00000000000091
  0
LINE
  5
9776
  8
01
 10
880.02299246404118
 20
43.566371533393593
 30
0.0
 11
880.02299246404118
 21
15.566371533393591
 31
0.0
  0
LINE
  5
9777
  8
01
 10
830.83876291565855
 20
17.53921926727692
 30
0.0
 11
880.02299246404118
 21
17.53921926727692
 31
0.0
  0
LINE
  5
9778
  8
01
 10
830.83876291565855
 20
24.53921926727692
 30
0.0
 11
880.02299246404118
 21
24.53921926727692
 31
0.0
  0
LINE
  5
9779
  8
01
 10
830.83876291565855
 20
31.53921926727692
 30
0.0
 11
880.02299246404118
 21
31.53921926727692
 31
0.0
  0
TEXT
  5
977A
  8
01
 10
832.42230736357806
 20
33.03921926727692
 30
0.0
 40
4.0
  1
コード
 72
     1
 11
839.08897403024457
 21
33.03921926727692
 31
0.0
  0
TEXT
  5
977B
  8
01
 10
837.18421212548344
 20
19.039219267276462
 30
0.0
 40
4.0
  1
Z
 72
     1
 11
839.08897403024525
 21
19.039219267276462
 31
0.0
  0
TEXT
  5
977C
  8
01
 10
837.18421212548253
 20
26.03921926727692
 30
0.0
 40
4.0
  1
S
 72
     1
 11
839.08897403024457
 21
26.03921926727692
 31
0.0
  0
TEXT
  5
977D
  8
01
 10
849.35632579737432
 20
26.03921926727692
 30
0.0
 40
4.0
  1
ブラストシルバー
 41
0.7
 72
     1
 11
862.42299246404104
 21
26.03921926727692
 31
0.0
  0
TEXT
  5
977E
  8
01
 10
846.90299246404106
 20
19.03921926727692
 30
0.0
 40
4.0
  1
ステンカラーヘアライン
 41
0.6
 72
     1
 11
862.42299246404104
 21
19.03921926727692
 31
0.0
  0
TEXT
  5
977F
  8
01
 10
853.35632579737444
 20
33.03921926727692
 30
0.0
 40
4.0
  1
表面処理
 72
     1
 11
862.42299246404104
 21
33.03921926727692
 31
0.0
  0
TEXT
  5
9780
  8
01
 10
829.76197439326234
 20
77.444962427886153
 30
0.0
 40
4.0
  1
商品コード
 72
     1
 11
841.22864105992892
 21
77.444962427886153
 31
0.0
  0
LINE
  5
9781
  8
01
 10
882.20682278937829
 20
77.064037244214546
 30
0.0
 11
800.21976404338409
 21
77.064037244214546
 31
0.0
  0
TEXT
  5
9782
  8
01
 10
801.12836980894735
 20
69.780640877448505
 30
0.0
 40
4.0
  1
例）PA58S30
 72
     1
 11
819.0140840946616
 21
69.780640877448505
 31
0.0
  0
TEXT
  5
9783
  8
01
 10
810.7837952233765
 20
59.857715785617771
 30
0.0
 40
4.0
  1
PA58
 72
     1
 11
818.40284284242409
 21
59.857715785617771
 31
0.0
  0
LINE
  5
9786
  8
01
 10
846.16877162187438
 20
38.53921926727692
 30
0.0
 11
846.16877162187438
 21
10.53921926727692
 31
0.0
  0
LINE
  5
9788
  8
01
 10
827.96780467100666
 20
59.338149474309731
 30
0.0
 11
827.96780467100666
 21
21.035844964117938
 31
0.0
  0
LINE
  5
9789
  8
01
 10
827.96780467100666
 20
21.035844964117938
 30
0.0
 11
830.83876291565855
 21
21.035844964117938
 31
0.0
  0
LINE
  5
978A
  8
01
 10
835.6212774474252
 20
59.338149474309731
 30
0.0
 11
835.6212774474252
 21
46.402981525833418
 31
0.0
  0
LINE
  5
978B
  8
01
 10
846.16877162187438
 20
49.855567329802533
 30
0.0
 11
880.02299246404118
 21
49.855567329802533
 31
0.0
  0
TEXT
  5
978C
  8
01
 10
852.74299246404109
 20
44.355567329802518
 30
0.0
 40
4.0
  1
30～1200
 41
0.7
 72
     1
 11
862.42299246404104
 21
44.355567329802518
 31
0.0
  0
TEXT
  5
978D
  8
01
 10
856.15632579737451
 20
51.355567329802518
 30
0.0
 40
4.0
  1
L寸法
 72
     1
 11
862.42299246404104
 21
51.355567329802518
 31
0.0
  0
LINE
  5
978F
  8
01
 10
830.83876291565855
 20
31.35129824802592
 30
0.0
 11
880.02299246404118
 21
31.35129824802592
 31
0.0
  0
LINE
  5
9790
  8
01
 10
846.16877162187438
 20
49.72537139914575
 30
0.0
 11
880.02299246404118
 21
49.72537139914575
 31
0.0
  0
LINE
  5
9791
  8
01
 10
846.16877162187438
 20
46.402981525833418
 30
0.0
 11
835.6212774474252
 21
46.402981525833418
 31
0.0
  0
LINE
  5
9792
  8
01
 10
891.30360445472104
 20
24.3350662425533
 30
0.0
 11
945.43148509647312
 21
24.3350662425533
 31
0.0
  0
LINE
  5
9793
  8
01
 10
891.30360445472104
 20
19.835066242553289
 30
0.0
 11
945.43148509647312
 21
19.835066242553221
 31
0.0
  0
TEXT
  5
9794
  8
01
 10
898.77529372457002
 20
20.656226242553181
 30
0.0
 40
2.8576800000000002
  1
300～599
 72
     1
 11
908.58666172456992
 21
22.085066242553179
 31
0.0
 73
     2
  0
TEXT
  5
9795
  8
01
 10
898.77738214527142
 20
16.156226242553181
 30
0.0
 40
2.8576800000000002
  1
600～1199
 72
     1
 11
910.01759014527147
 21
17.585066242553179
 31
0.0
 73
     2
  0
TEXT
  5
9796
  8
01
 10
933.76843962039538
 20
16.156226242553181
 30
0.0
 40
2.8576800000000002
  1
5
 72
     1
 11
935.12923962039542
 21
17.585066242553179
 31
0.0
 73
     2
  0
TEXT
  5
9797
  8
01
 10
933.76843962039538
 20
20.656226242553181
 30
0.0
 40
2.8576800000000002
  1
3
 72
     1
 11
935.12923962039542
 21
22.085066242553179
 31
0.0
 73
     2
  0
LINE
  5
9798
  8
01
 10
891.3036002059614
 20
15.33506624255328
 30
0.0
 11
945.43148509647312
 21
15.335066242553239
 31
0.0
  0
LINE
  5
9799
  8
01
 10
926.12923962039542
 20
33.335066242553303
 30
0.0
 11
926.12923962039542
 21
10.83506624255325
 31
0.0
  0
LINE
  5
979A
  8
01
 10
891.30360020596163
 20
37.835066242553211
 30
0.0
 11
891.3036002059614
 21
10.835066242553291
 31
0.0
  0
LINE
  5
979B
  8
01
 10
891.30360020596163
 20
33.335066242553268
 30
0.0
 11
945.43148509647312
 21
33.335066242553268
 31
0.0
  0
LINE
  5
979C
  8
01
 10
891.30359595720245
 20
37.835066242553239
 30
0.0
 11
945.43148509647312
 21
37.835066242553239
 31
0.0
  0
TEXT
  5
979D
  8
01
 10
910.17022595163257
 20
34.156226242553267
 30
0.0
 40
2.8576800000000002
  1
穴数対応表
 72
     1
 11
918.36224195163254
 21
35.585066242553268
 31
0.0
 73
     2
  0
TEXT
  5
979E
  8
01
 10
900.13608947581054
 20
25.156226242553242
 30
0.0
 40
2.8576800000000002
  1
30～299
 72
     1
 11
908.58665747581074
 21
26.585066242553239
 31
0.0
 73
     2
  0
TEXT
  5
979F
  8
01
 10
933.76843537163597
 20
25.156226242553242
 30
0.0
 40
2.8576800000000002
  1
2
 72
     1
 11
935.12923537163613
 21
26.585066242553239
 31
0.0
 73
     2
  0
LINE
  5
97A0
  8
01
 10
891.30360445472104
 20
28.8350662425533
 30
0.0
 11
945.43148509647312
 21
28.8350662425533
 31
0.0
  0
TEXT
  5
97A1
  8
01
 10
928.65183162039546
 20
29.656226242553242
 30
0.0
 40
2.8576800000000002
  1
ネジ穴数
 72
     1
 11
935.12923962039542
 21
31.085066242553239
 31
0.0
 73
     2
  0
TEXT
  5
97A2
  8
01
 10
904.10962972456991
 20
29.656226242553242
 30
0.0
 40
2.8576800000000002
  1
L寸法
 72
     4
 11
908.58666172456992
 21
31.085066242553239
 31
0.0
  0
LINE
  5
97A3
  8
01
 10
945.43148509647312
 20
10.83506624255325
 30
0.0
 11
945.43148509647312
 21
37.835066242553239
 31
0.0
  0
LINE
  5
97A4
  8
01
 10
830.83876291565855
 20
10.53921926727692
 30
0.0
 11
880.02299246404118
 21
10.53921926727692
 31
0.0
  0
TEXT
  5
97A5
  8
01
 10
835.2984978397692
 20
12.039219267276479
 30
0.0
 40
4.0
  1
4Ｑ
 72
     1
 11
839.08897403024525
 21
12.039219267276479
 31
0.0
  0
TEXT
  5
97A6
  8
01
 10
852.66299246404117
 20
12.03921926727693
 30
0.0
 40
4.0
  1
ダークアンバー
 41
0.6
 72
     1
 11
862.42299246404104
 21
12.03921926727693
 31
0.0
  0
LINE
  5
97A7
  8
01
 10
830.83876291565855
 20
10.5392192672769
 30
0.0
 11
880.02299246404118
 21
10.5392192672769
 31
0.0
  0
TEXT
  5
97A8
  8
01
 10
903.77913964041375
 20
77.444962427886125
 30
0.0
 40
4.0
  1
商品コード（既製サイズ）
 72
     1
 11
932.31247297374716
 21
77.444962427886125
 31
0.0
  0
LINE
  5
97A9
  8
01
 10
1001.284184076193
 20
77.064037244214546
 30
0.0
 11
891.30359595720245
 21
77.064037244214546
 31
0.0
  0
LINE
  5
97AA
  8
01
 10
1001.284184076193
 20
72.564037244214589
 30
0.0
 11
891.30359595720245
 21
72.564037244214589
 31
0.0
  0
LINE
  5
97AB
  8
01
 10
1001.284184076193
 20
68.064037244214646
 30
0.0
 11
891.30359595720245
 21
68.064037244214646
 31
0.0
  0
LINE
  5
97AC
  8
01
 10
1001.284184076193
 20
63.564037244214703
 30
0.0
 11
891.30359595720245
 21
63.564037244214703
 31
0.0
  0
LINE
  5
97AD
  8
01
 10
1001.284184076193
 20
59.064037244214767
 30
0.0
 11
891.30359595720245
 21
59.064037244214759
 31
0.0
  0
LINE
  5
97AE
  8
01
 10
1001.284184076193
 20
54.143534554729072
 30
0.0
 11
891.30359595720245
 21
54.143534554729086
 31
0.0
  0
LINE
  5
97AF
  8
01
 10
1001.284184076193
 20
49.643534554729143
 30
0.0
 11
891.30359595720245
 21
49.643534554729143
 31
0.0
  0
LINE
  5
97B0
  8
01
 10
973.29065470319665
 20
45.1435345547292
 30
0.0
 11
891.30359595720245
 21
45.1435345547292
 31
0.0
  0
TEXT
  5
97B1
  8
01
 10
898.76156858399645
 20
72.898729082449904
 30
0.0
 40
4.0
  1
コード
 72
     1
 11
905.42823525066296
 21
72.898729082449904
 31
0.0
  0
TEXT
  5
97B2
  8
01
 10
928.33308517820933
 20
72.898729082449904
 30
0.0
 40
4.0
  1
長さ
 72
     1
 11
932.59975184487575
 21
72.898729082449904
 31
0.0
  0
TEXT
  5
97B3
  8
01
 10
949.86167255193436
 20
72.898729082449904
 30
0.0
 40
4.0
  1
ネジ穴数
 72
     1
 11
958.92833921860108
 21
72.898729082449904
 31
0.0
  0
LINE
  5
97B4
  8
01
 10
919.29712533019938
 20
77.064037244214546
 30
0.0
 11
919.29712533019938
 21
45.1435345547292
 31
0.0
  0
LINE
  5
97B5
  8
01
 10
945.29712533019938
 20
77.064037244214546
 30
0.0
 11
945.29712533019938
 21
45.1435345547292
 31
0.0
  0
TEXT
  5
97B6
  8
01
 10
894.67014001256769
 20
68.398729082449961
 30
0.0
 40
3.2000000000000002
  1
PA58　30
 72
     1
 11
905.42823525066296
 21
68.398729082449961
 31
0.0
  0
TEXT
  5
97B7
  8
01
 10
929.24926338885973
 20
68.398729082449961
 30
0.0
 40
3.2000000000000002
  1
30
 72
     1
 11
932.29688243647865
 21
68.398729082449961
 31
0.0
  0
TEXT
  5
97B8
  8
01
 10
957.89795509985049
 20
68.398729082449961
 30
0.0
 40
3.2000000000000002
  1
2
 72
     1
 11
959.42176462366001
 21
68.398729082449961
 31
0.0
  0
TEXT
  5
97B9
  8
01
 10
894.67014001256769
 20
63.898729082450018
 30
0.0
 40
3.2000000000000002
  1
PA58　60
 72
     1
 11
905.42823525066296
 21
63.898729082450018
 31
0.0
  0
TEXT
  5
97BA
  8
01
 10
929.17307291266923
 20
63.898729082450018
 30
0.0
 40
3.2000000000000002
  1
60
 72
     1
 11
932.29688243647865
 21
63.898729082450018
 31
0.0
  0
TEXT
  5
97BB
  8
01
 10
957.89795509985049
 20
63.898729082450018
 30
0.0
 40
3.2000000000000002
  1
2
 72
     1
 11
959.42176462366001
 21
63.898729082450018
 31
0.0
  0
TEXT
  5
97BC
  8
01
 10
893.14633048875817
 20
59.398729082450068
 30
0.0
 40
3.2000000000000002
  1
PA58　150
 72
     1
 11
905.42823525066296
 21
59.398729082450068
 31
0.0
  0
TEXT
  5
97BD
  8
01
 10
927.49688243647893
 20
59.398729082450068
 30
0.0
 40
3.2000000000000002
  1
150
 72
     1
 11
932.29688243647865
 21
59.398729082450068
 31
0.0
  0
TEXT
  5
97BE
  8
01
 10
957.89795509985049
 20
59.398729082450068
 30
0.0
 40
3.2000000000000002
  1
2
 72
     1
 11
959.42176462366001
 21
59.398729082450068
 31
0.0
  0
TEXT
  5
97BF
  8
01
 10
893.14633048875817
 20
54.478226392964388
 30
0.0
 40
3.2000000000000002
  1
PA58　300
 72
     1
 11
905.42823525066296
 21
54.478226392964388
 31
0.0
  0
TEXT
  5
97C0
  8
01
 10
927.72545386505021
 20
54.478226392964388
 30
0.0
 40
3.2000000000000002
  1
300
 72
     1
 11
932.29688243647865
 21
54.478226392964388
 31
0.0
  0
TEXT
  5
97C1
  8
01
 10
957.89795509985049
 20
54.478226392964388
 30
0.0
 40
3.2000000000000002
  1
3
 72
     1
 11
959.42176462366001
 21
54.478226392964388
 31
0.0
  0
TEXT
  5
97C2
  8
01
 10
893.14633048875817
 20
49.978226392964437
 30
0.0
 40
3.2000000000000002
  1
PA58　800
 72
     1
 11
905.42823525066296
 21
49.978226392964437
 31
0.0
  0
TEXT
  5
97C3
  8
01
 10
927.72545386505021
 20
49.978226392964437
 30
0.0
 40
3.2000000000000002
  1
800
 72
     1
 11
932.29688243647865
 21
49.978226392964437
 31
0.0
  0
TEXT
  5
97C4
  8
01
 10
957.89795509985049
 20
49.978226392964437
 30
0.0
 40
3.2000000000000002
  1
5
 72
     1
 11
959.42176462366001
 21
49.978226392964437
 31
0.0
  0
TEXT
  5
97C5
  8
01
 10
891.62252096494865
 20
45.478226392964501
 30
0.0
 40
3.2000000000000002
  1
PA58　1200
 72
     1
 11
905.42823525066296
 21
45.478226392964501
 31
0.0
  0
TEXT
  5
97C6
  8
01
 10
925.97307291266918
 20
45.478226392964501
 30
0.0
 40
3.2000000000000002
  1
1200
 72
     1
 11
932.29688243647865
 21
45.478226392964501
 31
0.0
  0
TEXT
  5
97C7
  8
01
 10
957.89795509985049
 20
45.478226392964501
 30
0.0
 40
3.2000000000000002
  1
7
 72
     1
 11
959.42176462366001
 21
45.478226392964501
 31
0.0
  0
TEXT
  5
97CE
  8
01
 10
975.45520192493154
 20
72.89872908244989
 30
0.0
 40
4.0
  1
ピッチ寸法
 72
     1
 11
986.92186859159813
 21
72.89872908244989
 31
0.0
  0
TEXT
  5
97CF
  8
01
 10
984.13910352046673
 20
68.398729082449947
 30
0.0
 40
3.2000000000000002
  1
18
 72
     1
 11
987.41529399665717
 21
68.398729082449947
 31
0.0
  0
TEXT
  5
97D0
  8
01
 10
984.36767494903813
 20
63.898729082449996
 30
0.0
 40
3.2000000000000002
  1
40
 72
     1
 11
987.41529399665717
 21
63.898729082449996
 31
0.0
  0
TEXT
  5
97D1
  8
01
 10
982.61529399665721
 20
59.39872908245006
 30
0.0
 40
3.2000000000000002
  1
130
 72
     1
 11
987.41529399665717
 21
59.39872908245006
 31
0.0
  0
TEXT
  5
97D2
  8
01
 10
982.61529399665721
 20
54.478226392964388
 30
0.0
 40
3.2000000000000002
  1
140
 72
     1
 11
987.41529399665717
 21
54.478226392964388
 31
0.0
  0
TEXT
  5
97D3
  8
01
 10
982.61529399665721
 20
49.978226392964437
 30
0.0
 40
3.2000000000000002
  1
195
 72
     1
 11
987.41529399665717
 21
49.978226392964437
 31
0.0
  0
LINE
  5
97D6
  8
01
 10
973.29065470319665
 20
77.064037244214546
 30
0.0
 11
973.29065470319665
 21
45.1435345547292
 31
0.0
  0
LINE
  5
9855
  8
01
 10
907.49740265225819
 20
168.21904447325909
 30
0.0
 11
907.49740265225819
 21
158.21904447325909
 31
0.0
  0
LINE
  5
9871
  8
01
 10
827.49740265225807
 20
168.21904447325909
 30
0.0
 11
827.49740265225807
 21
158.21904447325909
 31
0.0
  0
TEXT
  5
9AD7
  8
01
 10
933.81732908279264
 20
11.2759581049198
 30
0.0
 40
2.8576800000000002
  1
7
 72
     1
 11
935.17812908279268
 21
12.704798104919799
 31
0.0
 73
     2
  0
TEXT
  5
9AD8
  8
01
 10
982.60669594907813
 20
45.478226392964501
 30
0.0
 40
3.2000000000000002
  1
196.7
 72
     1
 11
989.69241023479242
 21
45.478226392964501
 31
0.0
  0
LINE
  5
9AE0
  8
01
 10
891.3036002059614
 20
10.835066242553291
 30
0.0
 11
945.43148509647312
 21
10.83506624255325
 31
0.0
  0
TEXT
  5
9AE1
  8
01
 10
903.29922420879348
 20
11.258535169827701
 30
0.0
 40
2.8576800000000002
  1
1200
 72
     1
 11
908.9465442087934
 21
12.6873751698277
 31
0.0
 73
     2
  0
LINE
  5
9B74
  8
01
 10
955.95170808471767
 20
175.21904447326449
 30
0.0
 11
964.90194682316735
 21
175.21904447326449
 31
0.0
  0
LINE
  5
9B75
  8
01
 10
952.95170808471994
 20
160.21904447325909
 30
0.0
 11
964.90194682316735
 21
160.219044473259
 31
0.0
  0
LINE
  5
9B76
  8
01
 10
963.90194682316735
 20
173.21904447326449
 30
0.0
 11
963.90194682316735
 21
162.219044473259
 31
0.0
  0
TEXT
  5
9B7A
  8
01
 10
963.81870820714039
 20
146.67808051472119
 30
0.0
 40
3.5
  1
M4-8
  0
SOLID
  5
9B7B
  8
01
 10
950.26287631827995
 20
158.27400463343571
 30
0.0
 11
949.17212991077042
 21
159.98321011716661
 31
0.0
 12
950.75825396665175
 22
158.72014971066761
 32
0.0
 13
950.75825396665175
 23
158.72014971066761
 33
0.0
  0
LINE
  5
9B7D
  8
01
 10
955.95170808471767
 20
175.21904447326449
 30
0.0
 11
964.90194682316735
 21
175.21904447326449
 31
0.0
  0
LINE
  5
9B7E
  8
01
 10
955.45170808471937
 20
177.21904447326449
 30
0.0
 11
964.90194682316735
 21
177.21904447326449
 31
0.0
  0
LINE
  5
9B7F
  8
01
 10
963.90194682316735
 20
173.21904447326449
 30
0.0
 11
963.90194682316735
 21
171.21904447326449
 31
0.0
  0
LINE
  5
9B80
  8
01
 10
963.90194682316735
 20
179.21904447326449
 30
0.0
 11
963.90194682316735
 21
184.95237780659781
 31
0.0
  0
LINE
  5
9B81
  8
01
 10
963.90194682316735
 20
175.21904447326449
 30
0.0
 11
963.90194682316735
 21
177.21904447326449
 31
0.0
  0
LINE
  5
9B85
  8
01
 10
916.99740265225989
 20
202.0240631908878
 30
0.0
 11
927.84967534650787
 21
202.0240631908878
 31
0.0
  0
LINE
  5
9B86
  8
01
 10
916.99740265226183
 20
217.02406319088769
 30
0.0
 11
927.84967534650787
 21
217.02406319088769
 31
0.0
  0
LINE
  5
9B87
  8
01
 10
926.84967534650787
 20
204.0240631908878
 30
0.0
 11
926.84967534650787
 21
215.02406319088769
 31
0.0
  0
LINE
  5
9B8B
  8
01
 10
944.95170808472312
 20
160.21904447325909
 30
0.0
 11
944.95170808472312
 21
146.07160359112049
 31
0.0
  0
LINE
  5
9B8C
  8
01
 10
952.95170808471994
 20
160.2190444732561
 30
0.0
 11
952.95170808471994
 21
146.07160359112049
 31
0.0
  0
LINE
  5
9B8D
  8
01
 10
946.95170808472301
 20
147.07160359112049
 30
0.0
 11
950.95170808471994
 21
147.07160359112049
 31
0.0
  0
LINE
  5
9B91
  8
01
 10
952.95170808471994
 20
160.2190444732561
 30
0.0
 11
975.46643200878555
 21
160.2190444732561
 31
0.0
  0
LINE
  5
9B92
  8
01
 10
955.45170808471937
 20
177.21904447326449
 30
0.0
 11
975.46643200878555
 21
177.21904447326449
 31
0.0
  0
LINE
  5
9B93
  8
01
 10
974.46643200878555
 20
162.21904447325599
 30
0.0
 11
974.46643200878555
 21
175.21904447326449
 31
0.0
  0
SOLID
  5
9B97
  8
01
 10
910.58935373459906
 20
136.95343003268661
 30
0.0
 11
912.49740265225807
 21
137.63933122012639
 31
0.0
 12
910.91494595310178
 22
136.37167909655071
 32
0.0
 13
910.91494595310178
 23
136.37167909655071
 33
0.0
  0
TEXT
  5
9B99
  8
01
 10
880.90460339902245
 20
119.3330225728795
 30
0.0
 40
3.5
  1
W30～49の場合は6mm
  0
SOLID
  5
9B9A
  8
01
 10
824.28437541000676
 20
136.68129182940461
 30
0.0
 11
822.49740265225819
 21
137.63933122012679
 31
0.0
 12
824.49849776603855
 22
137.3126364746594
 32
0.0
 13
824.49849776603855
 23
137.3126364746594
 33
0.0
  0
LINE
  5
9B9C
  8
01
 10
817.49740265225796
 20
160.21904447325909
 30
0.0
 11
817.49740265225796
 21
136.63933122012679
 31
0.0
  0
LINE
  5
9B9D
  8
01
 10
827.49740265225807
 20
158.21904447325909
 30
0.0
 11
827.49740265225807
 21
136.63933122012679
 31
0.0
  0
LINE
  5
9B9E
  8
01
 10
819.49740265225807
 20
137.63933122012679
 30
0.0
 11
825.49740265225819
 21
137.63933122012679
 31
0.0
  0
LINE
  5
9BA2
  8
01
 10
907.49740265225819
 20
158.21904447325909
 30
0.0
 11
907.49740265225819
 21
136.63933122012639
 31
0.0
  0
LINE
  5
9BA3
  8
01
 10
917.49740265225819
 20
160.21904447325909
 30
0.0
 11
917.49740265225819
 21
136.63933122012639
 31
0.0
  0
LINE
  5
9BA4
  8
01
 10
909.49740265225819
 20
137.63933122012639
 30
0.0
 11
915.49740265225819
 21
137.63933122012639
 31
0.0
  0
LINE
  5
9BA8
  8
01
 10
1001.284184076193
 20
81.564037244214504
 30
0.0
 11
891.30359595720245
 21
81.564037244214504
 31
0.0
  0
LINE
  5
9BA9
  8
01
 10
891.30359595720245
 20
81.564037244214504
 30
0.0
 11
891.30359595720245
 21
45.1435345547292
 31
0.0
  0
LINE
  5
9BAA
  8
01
 10
891.30359595720245
 20
45.1435345547292
 30
0.0
 11
1001.284184076193
 21
45.1435345547292
 31
0.0
  0
LINE
  5
9BAB
  8
01
 10
1001.284184076193
 20
45.1435345547292
 30
0.0
 11
1001.284184076193
 21
81.564037244214504
 31
0.0
  0
LINE
  5
9BAC
  8
01
 10
905.34773039775575
 20
53.25418639766098
 30
0.0
 11
908.68069354457043
 21
53.25418639766098
 31
0.0
  0
LINE
  5
9BAD
  8
01
 10
908.68069354457043
 20
53.25418639766098
 30
0.0
 11
908.68069354457043
 21
49.92122325084636
 31
0.0
  0
LINE
  5
9BAE
  8
01
 10
908.68069354457043
 20
49.92122325084636
 30
0.0
 11
905.34773039775575
 21
49.92122325084636
 31
0.0
  0
LINE
  5
9BAF
  8
01
 10
905.34773039775575
 20
49.92122325084636
 30
0.0
 11
905.34773039775575
 21
53.25418639766098
 31
0.0
  0
LINE
  5
9BB0
  8
01
 10
903.95183235878096
 20
48.857583102590532
 30
0.0
 11
907.28479550559575
 21
48.857583102590532
 31
0.0
  0
LINE
  5
9BB1
  8
01
 10
907.28479550559575
 20
48.857583102590532
 30
0.0
 11
907.28479550559575
 21
45.524619955775897
 31
0.0
  0
LINE
  5
9BB2
  8
01
 10
907.28479550559575
 20
45.524619955775897
 30
0.0
 11
903.95183235878096
 21
45.524619955775897
 31
0.0
  0
LINE
  5
9BB3
  8
01
 10
903.95183235878096
 20
45.524619955775897
 30
0.0
 11
903.95183235878096
 21
48.857583102590532
 31
0.0
  0
LINE
  5
9BB4
  8
01
 10
905.34773039775575
 20
57.89213326537709
 30
0.0
 11
908.68069354457043
 21
57.89213326537709
 31
0.0
  0
LINE
  5
9BB5
  8
01
 10
908.68069354457043
 20
57.89213326537709
 30
0.0
 11
908.68069354457043
 21
54.55917011856247
 31
0.0
  0
LINE
  5
9BB6
  8
01
 10
908.68069354457043
 20
54.55917011856247
 30
0.0
 11
905.34773039775575
 21
54.55917011856247
 31
0.0
  0
LINE
  5
9BB7
  8
01
 10
905.34773039775575
 20
54.55917011856247
 30
0.0
 11
905.34773039775575
 21
57.89213326537709
 31
0.0
  0
LINE
  5
9BB8
  8
01
 10
905.34773039775575
 20
62.829863104024412
 30
0.0
 11
908.68069354457043
 21
62.829863104024412
 31
0.0
  0
LINE
  5
9BB9
  8
01
 10
908.68069354457043
 20
62.829863104024412
 30
0.0
 11
908.68069354457043
 21
59.496899957209791
 31
0.0
  0
LINE
  5
9BBA
  8
01
 10
908.68069354457043
 20
59.496899957209791
 30
0.0
 11
905.34773039775575
 21
59.496899957209791
 31
0.0
  0
LINE
  5
9BBB
  8
01
 10
905.34773039775575
 20
59.496899957209791
 30
0.0
 11
905.34773039775575
 21
62.829863104024412
 31
0.0
  0
LINE
  5
9BBC
  8
01
 10
906.68448960159083
 20
67.294006354316025
 30
0.0
 11
910.0174527484055
 21
67.294006354316025
 31
0.0
  0
LINE
  5
9BBD
  8
01
 10
910.0174527484055
 20
67.294006354316025
 30
0.0
 11
910.0174527484055
 21
63.961043207501397
 31
0.0
  0
LINE
  5
9BBE
  8
01
 10
910.0174527484055
 20
63.961043207501397
 30
0.0
 11
906.68448960159083
 21
63.961043207501397
 31
0.0
  0
LINE
  5
9BBF
  8
01
 10
906.68448960159083
 20
63.961043207501397
 30
0.0
 11
906.68448960159083
 21
67.294006354316025
 31
0.0
  0
LINE
  5
9BC0
  8
01
 10
906.68448960159083
 20
71.625879724541846
 30
0.0
 11
910.0174527484055
 21
71.625879724541846
 31
0.0
  0
LINE
  5
9BC1
  8
01
 10
910.0174527484055
 20
71.625879724541846
 30
0.0
 11
910.0174527484055
 21
68.292916577727226
 31
0.0
  0
LINE
  5
9BC2
  8
01
 10
910.0174527484055
 20
68.292916577727226
 30
0.0
 11
906.68448960159083
 21
68.292916577727226
 31
0.0
  0
LINE
  5
9BC3
  8
01
 10
906.68448960159083
 20
68.292916577727226
 30
0.0
 11
906.68448960159083
 21
71.625879724541846
 31
0.0
  0
LINE
  5
9BC4
  8
01
 10
846.16877162187438
 20
56.855567329802518
 30
0.0
 11
880.02299246404118
 21
56.855567329802518
 31
0.0
  0
LINE
  5
9BC5
  8
01
 10
880.02299246404118
 20
56.855567329802518
 30
0.0
 11
880.02299246404118
 21
42.855567329802533
 31
0.0
  0
LINE
  5
9BC6
  8
01
 10
880.02299246404118
 20
42.855567329802533
 30
0.0
 11
846.16877162187438
 21
42.855567329802533
 31
0.0
  0
LINE
  5
9BC7
  8
01
 10
846.16877162187438
 20
42.855567329802533
 30
0.0
 11
846.16877162187438
 21
56.855567329802518
 31
0.0
  0
LINE
  5
9BC8
  8
01
 10
830.83876291565855
 20
10.5392192672769
 30
0.0
 11
830.83876291565855
 21
38.53921926727692
 31
0.0
  0
LINE
  5
9BC9
  8
01
 10
830.83876291565855
 20
38.53921926727692
 30
0.0
 11
880.02299246404118
 21
38.53921926727692
 31
0.0
  0
LINE
  5
9BCA
  8
01
 10
880.02299246404118
 20
38.53921926727692
 30
0.0
 11
880.02299246404118
 21
10.5392192672769
 31
0.0
  0
LINE
  5
9BCB
  8
01
 10
830.24065432900909
 20
64.391912771154367
 30
0.0
 11
841.0019005658412
 21
64.391912771154367
 31
0.0
  0
LINE
  5
9BCC
  8
01
 10
841.0019005658412
 20
64.391912771154367
 30
0.0
 11
841.0019005658412
 21
59.338149474309731
 31
0.0
  0
LINE
  5
9BCD
  8
01
 10
841.0019005658412
 20
59.338149474309731
 30
0.0
 11
830.24065432900909
 21
59.338149474309731
 31
0.0
  0
LINE
  5
9BCE
  8
01
 10
830.24065432900909
 20
59.338149474309731
 30
0.0
 11
830.24065432900909
 21
64.391912771154367
 31
0.0
  0
LINE
  5
9BCF
  8
01
 10
825.97326327483063
 20
64.391912771154367
 30
0.0
 11
829.96234606718281
 21
64.391912771154367
 31
0.0
  0
LINE
  5
9BD0
  8
01
 10
829.96234606718281
 20
64.391912771154367
 30
0.0
 11
829.96234606718281
 21
59.338149474309731
 31
0.0
  0
LINE
  5
9BD1
  8
01
 10
829.96234606718281
 20
59.338149474309731
 30
0.0
 11
825.97326327483063
 21
59.338149474309731
 31
0.0
  0
LINE
  5
9BD2
  8
01
 10
825.97326327483063
 20
59.338149474309731
 30
0.0
 11
825.97326327483063
 21
64.391912771154367
 31
0.0
  0
LINE
  5
9BD3
  8
01
 10
882.20682278937829
 20
2.0640372442147732
 30
0.0
 11
800.21976404338409
 21
2.064037244214787
 31
0.0
  0
LINE
  5
9BD4
  8
01
 10
800.21976404338409
 20
2.064037244214787
 30
0.0
 11
800.21976404338409
 21
81.564037244214504
 31
0.0
  0
LINE
  5
9BD5
  8
01
 10
800.21976404338409
 20
81.564037244214504
 30
0.0
 11
882.20682278937829
 21
81.564037244214504
 31
0.0
  0
LINE
  5
9BD6
  8
01
 10
882.20682278937829
 20
81.564037244214504
 30
0.0
 11
882.20682278937829
 21
2.0640372442147732
 31
0.0
  0
LINE
  5
9BD7
  8
01
 10
827.49740265225807
 20
158.21904447325909
 30
0.0
 11
827.49740265225807
 21
136.63933122012639
 31
0.0
  0
LINE
  5
9BD8
  8
01
 10
907.49740265225819
 20
158.21904447325909
 30
0.0
 11
907.49740265225819
 21
136.63933122012639
 31
0.0
  0
LINE
  5
9BD9
  8
01
 10
829.49740265225807
 20
137.63933122012639
 30
0.0
 11
905.49740265225819
 21
137.63933122012639
 31
0.0
  0
LINE
  5
9BDD
  8
01
 10
817.49740265225796
 20
160.21904447325909
 30
0.0
 11
817.49740265225796
 21
128.21904447325889
 31
0.0
  0
LINE
  5
9BDE
  8
01
 10
917.49740265225819
 20
160.21904447325909
 30
0.0
 11
917.49740265225819
 21
128.21904447325889
 31
0.0
  0
LINE
  5
9BDF
  8
01
 10
819.49740265225807
 20
129.21904447325889
 30
0.0
 11
915.49740265225819
 21
129.21904447325889
 31
0.0
  0
TEXT
  5
9BE3
  8
01
 10
862.01406931892495
 20
129.91904447325891
 30
0.0
 40
3.5
  1
L寸法
  0
LINE
  5
9BE4
  8
01
  6
BYBLOCK
 10
915.49740265225819
 20
129.75494285325891
 30
0.0
 11
917.49740265225819
 21
129.21904447325889
 31
0.0
  0
LINE
  5
9BE5
  8
01
  6
BYBLOCK
 10
917.49740265225819
 20
129.21904447325889
 30
0.0
 11
915.49740265225819
 21
128.6831460932589
 31
0.0
  0
LINE
  5
9BE6
  8
01
  6
BYBLOCK
 10
917.49740265225819
 20
129.21904447325889
 30
0.0
 11
915.49740265225819
 21
129.21904447325889
 31
0.0
  0
LINE
  5
9BE7
  8
01
  6
BYBLOCK
 10
819.49740265225807
 20
128.6831460932589
 30
0.0
 11
817.49740265225796
 21
129.21904447325889
 31
0.0
  0
LINE
  5
9BE8
  8
01
  6
BYBLOCK
 10
817.49740265225796
 20
129.21904447325889
 30
0.0
 11
819.49740265225807
 21
129.75494285325891
 31
0.0
  0
LINE
  5
9BE9
  8
01
  6
BYBLOCK
 10
817.49740265225796
 20
129.21904447325889
 30
0.0
 11
819.49740265225807
 21
129.21904447325889
 31
0.0
  0
TEXT
  5
9BEA
  8
01
 10
837.79463301414648
 20
138.33933122012641
 30
0.0
 40
3.5
  1
穴数は表による　ピッチは均等割
  0
LINE
  5
9BEB
  8
01
  6
BYBLOCK
 10
905.49740265225819
 20
138.17522960012641
 30
0.0
 11
907.49740265225819
 21
137.63933122012639
 31
0.0
  0
LINE
  5
9BEC
  8
01
  6
BYBLOCK
 10
907.49740265225819
 20
137.63933122012639
 30
0.0
 11
905.49740265225819
 21
137.1034328401264
 31
0.0
  0
LINE
  5
9BED
  8
01
  6
BYBLOCK
 10
907.49740265225819
 20
137.63933122012639
 30
0.0
 11
905.49740265225819
 21
137.63933122012639
 31
0.0
  0
LINE
  5
9BEE
  8
01
  6
BYBLOCK
 10
829.49740265225807
 20
137.1034328401264
 30
0.0
 11
827.49740265225807
 21
137.63933122012639
 31
0.0
  0
LINE
  5
9BEF
  8
01
  6
BYBLOCK
 10
827.49740265225807
 20
137.63933122012639
 30
0.0
 11
829.49740265225807
 21
138.17522960012641
 31
0.0
  0
LINE
  5
9BF0
  8
01
  6
BYBLOCK
 10
827.49740265225807
 20
137.63933122012639
 30
0.0
 11
829.49740265225807
 21
137.63933122012639
 31
0.0
  0
TEXT
  5
9BF1
  8
01
 10
908.91406931892482
 20
138.33933122012641
 30
0.0
 40
3.5
  1
10
  0
LINE
  5
9BF2
  8
01
  6
BYBLOCK
 10
915.49740265225819
 20
138.17522960012641
 30
0.0
 11
917.49740265225819
 21
137.63933122012639
 31
0.0
  0
LINE
  5
9BF3
  8
01
  6
BYBLOCK
 10
917.49740265225819
 20
137.63933122012639
 30
0.0
 11
915.49740265225819
 21
137.1034328401264
 31
0.0
  0
LINE
  5
9BF4
  8
01
  6
BYBLOCK
 10
917.49740265225819
 20
137.63933122012639
 30
0.0
 11
915.49740265225819
 21
137.63933122012639
 31
0.0
  0
LINE
  5
9BF5
  8
01
  6
BYBLOCK
 10
909.49740265225819
 20
137.1034328401264
 30
0.0
 11
907.49740265225819
 21
137.63933122012639
 31
0.0
  0
LINE
  5
9BF6
  8
01
  6
BYBLOCK
 10
907.49740265225819
 20
137.63933122012639
 30
0.0
 11
909.49740265225819
 21
138.17522960012641
 31
0.0
  0
LINE
  5
9BF7
  8
01
  6
BYBLOCK
 10
907.49740265225819
 20
137.63933122012639
 30
0.0
 11
909.49740265225819
 21
137.63933122012639
 31
0.0
  0
TEXT
  5
9BF8
  8
01
 10
818.91406931892482
 20
138.33933122012681
 30
0.0
 40
3.5
  1
10
  0
LINE
  5
9BF9
  8
01
  6
BYBLOCK
 10
825.49740265225819
 20
138.17522960012681
 30
0.0
 11
827.49740265225807
 21
137.63933122012679
 31
0.0
  0
LINE
  5
9BFA
  8
01
  6
BYBLOCK
 10
827.49740265225807
 20
137.63933122012679
 30
0.0
 11
825.49740265225819
 21
137.1034328401268
 31
0.0
  0
LINE
  5
9BFB
  8
01
  6
BYBLOCK
 10
827.49740265225807
 20
137.63933122012679
 30
0.0
 11
825.49740265225819
 21
137.63933122012679
 31
0.0
  0
LINE
  5
9BFC
  8
01
  6
BYBLOCK
 10
819.49740265225807
 20
137.1034328401268
 30
0.0
 11
817.49740265225796
 21
137.63933122012679
 31
0.0
  0
LINE
  5
9BFD
  8
01
  6
BYBLOCK
 10
817.49740265225796
 20
137.63933122012679
 30
0.0
 11
819.49740265225807
 21
138.17522960012681
 31
0.0
  0
LINE
  5
9BFE
  8
01
  6
BYBLOCK
 10
817.49740265225796
 20
137.63933122012679
 30
0.0
 11
819.49740265225807
 21
137.63933122012679
 31
0.0
  0
LINE
  5
9BFF
  8
01
 10
824.39143658802254
 20
136.99696415203189
 30
0.0
 11
878.53793673235566
 21
118.6330225728795
 31
0.0
  0
LINE
  5
9C00
  8
01
 10
878.53793673235566
 20
118.6330225728795
 30
0.0
 11
931.90460339902245
 21
118.6330225728795
 31
0.0
  0
LINE
  5
9C01
  8
01
 10
910.75214984385036
 20
136.66255456461869
 30
0.0
 11
878.53793673235566
 21
118.6330225728795
 31
0.0
  0
TEXT
  5
9C02
  8
01
 10
973.76643200878573
 20
165.13571113992711
 30
0.0
 40
3.5
  1
17
 50
90.0
  0
LINE
  5
9C03
  8
01
  6
BYBLOCK
 10
973.93053362878561
 20
175.21904447326449
 30
0.0
 11
974.46643200878555
 21
177.21904447326449
 31
0.0
  0
LINE
  5
9C04
  8
01
  6
BYBLOCK
 10
974.46643200878555
 20
177.21904447326449
 30
0.0
 11
975.00233038878571
 21
175.21904447326449
 31
0.0
  0
LINE
  5
9C05
  8
01
  6
BYBLOCK
 10
974.46643200878555
 20
177.21904447326449
 30
0.0
 11
974.46643200878555
 21
175.21904447326449
 31
0.0
  0
LINE
  5
9C06
  8
01
  6
BYBLOCK
 10
975.00233038878571
 20
162.21904447325599
 30
0.0
 11
974.46643200878555
 21
160.2190444732561
 31
0.0
  0
LINE
  5
9C07
  8
01
  6
BYBLOCK
 10
974.46643200878555
 20
160.2190444732561
 30
0.0
 11
973.93053362878561
 21
162.21904447325599
 31
0.0
  0
LINE
  5
9C08
  8
01
  6
BYBLOCK
 10
974.46643200878555
 20
160.2190444732561
 30
0.0
 11
974.46643200878555
 21
162.21904447325599
 31
0.0
  0
TEXT
  5
9C09
  8
01
 10
947.28504141805479
 20
147.77160359112051
 30
0.0
 40
3.5
  1
8
  0
LINE
  5
9C0A
  8
01
  6
BYBLOCK
 10
950.95170808471994
 20
147.60750197112051
 30
0.0
 11
952.95170808471994
 21
147.07160359112049
 31
0.0
  0
LINE
  5
9C0B
  8
01
  6
BYBLOCK
 10
952.95170808471994
 20
147.07160359112049
 30
0.0
 11
950.95170808471994
 21
146.5357052111205
 31
0.0
  0
LINE
  5
9C0C
  8
01
  6
BYBLOCK
 10
952.95170808471994
 20
147.07160359112049
 30
0.0
 11
950.95170808471994
 21
147.07160359112049
 31
0.0
  0
LINE
  5
9C0D
  8
01
  6
BYBLOCK
 10
946.95170808472301
 20
146.5357052111205
 30
0.0
 11
944.95170808472312
 21
147.07160359112049
 31
0.0
  0
LINE
  5
9C0E
  8
01
  6
BYBLOCK
 10
944.95170808472312
 20
147.07160359112049
 30
0.0
 11
946.95170808472301
 21
147.60750197112051
 31
0.0
  0
LINE
  5
9C0F
  8
01
  6
BYBLOCK
 10
944.95170808472312
 20
147.07160359112049
 30
0.0
 11
946.95170808472301
 21
147.07160359112049
 31
0.0
  0
TEXT
  5
9C10
  8
01
 10
926.14967534650782
 20
205.94072985755449
 30
0.0
 40
3.5
  1
15
 50
90.0
  0
LINE
  5
9C11
  8
01
  6
BYBLOCK
 10
926.31377696650782
 20
215.02406319088769
 30
0.0
 11
926.84967534650787
 21
217.02406319088769
 31
0.0
  0
LINE
  5
9C12
  8
01
  6
BYBLOCK
 10
926.84967534650787
 20
217.02406319088769
 30
0.0
 11
927.3855737265078
 21
215.02406319088769
 31
0.0
  0
LINE
  5
9C13
  8
01
  6
BYBLOCK
 10
926.84967534650787
 20
217.02406319088769
 30
0.0
 11
926.84967534650787
 21
215.02406319088769
 31
0.0
  0
LINE
  5
9C14
  8
01
  6
BYBLOCK
 10
927.3855737265078
 20
204.0240631908878
 30
0.0
 11
926.84967534650787
 21
202.0240631908878
 31
0.0
  0
LINE
  5
9C15
  8
01
  6
BYBLOCK
 10
926.84967534650787
 20
202.0240631908878
 30
0.0
 11
926.31377696650782
 21
204.0240631908878
 31
0.0
  0
LINE
  5
9C16
  8
01
  6
BYBLOCK
 10
926.84967534650787
 20
202.0240631908878
 30
0.0
 11
926.84967534650787
 21
204.0240631908878
 31
0.0
  0
TEXT
  5
9C17
  8
01
 10
963.20194682316708
 20
181.41904447326471
 30
0.0
 40
3.5
  1
2
 50
90.0
  0
LINE
  5
9C18
  8
01
  6
BYBLOCK
 10
964.43784520316717
 20
179.21904447326449
 30
0.0
 11
963.90194682316735
 21
177.21904447326449
 31
0.0
  0
LINE
  5
9C19
  8
01
  6
BYBLOCK
 10
963.90194682316735
 20
177.21904447326449
 30
0.0
 11
963.36604844316719
 21
179.21904447326449
 31
0.0
  0
LINE
  5
9C1A
  8
01
  6
BYBLOCK
 10
963.90194682316735
 20
177.21904447326449
 30
0.0
 11
963.90194682316735
 21
179.21904447326449
 31
0.0
  0
LINE
  5
9C1B
  8
01
  6
BYBLOCK
 10
963.36604844316719
 20
173.21904447326449
 30
0.0
 11
963.90194682316735
 21
175.21904447326449
 31
0.0
  0
LINE
  5
9C1C
  8
01
  6
BYBLOCK
 10
963.90194682316735
 20
175.21904447326449
 30
0.0
 11
964.43784520316717
 21
173.21904447326449
 31
0.0
  0
LINE
  5
9C1D
  8
01
  6
BYBLOCK
 10
963.90194682316735
 20
175.21904447326449
 30
0.0
 11
963.90194682316735
 21
173.21904447326449
 31
0.0
  0
LINE
  5
9C1E
  8
01
 10
950.51056514246579
 20
158.4970771720516
 30
0.0
 11
961.78537487380686
 21
145.9780805147212
 31
0.0
  0
LINE
  5
9C1F
  8
01
 10
961.78537487380686
 20
145.9780805147212
 30
0.0
 11
978.31870820714028
 21
145.9780805147212
 31
0.0
  0
TEXT
  5
9C20
  8
01
 10
963.20194682316708
 20
164.13571113992859
 30
0.0
 40
3.5
  1
15
 50
90.0
  0
LINE
  5
9C21
  8
01
  6
BYBLOCK
 10
964.43784520316717
 20
162.219044473259
 30
0.0
 11
963.90194682316735
 21
160.219044473259
 31
0.0
  0
LINE
  5
9C22
  8
01
  6
BYBLOCK
 10
963.90194682316735
 20
160.219044473259
 30
0.0
 11
963.36604844316719
 21
162.219044473259
 31
0.0
  0
LINE
  5
9C23
  8
01
  6
BYBLOCK
 10
963.90194682316735
 20
160.219044473259
 30
0.0
 11
963.90194682316735
 21
162.219044473259
 31
0.0
  0
LINE
  5
9C24
  8
01
  6
BYBLOCK
 10
963.36604844316719
 20
173.21904447326449
 30
0.0
 11
963.90194682316735
 21
175.21904447326449
 31
0.0
  0
LINE
  5
9C25
  8
01
  6
BYBLOCK
 10
963.90194682316735
 20
175.21904447326449
 30
0.0
 11
964.43784520316717
 21
173.21904447326449
 31
0.0
  0
LINE
  5
9C26
  8
01
  6
BYBLOCK
 10
963.90194682316735
 20
175.21904447326449
 30
0.0
 11
963.90194682316735
 21
173.21904447326449
 31
0.0
  0
VIEWPORT
  5
57
 67
     1
  8
0
 10
-12.73053481970658
 20
10.097919124610311
 30
0.0
 40
405.28174060821431
 41
286.95394669849458
 68
     1
 69
     1
1001
ACAD
1000
MVIEW
1002
{
1070
    16
1010
0.0
1020
0.0
1030
0.0
1010
0.0
1020
0.0
1030
1.0
1040
0.0
1040
286.95394669849458
1040
-12.73053481970658
1040
10.097919124610311
1040
50.0
1040
0.0
1040
0.0
1070
     0
1070
   100
1070
     1
1070
     1
1070
     0
1070
     0
1070
     0
1070
     0
1040
0.0
1040
0.0
1040
0.0
1040
10.0
1040
10.0
1040
10.0
1040
10.0
1070
     0
1002
{
1002
}
1002
}
  0
ENDSEC
  0
EOF
