  0
SECTION
  2
HEADER
  9
$ACADVER
  1
AC1009
  9
$INSBASE
 10
0.0
 20
0.0
 30
0.0
  9
$EXTMIN
 10
-529.19010000000003
 20
-2541.2766000000001
 30
0.0
  9
$EXTMAX
 10
62.809899999999999
 20
-2334.2768999999989
 30
0.0
  9
$LIMMIN
 10
0.0
 20
0.0
  9
$LIMMAX
 10
420.0
 20
297.0
  9
$ORTHOMODE
 70
     0
  9
$REGENMODE
 70
     1
  9
$FILLMODE
 70
     1
  9
$QTEXTMODE
 70
     0
  9
$MIRRTEXT
 70
     1
  9
$DRAGMODE
 70
     2
  9
$LTSCALE
 40
0.5
  9
$OSMODE
 70
  2173
  9
$ATTMODE
 70
     1
  9
$TEXTSIZE
 40
4.0
  9
$TRACEWID
 40
1.0
  9
$TEXTSTYLE
  7
STANDARD
  9
$CLAYER
  8
1TEXT
  9
$CELTYPE
  6
BYLAYER
  9
$CECOLOR
 62
   256
  9
$DIMSCALE
 40
1.0
  9
$DIMASZ
 40
2.0
  9
$DIMEXO
 40
0.0
  9
$DIMDLI
 40
7.0
  9
$DIMRND
 40
0.0
  9
$DIMDLE
 40
0.0
  9
$DIMEXE
 40
1.0
  9
$DIMTP
 40
0.0
  9
$DIMTM
 40
0.0
  9
$DIMTXT
 40
3.5
  9
$DIMCEN
 40
0.0
  9
$DIMTSZ
 40
0.0
  9
$DIMTOL
 70
     0
  9
$DIMLIM
 70
     0
  9
$DIMTIH
 70
     0
  9
$DIMTOH
 70
     0
  9
$DIMSE1
 70
     0
  9
$DIMSE2
 70
     0
  9
$DIMTAD
 70
     1
  9
$DIMZIN
 70
     8
  9
$DIMBLK
  1

  9
$DIMASO
 70
     1
  9
$DIMSHO
 70
     1
  9
$DIMPOST
  1
 
  9
$DIMAPOST
  1

  9
$DIMALT
 70
     0
  9
$DIMALTD
 70
     2
  9
$DIMALTF
 40
25.399999999999999
  9
$DIMLFAC
 40
1.0
  9
$DIMTOFL
 70
     1
  9
$DIMTVP
 40
0.0
  9
$DIMTIX
 70
     0
  9
$DIMSOXD
 70
     0
  9
$DIMSAH
 70
     1
  9
$DIMBLK1
  1
OPEN30
  9
$DIMBLK2
  1
OPEN30
  9
$DIMSTYLE
  2
NEWX10
  9
$DIMCLRD
 70
   256
  9
$DIMCLRE
 70
   256
  9
$DIMCLRT
 70
   201
  9
$DIMTFAC
 40
0.7
  9
$DIMGAP
 40
0.7
  9
$LUNITS
 70
     2
  9
$LUPREC
 70
     4
  9
$SKETCHINC
 40
1.0
  9
$FILLETRAD
 40
0.0
  9
$AUNITS
 70
     0
  9
$AUPREC
 70
     2
  9
$MENU
  1
acad
  9
$ELEVATION
 40
0.0
  9
$PELEVATION
 40
0.0
  9
$THICKNESS
 40
0.0
  9
$LIMCHECK
 70
     0
  9
$BLIPMODE
 70
     0
  9
$CHAMFERA
 40
10.0
  9
$CHAMFERB
 40
10.0
  9
$SKPOLY
 70
     0
  9
$TDCREATE
 40
2453033.7327000001
  9
$TDUPDATE
 40
2453335.492633461
  9
$TDINDWG
 40
0.2274262269
  9
$TDUSRTIMER
 40
0.2274262269
  9
$USRTIMER
 70
     1
  9
$ANGBASE
 50
0.0
  9
$ANGDIR
 70
     0
  9
$PDMODE
 70
     0
  9
$PDSIZE
 40
0.0
  9
$PLINEWID
 40
0.0
  9
$COORDS
 70
     2
  9
$SPLFRAME
 70
     0
  9
$SPLINETYPE
 70
     6
  9
$SPLINESEGS
 70
     8
  9
$ATTDIA
 70
     0
  9
$ATTREQ
 70
     1
  9
$HANDLING
 70
     1
  9
$HANDSEED
  5
8F4B
  9
$SURFTAB1
 70
     6
  9
$SURFTAB2
 70
     6
  9
$SURFTYPE
 70
     6
  9
$SURFU
 70
     6
  9
$SURFV
 70
     6
  9
$UCSNAME
  2

  9
$UCSORG
 10
0.0
 20
0.0
 30
0.0
  9
$UCSXDIR
 10
1.0
 20
0.0
 30
0.0
  9
$UCSYDIR
 10
0.0
 20
1.0
 30
0.0
  9
$PUCSNAME
  2

  9
$PUCSORG
 10
0.0
 20
0.0
 30
0.0
  9
$PUCSXDIR
 10
1.0
 20
0.0
 30
0.0
  9
$PUCSYDIR
 10
0.0
 20
1.0
 30
0.0
  9
$USERI1
 70
     0
  9
$USERI2
 70
     0
  9
$USERI3
 70
     0
  9
$USERI4
 70
     0
  9
$USERI5
 70
     0
  9
$USERR1
 40
0.0
  9
$USERR2
 40
0.0
  9
$USERR3
 40
0.0
  9
$USERR4
 40
0.0
  9
$USERR5
 40
0.0
  9
$WORLDVIEW
 70
     1
  9
$SHADEDGE
 70
     3
  9
$SHADEDIF
 70
    70
  9
$TILEMODE
 70
     1
  9
$MAXACTVP
 70
    48
  9
$PLIMCHECK
 70
     0
  9
$PEXTMIN
 10
1.0000000000000000E+020
 20
1.0000000000000000E+020
 30
1.0000000000000000E+020
  9
$PEXTMAX
 10
-1.0000000000000000E+020
 20
-1.0000000000000000E+020
 30
-1.0000000000000000E+020
  9
$PLIMMIN
 10
0.0
 20
0.0
  9
$PLIMMAX
 10
420.0
 20
297.0
  9
$UNITMODE
 70
     0
  9
$VISRETAIN
 70
     1
  9
$PLINEGEN
 70
     0
  9
$PSLTSCALE
 70
     1
  0
ENDSEC
  0
SECTION
  2
TABLES
  0
TABLE
  2
VPORT
 70
     4
  0
VPORT
  2
*ACTIVE
 70
     0
 10
0.0
 20
0.0
 11
1.0
 21
1.0
 12
-233.1901
 22
-2437.77675
 13
0.0
 23
0.0
 14
10.0
 24
10.0
 15
10.0
 25
10.0
 16
0.0
 26
0.0
 36
1.0
 17
0.0
 27
0.0
 37
0.0
 40
431.10014783873538
 41
1.453246753246753
 42
50.0
 43
0.0
 44
0.0
 50
0.0
 51
0.0
 71
     0
 72
   100
 73
     1
 74
     1
 75
     0
 76
     0
 77
     0
 78
     0
  0
ENDTAB
  0
TABLE
  2
LTYPE
 70
     4
  0
LTYPE
  2
CONTINUOUS
 70
     0
  3
Solid line
 72
    65
 73
     0
 40
0.0
  0
LTYPE
  2
CENTER2
 70
     0
  3
Center (.5x) ___ _ ___ _ ___ _ ___ _ ___ _ ___
 72
    65
 73
     4
 40
28.574999999999999
 49
19.050000000000001
 49
-3.1749999999999989
 49
3.1749999999999989
 49
-3.1749999999999989
  0
ENDTAB
  0
TABLE
  2
LAYER
 70
    11
  0
LAYER
  2
0
 70
     0
 62
     7
  6
CONTINUOUS
  0
LAYER
  2
1TEXT
 70
     0
 62
     7
  6
CONTINUOUS
  0
LAYER
  2
1CENTER
 70
     0
 62
     7
  6
CENTER2
  0
LAYER
  2
1DIM
 70
     0
 62
     7
  6
CONTINUOUS
  0
LAYER
  2
01
 70
     0
 62
     1
  6
CONTINUOUS
  0
ENDTAB
  0
TABLE
  2
STYLE
 70
     1
  0
STYLE
  2
STANDARD
 70
     0
 40
0.0
 41
1.0
 50
0.0
 71
     0
 42
4.0
  3
txt.shx
  4
extfont.shx
  0
ENDTAB
  0
TABLE
  2
VIEW
 70
     0
  0
ENDTAB
  0
TABLE
  2
UCS
 70
     0
  0
ENDTAB
  0
TABLE
  2
APPID
 70
     9
  0
APPID
  2
ACAD
 70
     0
  0
APPID
  2
DRAWINGVARIABLESXDATA
 70
     0
  0
APPID
  2
CONTENTTABDATA
 70
     0
  0
APPID
  2
CONTENTCURRENTTAB
 70
     0
  0
APPID
  2
CONTENTBLOCKDESCRIPTION
 70
     0
  0
APPID
  2
CONTENTBLOCKICON
 70
     0
  0
APPID
  2
CONTENTLONGBLOCKNAME
 70
     0
  0
APPID
  2
ACAD_PSEXT
 70
     0
  0
APPID
  2
ACAD_DSTYLE_DIMTEXT_FILL
 70
     0
  0
ENDTAB
  0
TABLE
  2
DIMSTYLE
 70
     1
  0
DIMSTYLE
  2
NEWX10
 70
     0
  3
 
  4

  5

  6

  7

 40
1.0
 41
2.0
 42
0.0
 43
7.0
 44
1.0
 45
0.0
 46
0.0
 47
0.0
 48
0.0
140
3.5
141
0.0
142
0.0
143
25.399999999999999
144
1.0
145
0.0
146
0.7
147
0.7
 71
     0
 72
     0
 73
     0
 74
     0
 75
     0
 76
     0
 77
     1
 78
     8
170
     0
171
     2
172
     1
173
     1
174
     0
175
     0
176
   256
177
   256
178
   201
  0
ENDTAB
  0
ENDSEC
  0
SECTION
  2
BLOCKS
  0
BLOCK
  8
0
  2
$MODEL_SPACE
 70
     0
 10
0.0
 20
0.0
 30
0.0
  3
$MODEL_SPACE
  1

  0
ENDBLK
  5
8AB2
  8
0
  0
BLOCK
 67
     1
  8
0
  2
$PAPER_SPACE
 70
     0
 10
0.0
 20
0.0
 30
0.0
  3
$PAPER_SPACE
  1

  0
ENDBLK
  5
8AAE
 67
     1
  8
0
  0
BLOCK
  8
0
  2
_OPEN30
 70
     0
 10
0.0
 20
0.0
 30
0.0
  3
_OPEN30
  1

  0
LINE
  5
44
  8
0
  6
BYBLOCK
 62
     0
 10
-1.0
 20
0.2679
 30
0.0
 11
0.0
 21
0.0
 31
0.0
  0
LINE
  5
45
  8
0
  6
BYBLOCK
 62
     0
 10
0.0
 20
0.0
 30
0.0
 11
-1.0
 21
-0.2679
 31
0.0
  0
LINE
  5
46
  8
0
  6
BYBLOCK
 62
     0
 10
0.0
 20
0.0
 30
0.0
 11
-1.0
 21
0.0
 31
0.0
  0
ENDBLK
  5
47
  8
0
  0
ENDSEC
  0
SECTION
  2
ENTITIES
  0
LINE
  5
8D17
  8
01
 10
-528.69010000000003
 20
-2434.276800000001
 30
0.0
 11
10.309900000000001
 21
-2434.276800000001
 31
0.0
  0
LINE
  5
8D18
  8
01
 10
10.809900000000001
 20
-2434.7768999999998
 30
0.0
 11
10.809900000000001
 21
-2445.7767000000008
 31
0.0
  0
LINE
  5
8D19
  8
01
 10
10.809900000000001
 20
-2434.7768999999998
 30
0.0
 11
10.309900000000001
 21
-2434.276800000001
 31
0.0
  0
LINE
  5
8D1A
  8
01
 10
10.309900000000001
 20
-2434.276800000001
 30
0.0
 11
10.309900000000001
 21
-2446.2768000000001
 31
0.0
  0
LINE
  5
8D1B
  8
01
 10
-4.1901000000000002
 20
-2467.2768000000001
 30
0.0
 11
-4.1901000000000002
 21
-2446.2768000000001
 31
0.0
  0
LINE
  5
8D1C
  8
01
 10
-14.190099999999999
 20
-2467.2768000000001
 30
0.0
 11
-14.190099999999999
 21
-2446.2768000000001
 31
0.0
  0
LINE
  5
8D1D
  8
01
 10
-14.190099999999999
 20
-2467.2768000000001
 30
0.0
 11
-4.1901000000000002
 21
-2467.2768000000001
 31
0.0
  0
LINE
  5
8D1E
  8
01
 10
61.809899999999999
 20
-2467.2768000000001
 30
0.0
 11
51.809899999999999
 21
-2467.2768000000001
 31
0.0
  0
LINE
  5
8D1F
  8
01
 10
61.809899999999999
 20
-2443.5936000000002
 30
0.0
 11
61.809899999999999
 21
-2467.2768000000001
 31
0.0
  0
LINE
  5
8D20
  8
01
 10
51.809899999999999
 20
-2443.5936000000002
 30
0.0
 11
51.809899999999999
 21
-2467.2768000000001
 31
0.0
  0
POLYLINE
  5
8D21
  8
01
 66
     1
 10
0.0
 20
0.0
 30
0.0
 70
     8
  0
VERTEX
  5
8D22
  8
01
 10
-4.1901000000000002
 20
-2446.2779999999998
 30
0.0
 70
    32
  0
VERTEX
  5
8D23
  8
01
 10
-4.2388899999999996
 20
-2446.1970000000001
 30
0.0
 70
    32
  0
VERTEX
  5
8D24
  8
01
 10
-4.2889699999999991
 20
-2446.116
 30
0.0
 70
    32
  0
VERTEX
  5
8D25
  8
01
 10
-4.3403199999999993
 20
-2446.038
 30
0.0
 70
    32
  0
VERTEX
  5
8D26
  8
01
 10
-4.3929400000000003
 20
-2445.96
 30
0.0
 70
    32
  0
VERTEX
  5
8D27
  8
01
 10
-4.4468100000000002
 20
-2445.8850000000002
 30
0.0
 70
    32
  0
VERTEX
  5
8D28
  8
01
 10
-4.5019200000000001
 20
-2445.8069999999998
 30
0.0
 70
    32
  0
VERTEX
  5
8D29
  8
01
 10
-4.5582399999999996
 20
-2445.732
 30
0.0
 70
    32
  0
VERTEX
  5
8D2A
  8
01
 10
-4.6157699999999986
 20
-2445.6570000000002
 30
0.0
 70
    32
  0
VERTEX
  5
8D2B
  8
01
 10
-4.6744899999999996
 20
-2445.585
 30
0.0
 70
    32
  0
VERTEX
  5
8D2C
  8
01
 10
-4.7343900000000003
 20
-2445.5129999999999
 30
0.0
 70
    32
  0
VERTEX
  5
8D2D
  8
01
 10
-4.7954499999999989
 20
-2445.4409999999998
 30
0.0
 70
    32
  0
VERTEX
  5
8D2E
  8
01
 10
-4.8576600000000001
 20
-2445.3719999999998
 30
0.0
 70
    32
  0
VERTEX
  5
8D2F
  8
01
 10
-4.9209899999999989
 20
-2445.3000000000002
 30
0.0
 70
    32
  0
VERTEX
  5
8D30
  8
01
 10
-4.98543
 20
-2445.2339999999999
 30
0.0
 70
    32
  0
VERTEX
  5
8D31
  8
01
 10
-5.0509699999999986
 20
-2445.165
 30
0.0
 70
    32
  0
VERTEX
  5
8D32
  8
01
 10
-5.117589999999999
 20
-2445.0990000000002
 30
0.0
 70
    32
  0
VERTEX
  5
8D33
  8
01
 10
-5.18527
 20
-2445.0329999999999
 30
0.0
 70
    32
  0
VERTEX
  5
8D34
  8
01
 10
-5.253989999999999
 20
-2444.9699999999998
 30
0.0
 70
    32
  0
VERTEX
  5
8D35
  8
01
 10
-5.323739999999999
 20
-2444.9070000000002
 30
0.0
 70
    32
  0
VERTEX
  5
8D36
  8
01
 10
-5.3944900000000002
 20
-2444.8440000000001
 30
0.0
 70
    32
  0
VERTEX
  5
8D37
  8
01
 10
-5.4662399999999991
 20
-2444.7840000000001
 30
0.0
 70
    32
  0
VERTEX
  5
8D38
  8
01
 10
-5.5389499999999989
 20
-2444.7240000000002
 30
0.0
 70
    32
  0
VERTEX
  5
8D39
  8
01
 10
-5.6126100000000001
 20
-2444.666999999999
 30
0.0
 70
    32
  0
VERTEX
  5
8D3A
  8
01
 10
-5.6872099999999994
 20
-2444.6100000000001
 30
0.0
 70
    32
  0
VERTEX
  5
8D3B
  8
01
 10
-5.762719999999999
 20
-2444.5530000000008
 30
0.0
 70
    32
  0
VERTEX
  5
8D3C
  8
01
 10
-5.8391199999999994
 20
-2444.4989999999998
 30
0.0
 70
    32
  0
VERTEX
  5
8D3D
  8
01
 10
-5.9163899999999989
 20
-2444.4450000000002
 30
0.0
 70
    32
  0
VERTEX
  5
8D3E
  8
01
 10
-5.9945199999999987
 20
-2444.3939999999998
 30
0.0
 70
    32
  0
VERTEX
  5
8D3F
  8
01
 10
-6.0734699999999986
 20
-2444.3429999999998
 30
0.0
 70
    32
  0
VERTEX
  5
8D40
  8
01
 10
-6.1532400000000003
 20
-2444.291999999999
 30
0.0
 70
    32
  0
VERTEX
  5
8D41
  8
01
 10
-6.2338100000000001
 20
-2444.2440000000001
 30
0.0
 70
    32
  0
VERTEX
  5
8D42
  8
01
 10
-6.3151400000000004
 20
-2444.1959999999999
 30
0.0
 70
    32
  0
VERTEX
  5
8D43
  8
01
 10
-6.397219999999999
 20
-2444.1509999999998
 30
0.0
 70
    32
  0
VERTEX
  5
8D44
  8
01
 10
-6.4800199999999988
 20
-2444.1060000000002
 30
0.0
 70
    32
  0
VERTEX
  5
8D45
  8
01
 10
-6.5635399999999988
 20
-2444.0639999999999
 30
0.0
 70
    32
  0
VERTEX
  5
8D46
  8
01
 10
-6.6477399999999989
 20
-2444.0219999999999
 30
0.0
 70
    32
  0
VERTEX
  5
8D47
  8
01
 10
-6.7325999999999988
 20
-2443.9830000000002
 30
0.0
 70
    32
  0
VERTEX
  5
8D48
  8
01
 10
-6.8180899999999989
 20
-2443.944
 30
0.0
 70
    32
  0
VERTEX
  5
8D49
  8
01
 10
-6.90421
 20
-2443.9050000000002
 30
0.0
 70
    32
  0
VERTEX
  5
8D4A
  8
01
 10
-6.9909299999999996
 20
-2443.8690000000001
 30
0.0
 70
    32
  0
VERTEX
  5
8D4B
  8
01
 10
-7.0782100000000003
 20
-2443.8359999999998
 30
0.0
 70
    32
  0
VERTEX
  5
8D4C
  8
01
 10
-7.1660500000000003
 20
-2443.8000000000002
 30
0.0
 70
    32
  0
VERTEX
  5
8D4D
  8
01
 10
-7.25441
 20
-2443.77
 30
0.0
 70
    32
  0
VERTEX
  5
8D4E
  8
01
 10
-7.34328
 20
-2443.7399999999998
 30
0.0
 70
    32
  0
VERTEX
  5
8D4F
  8
01
 10
-7.4326299999999996
 20
-2443.71
 30
0.0
 70
    32
  0
VERTEX
  5
8D50
  8
01
 10
-7.5224299999999991
 20
-2443.683
 30
0.0
 70
    32
  0
VERTEX
  5
8D51
  8
01
 10
-7.6126699999999987
 20
-2443.6559999999999
 30
0.0
 70
    32
  0
VERTEX
  5
8D52
  8
01
 10
-7.7033199999999988
 20
-2443.6320000000001
 30
0.0
 70
    32
  0
VERTEX
  5
8D53
  8
01
 10
-7.7943600000000002
 20
-2443.6080000000011
 30
0.0
 70
    32
  0
VERTEX
  5
8D54
  8
01
 10
-7.8857600000000003
 20
-2443.587
 30
0.0
 70
    32
  0
VERTEX
  5
8D55
  8
01
 10
-7.9775099999999997
 20
-2443.5659999999998
 30
0.0
 70
    32
  0
VERTEX
  5
8D56
  8
01
 10
-8.0695599999999992
 20
-2443.5479999999998
 30
0.0
 70
    32
  0
VERTEX
  5
8D57
  8
01
 10
-8.1619100000000007
 20
-2443.5300000000002
 30
0.0
 70
    32
  0
VERTEX
  5
8D58
  8
01
 10
-8.2545300000000008
 20
-2443.5149999999999
 30
0.0
 70
    32
  0
VERTEX
  5
8D59
  8
01
 10
-8.3473899999999972
 20
-2443.5
 30
0.0
 70
    32
  0
VERTEX
  5
8D5A
  8
01
 10
-8.4404699999999995
 20
-2443.4879999999998
 30
0.0
 70
    32
  0
VERTEX
  5
8D5B
  8
01
 10
-8.5337499999999995
 20
-2443.4760000000001
 30
0.0
 70
    32
  0
VERTEX
  5
8D5C
  8
01
 10
-8.6271899999999988
 20
-2443.4639999999999
 30
0.0
 70
    32
  0
VERTEX
  5
8D5D
  8
01
 10
-8.7207899999999992
 20
-2443.458000000001
 30
0.0
 70
    32
  0
VERTEX
  5
8D5E
  8
01
 10
-8.8145000000000007
 20
-2443.4490000000001
 30
0.0
 70
    32
  0
VERTEX
  5
8D5F
  8
01
 10
-8.9083199999999998
 20
-2443.4459999999999
 30
0.0
 70
    32
  0
VERTEX
  5
8D60
  8
01
 10
-9.0022000000000002
 20
-2443.4400000000001
 30
0.0
 70
    32
  0
VERTEX
  5
8D61
  8
01
 10
-9.0961400000000001
 20
-2443.4400000000001
 30
0.0
 70
    32
  0
VERTEX
  5
8D62
  8
01
 10
-9.1900999999999993
 20
-2443.4369999999999
 30
0.0
 70
    32
  0
VERTEX
  5
8D63
  8
01
 10
-9.2840600000000002
 20
-2443.4400000000001
 30
0.0
 70
    32
  0
VERTEX
  5
8D64
  8
01
 10
-9.3780000000000001
 20
-2443.4400000000001
 30
0.0
 70
    32
  0
VERTEX
  5
8D65
  8
01
 10
-9.4718800000000005
 20
-2443.4459999999999
 30
0.0
 70
    32
  0
VERTEX
  5
8D66
  8
01
 10
-9.5656999999999996
 20
-2443.4490000000001
 30
0.0
 70
    32
  0
VERTEX
  5
8D67
  8
01
 10
-9.6594100000000012
 20
-2443.458000000001
 30
0.0
 70
    32
  0
VERTEX
  5
8D68
  8
01
 10
-9.7530099999999997
 20
-2443.4639999999999
 30
0.0
 70
    32
  0
VERTEX
  5
8D69
  8
01
 10
-9.8464500000000008
 20
-2443.4760000000001
 30
0.0
 70
    32
  0
VERTEX
  5
8D6A
  8
01
 10
-9.9397300000000008
 20
-2443.4879999999998
 30
0.0
 70
    32
  0
VERTEX
  5
8D6B
  8
01
 10
-10.0328
 20
-2443.5
 30
0.0
 70
    32
  0
VERTEX
  5
8D6C
  8
01
 10
-10.1257
 20
-2443.5149999999999
 30
0.0
 70
    32
  0
VERTEX
  5
8D6D
  8
01
 10
-10.218299999999999
 20
-2443.5300000000002
 30
0.0
 70
    32
  0
VERTEX
  5
8D6E
  8
01
 10
-10.310600000000001
 20
-2443.5479999999998
 30
0.0
 70
    32
  0
VERTEX
  5
8D6F
  8
01
 10
-10.402699999999999
 20
-2443.5659999999998
 30
0.0
 70
    32
  0
VERTEX
  5
8D70
  8
01
 10
-10.494400000000001
 20
-2443.587
 30
0.0
 70
    32
  0
VERTEX
  5
8D71
  8
01
 10
-10.585800000000001
 20
-2443.6080000000011
 30
0.0
 70
    32
  0
VERTEX
  5
8D72
  8
01
 10
-10.6769
 20
-2443.6320000000001
 30
0.0
 70
    32
  0
VERTEX
  5
8D73
  8
01
 10
-10.7675
 20
-2443.6559999999999
 30
0.0
 70
    32
  0
VERTEX
  5
8D74
  8
01
 10
-10.857799999999999
 20
-2443.683
 30
0.0
 70
    32
  0
VERTEX
  5
8D75
  8
01
 10
-10.9476
 20
-2443.71
 30
0.0
 70
    32
  0
VERTEX
  5
8D76
  8
01
 10
-11.036899999999999
 20
-2443.7399999999998
 30
0.0
 70
    32
  0
VERTEX
  5
8D77
  8
01
 10
-11.1258
 20
-2443.77
 30
0.0
 70
    32
  0
VERTEX
  5
8D78
  8
01
 10
-11.2142
 20
-2443.8000000000002
 30
0.0
 70
    32
  0
VERTEX
  5
8D79
  8
01
 10
-11.302
 20
-2443.8359999999998
 30
0.0
 70
    32
  0
VERTEX
  5
8D7A
  8
01
 10
-11.3893
 20
-2443.8690000000001
 30
0.0
 70
    32
  0
VERTEX
  5
8D7B
  8
01
 10
-11.476000000000001
 20
-2443.9050000000002
 30
0.0
 70
    32
  0
VERTEX
  5
8D7C
  8
01
 10
-11.562099999999999
 20
-2443.944
 30
0.0
 70
    32
  0
VERTEX
  5
8D7D
  8
01
 10
-11.647600000000001
 20
-2443.9830000000002
 30
0.0
 70
    32
  0
VERTEX
  5
8D7E
  8
01
 10
-11.7325
 20
-2444.0219999999999
 30
0.0
 70
    32
  0
VERTEX
  5
8D7F
  8
01
 10
-11.816700000000001
 20
-2444.0639999999999
 30
0.0
 70
    32
  0
VERTEX
  5
8D80
  8
01
 10
-11.9002
 20
-2444.1060000000002
 30
0.0
 70
    32
  0
VERTEX
  5
8D81
  8
01
 10
-11.983000000000001
 20
-2444.1509999999998
 30
0.0
 70
    32
  0
VERTEX
  5
8D82
  8
01
 10
-12.065099999999999
 20
-2444.1959999999999
 30
0.0
 70
    32
  0
VERTEX
  5
8D83
  8
01
 10
-12.1464
 20
-2444.2440000000001
 30
0.0
 70
    32
  0
VERTEX
  5
8D84
  8
01
 10
-12.227
 20
-2444.291999999999
 30
0.0
 70
    32
  0
VERTEX
  5
8D85
  8
01
 10
-12.306699999999999
 20
-2444.3429999999998
 30
0.0
 70
    32
  0
VERTEX
  5
8D86
  8
01
 10
-12.3857
 20
-2444.3939999999998
 30
0.0
 70
    32
  0
VERTEX
  5
8D87
  8
01
 10
-12.463800000000001
 20
-2444.4450000000002
 30
0.0
 70
    32
  0
VERTEX
  5
8D88
  8
01
 10
-12.5411
 20
-2444.4989999999998
 30
0.0
 70
    32
  0
VERTEX
  5
8D89
  8
01
 10
-12.6175
 20
-2444.5530000000008
 30
0.0
 70
    32
  0
VERTEX
  5
8D8A
  8
01
 10
-12.693
 20
-2444.6100000000001
 30
0.0
 70
    32
  0
VERTEX
  5
8D8B
  8
01
 10
-12.7676
 20
-2444.666999999999
 30
0.0
 70
    32
  0
VERTEX
  5
8D8C
  8
01
 10
-12.8413
 20
-2444.7240000000002
 30
0.0
 70
    32
  0
VERTEX
  5
8D8D
  8
01
 10
-12.914
 20
-2444.7840000000001
 30
0.0
 70
    32
  0
VERTEX
  5
8D8E
  8
01
 10
-12.9857
 20
-2444.8440000000001
 30
0.0
 70
    32
  0
VERTEX
  5
8D8F
  8
01
 10
-13.0565
 20
-2444.9070000000002
 30
0.0
 70
    32
  0
VERTEX
  5
8D90
  8
01
 10
-13.126200000000001
 20
-2444.9699999999998
 30
0.0
 70
    32
  0
VERTEX
  5
8D91
  8
01
 10
-13.194900000000001
 20
-2445.0329999999999
 30
0.0
 70
    32
  0
VERTEX
  5
8D92
  8
01
 10
-13.262600000000001
 20
-2445.0990000000002
 30
0.0
 70
    32
  0
VERTEX
  5
8D93
  8
01
 10
-13.3292
 20
-2445.165
 30
0.0
 70
    32
  0
VERTEX
  5
8D94
  8
01
 10
-13.3948
 20
-2445.2339999999999
 30
0.0
 70
    32
  0
VERTEX
  5
8D95
  8
01
 10
-13.459199999999999
 20
-2445.3000000000002
 30
0.0
 70
    32
  0
VERTEX
  5
8D96
  8
01
 10
-13.522500000000001
 20
-2445.3719999999998
 30
0.0
 70
    32
  0
VERTEX
  5
8D97
  8
01
 10
-13.5847
 20
-2445.4409999999998
 30
0.0
 70
    32
  0
VERTEX
  5
8D98
  8
01
 10
-13.645799999999999
 20
-2445.5129999999999
 30
0.0
 70
    32
  0
VERTEX
  5
8D99
  8
01
 10
-13.7057
 20
-2445.585
 30
0.0
 70
    32
  0
VERTEX
  5
8D9A
  8
01
 10
-13.7644
 20
-2445.6570000000002
 30
0.0
 70
    32
  0
VERTEX
  5
8D9B
  8
01
 10
-13.821999999999999
 20
-2445.732
 30
0.0
 70
    32
  0
VERTEX
  5
8D9C
  8
01
 10
-13.878299999999999
 20
-2445.8069999999998
 30
0.0
 70
    32
  0
VERTEX
  5
8D9D
  8
01
 10
-13.933400000000001
 20
-2445.8850000000002
 30
0.0
 70
    32
  0
VERTEX
  5
8D9E
  8
01
 10
-13.987299999999999
 20
-2445.96
 30
0.0
 70
    32
  0
VERTEX
  5
8D9F
  8
01
 10
-14.039899999999999
 20
-2446.038
 30
0.0
 70
    32
  0
VERTEX
  5
8DA0
  8
01
 10
-14.091200000000001
 20
-2446.116
 30
0.0
 70
    32
  0
VERTEX
  5
8DA1
  8
01
 10
-14.141299999999999
 20
-2446.1970000000001
 30
0.0
 70
    32
  0
VERTEX
  5
8DA2
  8
01
 10
-14.190099999999999
 20
-2446.2779999999998
 30
0.0
 70
    32
  0
SEQEND
  5
8DA3
  8
01
  0
LINE
  5
8DA4
  8
01
 10
-504.19009999999997
 20
-2446.2768000000001
 30
0.0
 11
-14.190099999999999
 21
-2446.2768000000001
 31
0.0
  0
LINE
  5
8DA5
  8
01
 10
-4.1901000000000002
 20
-2446.2768000000001
 30
0.0
 11
10.309900000000001
 21
-2446.2768000000001
 31
0.0
  0
POLYLINE
  5
8DA6
  8
01
 66
     1
 10
0.0
 20
0.0
 30
0.0
 70
     8
  0
VERTEX
  5
8DA7
  8
01
 10
62.809899999999999
 20
-2440.2780000000012
 30
0.0
 70
    32
  0
VERTEX
  5
8DA8
  8
01
 10
62.802700000000002
 20
-2439.9810000000002
 30
0.0
 70
    32
  0
VERTEX
  5
8DA9
  8
01
 10
62.780999999999999
 20
-2439.690000000001
 30
0.0
 70
    32
  0
VERTEX
  5
8DAA
  8
01
 10
62.74499999999999
 20
-2439.3960000000002
 30
0.0
 70
    32
  0
VERTEX
  5
8DAB
  8
01
 10
62.694600000000001
 20
-2439.105
 30
0.0
 70
    32
  0
VERTEX
  5
8DAC
  8
01
 10
62.630099999999999
 20
-2438.8200000000002
 30
0.0
 70
    32
  0
VERTEX
  5
8DAD
  8
01
 10
62.551499999999997
 20
-2438.5349999999999
 30
0.0
 70
    32
  0
VERTEX
  5
8DAE
  8
01
 10
62.459200000000003
 20
-2438.2559999999999
 30
0.0
 70
    32
  0
VERTEX
  5
8DAF
  8
01
 10
62.353200000000001
 20
-2437.98
 30
0.0
 70
    32
  0
VERTEX
  5
8DB0
  8
01
 10
62.233800000000002
 20
-2437.7130000000002
 30
0.0
 70
    32
  0
VERTEX
  5
8DB1
  8
01
 10
62.101399999999991
 20
-2437.4490000000001
 30
0.0
 70
    32
  0
VERTEX
  5
8DB2
  8
01
 10
61.956299999999999
 20
-2437.1909999999998
 30
0.0
 70
    32
  0
VERTEX
  5
8DB3
  8
01
 10
61.798699999999997
 20
-2436.9450000000002
 30
0.0
 70
    32
  0
VERTEX
  5
8DB4
  8
01
 10
61.629100000000001
 20
-2436.7020000000002
 30
0.0
 70
    32
  0
VERTEX
  5
8DB5
  8
01
 10
61.448
 20
-2436.471
 30
0.0
 70
    32
  0
VERTEX
  5
8DB6
  8
01
 10
61.255600000000001
 20
-2436.2489999999998
 30
0.0
 70
    32
  0
VERTEX
  5
8DB7
  8
01
 10
61.052500000000002
 20
-2436.0360000000001
 30
0.0
 70
    32
  0
VERTEX
  5
8DB8
  8
01
 10
60.839300000000001
 20
-2435.8319999999999
 30
0.0
 70
    32
  0
VERTEX
  5
8DB9
  8
01
 10
60.616300000000003
 20
-2435.6399999999999
 30
0.0
 70
    32
  0
VERTEX
  5
8DBA
  8
01
 10
60.384099999999989
 20
-2435.4569999999999
 30
0.0
 70
    32
  0
VERTEX
  5
8DBB
  8
01
 10
60.143300000000011
 20
-2435.2890000000002
 30
0.0
 70
    32
  0
VERTEX
  5
8DBC
  8
01
 10
59.894500000000001
 20
-2435.1300000000001
 30
0.0
 70
    32
  0
VERTEX
  5
8DBD
  8
01
 10
59.638300000000001
 20
-2434.9859999999999
 30
0.0
 70
    32
  0
VERTEX
  5
8DBE
  8
01
 10
59.3752
 20
-2434.8539999999998
 30
0.0
 70
    32
  0
VERTEX
  5
8DBF
  8
01
 10
59.106000000000002
 20
-2434.7339999999999
 30
0.0
 70
    32
  0
VERTEX
  5
8DC0
  8
01
 10
58.831200000000003
 20
-2434.6289999999999
 30
0.0
 70
    32
  0
VERTEX
  5
8DC1
  8
01
 10
58.551600000000001
 20
-2434.5360000000001
 30
0.0
 70
    32
  0
VERTEX
  5
8DC2
  8
01
 10
58.267800000000001
 20
-2434.458000000001
 30
0.0
 70
    32
  0
VERTEX
  5
8DC3
  8
01
 10
57.980400000000003
 20
-2434.3919999999998
 30
0.0
 70
    32
  0
VERTEX
  5
8DC4
  8
01
 10
57.690300000000001
 20
-2434.3409999999999
 30
0.0
 70
    32
  0
VERTEX
  5
8DC5
  8
01
 10
57.398000000000003
 20
-2434.3049999999998
 30
0.0
 70
    32
  0
VERTEX
  5
8DC6
  8
01
 10
57.104300000000002
 20
-2434.2840000000001
 30
0.0
 70
    32
  0
VERTEX
  5
8DC7
  8
01
 10
56.809899999999999
 20
-2434.2780000000012
 30
0.0
 70
    32
  0
VERTEX
  5
8DC8
  8
01
 10
56.515500000000003
 20
-2434.2840000000001
 30
0.0
 70
    32
  0
VERTEX
  5
8DC9
  8
01
 10
56.221800000000002
 20
-2434.3049999999998
 30
0.0
 70
    32
  0
VERTEX
  5
8DCA
  8
01
 10
55.929499999999997
 20
-2434.3409999999999
 30
0.0
 70
    32
  0
VERTEX
  5
8DCB
  8
01
 10
55.639400000000002
 20
-2434.3919999999998
 30
0.0
 70
    32
  0
VERTEX
  5
8DCC
  8
01
 10
55.35199999999999
 20
-2434.458000000001
 30
0.0
 70
    32
  0
VERTEX
  5
8DCD
  8
01
 10
55.068199999999997
 20
-2434.5360000000001
 30
0.0
 70
    32
  0
VERTEX
  5
8DCE
  8
01
 10
54.788600000000002
 20
-2434.6289999999999
 30
0.0
 70
    32
  0
VERTEX
  5
8DCF
  8
01
 10
54.513800000000003
 20
-2434.7339999999999
 30
0.0
 70
    32
  0
VERTEX
  5
8DD0
  8
01
 10
54.244599999999991
 20
-2434.8539999999998
 30
0.0
 70
    32
  0
VERTEX
  5
8DD1
  8
01
 10
53.981499999999997
 20
-2434.9859999999999
 30
0.0
 70
    32
  0
VERTEX
  5
8DD2
  8
01
 10
53.725299999999997
 20
-2435.1300000000001
 30
0.0
 70
    32
  0
VERTEX
  5
8DD3
  8
01
 10
53.476500000000001
 20
-2435.2890000000002
 30
0.0
 70
    32
  0
VERTEX
  5
8DD4
  8
01
 10
53.235700000000001
 20
-2435.4569999999999
 30
0.0
 70
    32
  0
VERTEX
  5
8DD5
  8
01
 10
53.003500000000003
 20
-2435.6399999999999
 30
0.0
 70
    32
  0
VERTEX
  5
8DD6
  8
01
 10
52.780500000000004
 20
-2435.8319999999999
 30
0.0
 70
    32
  0
VERTEX
  5
8DD7
  8
01
 10
52.56730000000001
 20
-2436.0360000000001
 30
0.0
 70
    32
  0
VERTEX
  5
8DD8
  8
01
 10
52.36419999999999
 20
-2436.2489999999998
 30
0.0
 70
    32
  0
VERTEX
  5
8DD9
  8
01
 10
52.17179999999999
 20
-2436.471
 30
0.0
 70
    32
  0
VERTEX
  5
8DDA
  8
01
 10
51.99069999999999
 20
-2436.7020000000002
 30
0.0
 70
    32
  0
VERTEX
  5
8DDB
  8
01
 10
51.821100000000001
 20
-2436.9450000000002
 30
0.0
 70
    32
  0
VERTEX
  5
8DDC
  8
01
 10
51.663499999999999
 20
-2437.1909999999998
 30
0.0
 70
    32
  0
VERTEX
  5
8DDD
  8
01
 10
51.518399999999993
 20
-2437.4490000000001
 30
0.0
 70
    32
  0
VERTEX
  5
8DDE
  8
01
 10
51.386000000000003
 20
-2437.7130000000002
 30
0.0
 70
    32
  0
VERTEX
  5
8DDF
  8
01
 10
51.266599999999997
 20
-2437.98
 30
0.0
 70
    32
  0
VERTEX
  5
8DE0
  8
01
 10
51.160600000000002
 20
-2438.2559999999999
 30
0.0
 70
    32
  0
VERTEX
  5
8DE1
  8
01
 10
51.068300000000001
 20
-2438.5349999999999
 30
0.0
 70
    32
  0
VERTEX
  5
8DE2
  8
01
 10
50.989699999999999
 20
-2438.8200000000002
 30
0.0
 70
    32
  0
VERTEX
  5
8DE3
  8
01
 10
50.925199999999997
 20
-2439.105
 30
0.0
 70
    32
  0
VERTEX
  5
8DE4
  8
01
 10
50.8748
 20
-2439.3960000000002
 30
0.0
 70
    32
  0
VERTEX
  5
8DE5
  8
01
 10
50.838799999999999
 20
-2439.690000000001
 30
0.0
 70
    32
  0
VERTEX
  5
8DE6
  8
01
 10
50.817100000000011
 20
-2439.9810000000002
 30
0.0
 70
    32
  0
VERTEX
  5
8DE7
  8
01
 10
50.809899999999992
 20
-2440.2780000000012
 30
0.0
 70
    32
  0
VERTEX
  5
8DE8
  8
01
 10
50.817100000000011
 20
-2440.5720000000001
 30
0.0
 70
    32
  0
VERTEX
  5
8DE9
  8
01
 10
50.838799999999999
 20
-2440.866
 30
0.0
 70
    32
  0
VERTEX
  5
8DEA
  8
01
 10
50.8748
 20
-2441.1570000000002
 30
0.0
 70
    32
  0
VERTEX
  5
8DEB
  8
01
 10
50.925199999999997
 20
-2441.4480000000008
 30
0.0
 70
    32
  0
VERTEX
  5
8DEC
  8
01
 10
50.989699999999999
 20
-2441.7359999999999
 30
0.0
 70
    32
  0
VERTEX
  5
8DED
  8
01
 10
51.068300000000001
 20
-2442.018
 30
0.0
 70
    32
  0
VERTEX
  5
8DEE
  8
01
 10
51.160600000000002
 20
-2442.297
 30
0.0
 70
    32
  0
VERTEX
  5
8DEF
  8
01
 10
51.266599999999997
 20
-2442.5730000000008
 30
0.0
 70
    32
  0
VERTEX
  5
8DF0
  8
01
 10
51.386000000000003
 20
-2442.8429999999998
 30
0.0
 70
    32
  0
VERTEX
  5
8DF1
  8
01
 10
51.518399999999993
 20
-2443.1039999999998
 30
0.0
 70
    32
  0
VERTEX
  5
8DF2
  8
01
 10
51.663499999999999
 20
-2443.3620000000001
 30
0.0
 70
    32
  0
VERTEX
  5
8DF3
  8
01
 10
51.821100000000001
 20
-2443.6109999999999
 30
0.0
 70
    32
  0
VERTEX
  5
8DF4
  8
01
 10
51.99069999999999
 20
-2443.8510000000001
 30
0.0
 70
    32
  0
VERTEX
  5
8DF5
  8
01
 10
52.17179999999999
 20
-2444.0819999999999
 30
0.0
 70
    32
  0
VERTEX
  5
8DF6
  8
01
 10
52.36419999999999
 20
-2444.3069999999998
 30
0.0
 70
    32
  0
VERTEX
  5
8DF7
  8
01
 10
52.56730000000001
 20
-2444.52
 30
0.0
 70
    32
  0
VERTEX
  5
8DF8
  8
01
 10
52.780500000000004
 20
-2444.7209999999991
 30
0.0
 70
    32
  0
VERTEX
  5
8DF9
  8
01
 10
53.003500000000003
 20
-2444.913
 30
0.0
 70
    32
  0
VERTEX
  5
8DFA
  8
01
 10
53.235700000000001
 20
-2445.0959999999991
 30
0.0
 70
    32
  0
VERTEX
  5
8DFB
  8
01
 10
53.476500000000001
 20
-2445.2640000000001
 30
0.0
 70
    32
  0
VERTEX
  5
8DFC
  8
01
 10
53.725299999999997
 20
-2445.4229999999998
 30
0.0
 70
    32
  0
VERTEX
  5
8DFD
  8
01
 10
53.981499999999997
 20
-2445.567
 30
0.0
 70
    32
  0
VERTEX
  5
8DFE
  8
01
 10
54.244599999999991
 20
-2445.6990000000001
 30
0.0
 70
    32
  0
VERTEX
  5
8DFF
  8
01
 10
54.513800000000003
 20
-2445.819
 30
0.0
 70
    32
  0
VERTEX
  5
8E00
  8
01
 10
54.788600000000002
 20
-2445.924
 30
0.0
 70
    32
  0
VERTEX
  5
8E01
  8
01
 10
55.068199999999997
 20
-2446.0169999999998
 30
0.0
 70
    32
  0
VERTEX
  5
8E02
  8
01
 10
55.35199999999999
 20
-2446.0950000000012
 30
0.0
 70
    32
  0
VERTEX
  5
8E03
  8
01
 10
55.639400000000002
 20
-2446.1610000000001
 30
0.0
 70
    32
  0
VERTEX
  5
8E04
  8
01
 10
55.929499999999997
 20
-2446.212
 30
0.0
 70
    32
  0
VERTEX
  5
8E05
  8
01
 10
56.221800000000002
 20
-2446.248
 30
0.0
 70
    32
  0
VERTEX
  5
8E06
  8
01
 10
56.515500000000003
 20
-2446.2689999999998
 30
0.0
 70
    32
  0
VERTEX
  5
8E07
  8
01
 10
56.809899999999999
 20
-2446.2750000000001
 30
0.0
 70
    32
  0
VERTEX
  5
8E08
  8
01
 10
57.104300000000002
 20
-2446.2689999999998
 30
0.0
 70
    32
  0
VERTEX
  5
8E09
  8
01
 10
57.398000000000003
 20
-2446.248
 30
0.0
 70
    32
  0
VERTEX
  5
8E0A
  8
01
 10
57.690300000000001
 20
-2446.212
 30
0.0
 70
    32
  0
VERTEX
  5
8E0B
  8
01
 10
57.980400000000003
 20
-2446.1610000000001
 30
0.0
 70
    32
  0
VERTEX
  5
8E0C
  8
01
 10
58.267800000000001
 20
-2446.0950000000012
 30
0.0
 70
    32
  0
VERTEX
  5
8E0D
  8
01
 10
58.551600000000001
 20
-2446.0169999999998
 30
0.0
 70
    32
  0
VERTEX
  5
8E0E
  8
01
 10
58.831200000000003
 20
-2445.924
 30
0.0
 70
    32
  0
VERTEX
  5
8E0F
  8
01
 10
59.106000000000002
 20
-2445.819
 30
0.0
 70
    32
  0
VERTEX
  5
8E10
  8
01
 10
59.3752
 20
-2445.6990000000001
 30
0.0
 70
    32
  0
VERTEX
  5
8E11
  8
01
 10
59.638300000000001
 20
-2445.567
 30
0.0
 70
    32
  0
VERTEX
  5
8E12
  8
01
 10
59.894500000000001
 20
-2445.4229999999998
 30
0.0
 70
    32
  0
VERTEX
  5
8E13
  8
01
 10
60.143300000000011
 20
-2445.2640000000001
 30
0.0
 70
    32
  0
VERTEX
  5
8E14
  8
01
 10
60.384099999999989
 20
-2445.0959999999991
 30
0.0
 70
    32
  0
VERTEX
  5
8E15
  8
01
 10
60.616300000000003
 20
-2444.913
 30
0.0
 70
    32
  0
VERTEX
  5
8E16
  8
01
 10
60.839300000000001
 20
-2444.7209999999991
 30
0.0
 70
    32
  0
VERTEX
  5
8E17
  8
01
 10
61.052500000000002
 20
-2444.52
 30
0.0
 70
    32
  0
VERTEX
  5
8E18
  8
01
 10
61.255600000000001
 20
-2444.3069999999998
 30
0.0
 70
    32
  0
VERTEX
  5
8E19
  8
01
 10
61.448
 20
-2444.0819999999999
 30
0.0
 70
    32
  0
VERTEX
  5
8E1A
  8
01
 10
61.629100000000001
 20
-2443.8510000000001
 30
0.0
 70
    32
  0
VERTEX
  5
8E1B
  8
01
 10
61.798699999999997
 20
-2443.6109999999999
 30
0.0
 70
    32
  0
VERTEX
  5
8E1C
  8
01
 10
61.956299999999999
 20
-2443.3620000000001
 30
0.0
 70
    32
  0
VERTEX
  5
8E1D
  8
01
 10
62.101399999999991
 20
-2443.1039999999998
 30
0.0
 70
    32
  0
VERTEX
  5
8E1E
  8
01
 10
62.233800000000002
 20
-2442.8429999999998
 30
0.0
 70
    32
  0
VERTEX
  5
8E1F
  8
01
 10
62.353200000000001
 20
-2442.5730000000008
 30
0.0
 70
    32
  0
VERTEX
  5
8E20
  8
01
 10
62.459200000000003
 20
-2442.297
 30
0.0
 70
    32
  0
VERTEX
  5
8E21
  8
01
 10
62.551499999999997
 20
-2442.018
 30
0.0
 70
    32
  0
VERTEX
  5
8E22
  8
01
 10
62.630099999999999
 20
-2441.7359999999999
 30
0.0
 70
    32
  0
VERTEX
  5
8E23
  8
01
 10
62.694600000000001
 20
-2441.4480000000008
 30
0.0
 70
    32
  0
VERTEX
  5
8E24
  8
01
 10
62.74499999999999
 20
-2441.1570000000002
 30
0.0
 70
    32
  0
VERTEX
  5
8E25
  8
01
 10
62.780999999999999
 20
-2440.866
 30
0.0
 70
    32
  0
VERTEX
  5
8E26
  8
01
 10
62.802700000000002
 20
-2440.5720000000001
 30
0.0
 70
    32
  0
VERTEX
  5
8E27
  8
01
 10
62.809899999999999
 20
-2440.2780000000012
 30
0.0
 70
    32
  0
SEQEND
  5
8E28
  8
01
  0
LINE
  5
8E29
  8
01
 10
-528.69010000000003
 20
-2362.2768000000001
 30
0.0
 11
10.309900000000001
 21
-2362.2768000000001
 31
0.0
  0
LINE
  5
8E2A
  8
01
 10
10.809900000000001
 20
-2362.7768999999998
 30
0.0
 11
10.809900000000001
 21
-2373.777
 31
0.0
  0
LINE
  5
8E2B
  8
01
 10
10.809900000000001
 20
-2362.7768999999998
 30
0.0
 11
10.309900000000001
 21
-2362.2768000000001
 31
0.0
  0
LINE
  5
8E2C
  8
01
 10
10.809900000000001
 20
-2373.777
 30
0.0
 11
10.309900000000001
 21
-2374.2768000000001
 31
0.0
  0
LINE
  5
8E2D
  8
01
 10
10.309900000000001
 20
-2362.2768000000001
 30
0.0
 11
10.309900000000001
 21
-2374.2768000000001
 31
0.0
  0
LINE
  5
8E2E
  8
01
 10
-528.69010000000003
 20
-2374.2768000000001
 30
0.0
 11
10.309900000000001
 21
-2374.2768000000001
 31
0.0
  0
LINE
  5
8E2F
  8
1CENTER
 10
-9.1900999999999993
 20
-2371.2768000000001
 30
0.0
 11
-9.1900999999999993
 21
-2365.2768000000001
 31
0.0
  0
LINE
  5
8E30
  8
1CENTER
 10
-12.190099999999999
 20
-2368.2768000000001
 30
0.0
 11
-6.1901000000000002
 21
-2368.2768000000001
 31
0.0
  0
LINE
  5
8E31
  8
1CENTER
 10
-9.1900999999999993
 20
-2457.2768999999998
 30
0.0
 11
-9.1900999999999993
 21
-2469.2768999999998
 31
0.0
  0
LINE
  5
8E32
  8
1CENTER
 10
56.809899999999999
 20
-2457.2768999999998
 30
0.0
 11
56.809899999999999
 21
-2469.2768999999998
 31
0.0
  0
LINE
  5
8E33
  8
1DIM
 10
-9.1900999999999993
 20
-2469.2768999999998
 30
0.0
 11
-9.1900999999999993
 21
-2498.2766999999999
 31
0.0
  0
LINE
  5
8E34
  8
1DIM
 10
10.809900000000001
 20
-2445.7767000000008
 30
0.0
 11
10.809900000000001
 21
-2498.2766999999999
 31
0.0
  0
LINE
  5
8E35
  8
1DIM
 10
-7.1901000000000002
 20
-2497.2768000000001
 30
0.0
 11
8.8099000000000007
 21
-2497.2768000000001
 31
0.0
  0
LINE
  5
8E36
  8
0
  6
BYBLOCK
 10
-7.1901000000000002
 20
-2497.8126000000002
 30
0.0
 11
-9.1900999999999993
 21
-2497.2768000000001
 31
0.0
  0
LINE
  5
8E37
  8
0
  6
BYBLOCK
 10
-9.1900999999999993
 20
-2497.2768000000001
 30
0.0
 11
-7.1901000000000002
 21
-2496.741
 31
0.0
  0
LINE
  5
8E38
  8
0
  6
BYBLOCK
 10
-9.1900999999999993
 20
-2497.2768000000001
 30
0.0
 11
-7.1901000000000002
 21
-2497.2768000000001
 31
0.0
  0
LINE
  5
8E39
  8
0
  6
BYBLOCK
 10
8.8099000000000007
 20
-2496.741
 30
0.0
 11
10.809900000000001
 21
-2497.2768000000001
 31
0.0
  0
LINE
  5
8E3A
  8
0
  6
BYBLOCK
 10
10.809900000000001
 20
-2497.2768000000001
 30
0.0
 11
8.8099000000000007
 21
-2497.8126000000002
 31
0.0
  0
LINE
  5
8E3B
  8
0
  6
BYBLOCK
 10
10.809900000000001
 20
-2497.2768000000001
 30
0.0
 11
8.8099000000000007
 21
-2497.2768000000001
 31
0.0
  0
TEXT
  5
8E3C
  8
1DIM
 10
-1.815099999999999
 20
-2496.5769
 30
0.0
 40
3.5000999999997471
  1
20 
  0
LINE
  5
8E3D
  8
1DIM
 10
10.309900000000001
 20
-2434.276800000001
 30
0.0
 11
41.809899999999999
 21
-2434.276800000001
 31
0.0
  0
LINE
  5
8E3E
  8
1DIM
 10
10.809900000000001
 20
-2467.2768000000001
 30
0.0
 11
41.809899999999999
 21
-2467.2768000000001
 31
0.0
  0
LINE
  5
8E3F
  8
1DIM
 10
40.809899999999992
 20
-2436.2768999999998
 30
0.0
 11
40.809899999999992
 21
-2465.2766999999999
 31
0.0
  0
LINE
  5
8E40
  8
0
  6
BYBLOCK
 10
40.274000000000001
 20
-2436.2768999999998
 30
0.0
 11
40.809899999999992
 21
-2434.276800000001
 31
0.0
  0
LINE
  5
8E41
  8
0
  6
BYBLOCK
 10
40.809899999999992
 20
-2434.276800000001
 30
0.0
 11
41.34579999999999
 21
-2436.2768999999998
 31
0.0
  0
LINE
  5
8E42
  8
0
  6
BYBLOCK
 10
40.809899999999992
 20
-2434.276800000001
 30
0.0
 11
40.809899999999992
 21
-2436.2768999999998
 31
0.0
  0
LINE
  5
8E43
  8
0
  6
BYBLOCK
 10
41.34579999999999
 20
-2465.2766999999999
 30
0.0
 11
40.809899999999992
 21
-2467.2768000000001
 31
0.0
  0
LINE
  5
8E44
  8
0
  6
BYBLOCK
 10
40.809899999999992
 20
-2467.2768000000001
 30
0.0
 11
40.274000000000001
 21
-2465.2766999999999
 31
0.0
  0
LINE
  5
8E45
  8
0
  6
BYBLOCK
 10
40.809899999999992
 20
-2467.2768000000001
 30
0.0
 11
40.809899999999992
 21
-2465.2766999999999
 31
0.0
  0
TEXT
  5
8E46
  8
1DIM
 10
40.109900000000003
 20
-2453.693400000001
 30
0.0
 40
3.5
  1
33 
 50
90.0
 41
0.9999000000002524
  0
LINE
  5
8E47
  8
1DIM
 10
10.309900000000001
 20
-2362.2768000000001
 30
0.0
 11
41.809899999999999
 21
-2362.2768000000001
 31
0.0
  0
LINE
  5
8E48
  8
1DIM
 10
10.309900000000001
 20
-2374.2768000000001
 30
0.0
 11
41.809899999999999
 21
-2374.2768000000001
 31
0.0
  0
LINE
  5
8E49
  8
1DIM
 10
40.809899999999992
 20
-2364.2768999999998
 30
0.0
 11
40.809899999999992
 21
-2372.277
 31
0.0
  0
LINE
  5
8E4A
  8
0
  6
BYBLOCK
 10
40.274000000000001
 20
-2364.2768999999998
 30
0.0
 11
40.809899999999992
 21
-2362.2768000000001
 31
0.0
  0
LINE
  5
8E4B
  8
0
  6
BYBLOCK
 10
40.809899999999992
 20
-2362.2768000000001
 30
0.0
 11
41.34579999999999
 21
-2364.2768999999998
 31
0.0
  0
LINE
  5
8E4C
  8
0
  6
BYBLOCK
 10
40.809899999999992
 20
-2362.2768000000001
 30
0.0
 11
40.809899999999992
 21
-2364.2768999999998
 31
0.0
  0
LINE
  5
8E4D
  8
0
  6
BYBLOCK
 10
41.34579999999999
 20
-2372.277
 30
0.0
 11
40.809899999999992
 21
-2374.2768000000001
 31
0.0
  0
LINE
  5
8E4E
  8
0
  6
BYBLOCK
 10
40.809899999999992
 20
-2374.2768000000001
 30
0.0
 11
40.274000000000001
 21
-2372.277
 31
0.0
  0
LINE
  5
8E4F
  8
0
  6
BYBLOCK
 10
40.809899999999992
 20
-2374.2768000000001
 30
0.0
 11
40.809899999999992
 21
-2372.277
 31
0.0
  0
TEXT
  5
8E50
  8
1DIM
 10
40.109900000000003
 20
-2373.0603000000001
 30
0.0
 40
3.5
  1
φ12
 50
90.0
 41
0.9999000000002524
  0
LINE
  5
8E51
  8
1DIM
 10
51.809899999999999
 20
-2467.2768000000001
 30
0.0
 11
51.809899999999999
 21
-2498.2766999999999
 31
0.0
  0
LINE
  5
8E52
  8
1DIM
 10
61.809899999999999
 20
-2467.2768000000001
 30
0.0
 11
61.809899999999999
 21
-2498.2766999999999
 31
0.0
  0
LINE
  5
8E53
  8
1DIM
 10
59.809899999999999
 20
-2497.2768000000001
 30
0.0
 11
53.809899999999999
 21
-2497.2768000000001
 31
0.0
  0
LINE
  5
8E54
  8
1DIM
 10
51.809899999999999
 20
-2497.2768000000001
 30
0.0
 11
28.176400000000001
 21
-2497.2768000000001
 31
0.0
  0
LINE
  5
8E55
  8
0
  6
BYBLOCK
 10
59.809899999999999
 20
-2496.741
 30
0.0
 11
61.809899999999999
 21
-2497.2768000000001
 31
0.0
  0
LINE
  5
8E56
  8
0
  6
BYBLOCK
 10
61.809899999999999
 20
-2497.2768000000001
 30
0.0
 11
59.809899999999999
 21
-2497.8126000000002
 31
0.0
  0
LINE
  5
8E57
  8
0
  6
BYBLOCK
 10
61.809899999999999
 20
-2497.2768000000001
 30
0.0
 11
59.809899999999999
 21
-2497.2768000000001
 31
0.0
  0
LINE
  5
8E58
  8
0
  6
BYBLOCK
 10
53.809899999999999
 20
-2497.8126000000002
 30
0.0
 11
51.809899999999999
 21
-2497.2768000000001
 31
0.0
  0
LINE
  5
8E59
  8
0
  6
BYBLOCK
 10
51.809899999999999
 20
-2497.2768000000001
 30
0.0
 11
53.809899999999999
 21
-2496.741
 31
0.0
  0
LINE
  5
8E5A
  8
0
  6
BYBLOCK
 10
51.809899999999999
 20
-2497.2768000000001
 30
0.0
 11
53.809899999999999
 21
-2497.2768000000001
 31
0.0
  0
TEXT
  5
8E5B
  8
1DIM
 10
29.2181
 20
-2496.5769
 30
0.0
 40
3.5000999999997471
  1
φ10
  0
LINE
  5
8E5C
  8
01
 10
-528.69010000000003
 20
-2446.2768000000001
 30
0.0
 11
-514.19010000000003
 21
-2446.2768000000001
 31
0.0
  0
LINE
  5
8E5D
  8
01
 10
-529.19010000000003
 20
-2434.7768999999998
 30
0.0
 11
-529.19010000000003
 21
-2445.7767000000008
 31
0.0
  0
LINE
  5
8E5E
  8
01
 10
-528.69010000000003
 20
-2434.276800000001
 30
0.0
 11
-529.19010000000003
 21
-2434.7768999999998
 31
0.0
  0
LINE
  5
8E5F
  8
01
 10
-529.19010000000003
 20
-2445.7767000000008
 30
0.0
 11
-528.69010000000003
 21
-2446.2768000000001
 31
0.0
  0
LINE
  5
8E60
  8
01
 10
-528.69010000000003
 20
-2434.276800000001
 30
0.0
 11
-528.69010000000003
 21
-2446.2768000000001
 31
0.0
  0
LINE
  5
8E61
  8
01
 10
-504.19009999999997
 20
-2467.2768000000001
 30
0.0
 11
-504.19009999999997
 21
-2446.2768000000001
 31
0.0
  0
LINE
  5
8E62
  8
01
 10
-514.19010000000003
 20
-2467.2768000000001
 30
0.0
 11
-514.19010000000003
 21
-2446.2768000000001
 31
0.0
  0
LINE
  5
8E63
  8
01
 10
-514.19010000000003
 20
-2467.2768000000001
 30
0.0
 11
-504.19009999999997
 21
-2467.2768000000001
 31
0.0
  0
POLYLINE
  5
8E64
  8
01
 66
     1
 10
0.0
 20
0.0
 30
0.0
 70
     8
  0
VERTEX
  5
8E65
  8
01
 10
-504.19
 20
-2446.2779999999998
 30
0.0
 70
    32
  0
VERTEX
  5
8E66
  8
01
 10
-504.23899999999998
 20
-2446.1970000000001
 30
0.0
 70
    32
  0
VERTEX
  5
8E67
  8
01
 10
-504.28899999999987
 20
-2446.116
 30
0.0
 70
    32
  0
VERTEX
  5
8E68
  8
01
 10
-504.33999999999997
 20
-2446.038
 30
0.0
 70
    32
  0
VERTEX
  5
8E69
  8
01
 10
-504.39299999999997
 20
-2445.96
 30
0.0
 70
    32
  0
VERTEX
  5
8E6A
  8
01
 10
-504.44699999999989
 20
-2445.8850000000002
 30
0.0
 70
    32
  0
VERTEX
  5
8E6B
  8
01
 10
-504.50200000000001
 20
-2445.8069999999998
 30
0.0
 70
    32
  0
VERTEX
  5
8E6C
  8
01
 10
-504.55799999999999
 20
-2445.732
 30
0.0
 70
    32
  0
VERTEX
  5
8E6D
  8
01
 10
-504.61599999999987
 20
-2445.6570000000002
 30
0.0
 70
    32
  0
VERTEX
  5
8E6E
  8
01
 10
-504.67399999999998
 20
-2445.585
 30
0.0
 70
    32
  0
VERTEX
  5
8E6F
  8
01
 10
-504.73399999999998
 20
-2445.5129999999999
 30
0.0
 70
    32
  0
VERTEX
  5
8E70
  8
01
 10
-504.79500000000002
 20
-2445.4409999999998
 30
0.0
 70
    32
  0
VERTEX
  5
8E71
  8
01
 10
-504.858
 20
-2445.3719999999998
 30
0.0
 70
    32
  0
VERTEX
  5
8E72
  8
01
 10
-504.92099999999999
 20
-2445.3000000000002
 30
0.0
 70
    32
  0
VERTEX
  5
8E73
  8
01
 10
-504.98500000000001
 20
-2445.2339999999999
 30
0.0
 70
    32
  0
VERTEX
  5
8E74
  8
01
 10
-505.05099999999999
 20
-2445.165
 30
0.0
 70
    32
  0
VERTEX
  5
8E75
  8
01
 10
-505.11799999999999
 20
-2445.0990000000002
 30
0.0
 70
    32
  0
VERTEX
  5
8E76
  8
01
 10
-505.18499999999989
 20
-2445.0329999999999
 30
0.0
 70
    32
  0
VERTEX
  5
8E77
  8
01
 10
-505.25400000000002
 20
-2444.9699999999998
 30
0.0
 70
    32
  0
VERTEX
  5
8E78
  8
01
 10
-505.32400000000001
 20
-2444.9070000000002
 30
0.0
 70
    32
  0
VERTEX
  5
8E79
  8
01
 10
-505.39399999999989
 20
-2444.8440000000001
 30
0.0
 70
    32
  0
VERTEX
  5
8E7A
  8
01
 10
-505.46600000000001
 20
-2444.7840000000001
 30
0.0
 70
    32
  0
VERTEX
  5
8E7B
  8
01
 10
-505.53899999999999
 20
-2444.7240000000002
 30
0.0
 70
    32
  0
VERTEX
  5
8E7C
  8
01
 10
-505.613
 20
-2444.666999999999
 30
0.0
 70
    32
  0
VERTEX
  5
8E7D
  8
01
 10
-505.6869999999999
 20
-2444.6100000000001
 30
0.0
 70
    32
  0
VERTEX
  5
8E7E
  8
01
 10
-505.76299999999998
 20
-2444.5530000000008
 30
0.0
 70
    32
  0
VERTEX
  5
8E7F
  8
01
 10
-505.839
 20
-2444.4989999999998
 30
0.0
 70
    32
  0
VERTEX
  5
8E80
  8
01
 10
-505.916
 20
-2444.4450000000002
 30
0.0
 70
    32
  0
VERTEX
  5
8E81
  8
01
 10
-505.99499999999989
 20
-2444.3939999999998
 30
0.0
 70
    32
  0
VERTEX
  5
8E82
  8
01
 10
-506.07299999999998
 20
-2444.3429999999998
 30
0.0
 70
    32
  0
VERTEX
  5
8E83
  8
01
 10
-506.15300000000002
 20
-2444.291999999999
 30
0.0
 70
    32
  0
VERTEX
  5
8E84
  8
01
 10
-506.23399999999998
 20
-2444.2440000000001
 30
0.0
 70
    32
  0
VERTEX
  5
8E85
  8
01
 10
-506.315
 20
-2444.1959999999999
 30
0.0
 70
    32
  0
VERTEX
  5
8E86
  8
01
 10
-506.39699999999999
 20
-2444.1509999999998
 30
0.0
 70
    32
  0
VERTEX
  5
8E87
  8
01
 10
-506.4799999999999
 20
-2444.1060000000002
 30
0.0
 70
    32
  0
VERTEX
  5
8E88
  8
01
 10
-506.56400000000002
 20
-2444.0639999999999
 30
0.0
 70
    32
  0
VERTEX
  5
8E89
  8
01
 10
-506.64800000000002
 20
-2444.0219999999999
 30
0.0
 70
    32
  0
VERTEX
  5
8E8A
  8
01
 10
-506.733
 20
-2443.9830000000002
 30
0.0
 70
    32
  0
VERTEX
  5
8E8B
  8
01
 10
-506.81799999999998
 20
-2443.944
 30
0.0
 70
    32
  0
VERTEX
  5
8E8C
  8
01
 10
-506.904
 20
-2443.9050000000002
 30
0.0
 70
    32
  0
VERTEX
  5
8E8D
  8
01
 10
-506.99099999999999
 20
-2443.8690000000001
 30
0.0
 70
    32
  0
VERTEX
  5
8E8E
  8
01
 10
-507.07799999999997
 20
-2443.8359999999998
 30
0.0
 70
    32
  0
VERTEX
  5
8E8F
  8
01
 10
-507.166
 20
-2443.8000000000002
 30
0.0
 70
    32
  0
VERTEX
  5
8E90
  8
01
 10
-507.25400000000002
 20
-2443.77
 30
0.0
 70
    32
  0
VERTEX
  5
8E91
  8
01
 10
-507.34300000000002
 20
-2443.7399999999998
 30
0.0
 70
    32
  0
VERTEX
  5
8E92
  8
01
 10
-507.43299999999999
 20
-2443.71
 30
0.0
 70
    32
  0
VERTEX
  5
8E93
  8
01
 10
-507.52199999999988
 20
-2443.683
 30
0.0
 70
    32
  0
VERTEX
  5
8E94
  8
01
 10
-507.613
 20
-2443.6559999999999
 30
0.0
 70
    32
  0
VERTEX
  5
8E95
  8
01
 10
-507.70299999999997
 20
-2443.6320000000001
 30
0.0
 70
    32
  0
VERTEX
  5
8E96
  8
01
 10
-507.79399999999998
 20
-2443.6080000000011
 30
0.0
 70
    32
  0
VERTEX
  5
8E97
  8
01
 10
-507.88599999999991
 20
-2443.587
 30
0.0
 70
    32
  0
VERTEX
  5
8E98
  8
01
 10
-507.97800000000001
 20
-2443.5659999999998
 30
0.0
 70
    32
  0
VERTEX
  5
8E99
  8
01
 10
-508.06999999999999
 20
-2443.5479999999998
 30
0.0
 70
    32
  0
VERTEX
  5
8E9A
  8
01
 10
-508.16199999999998
 20
-2443.5300000000002
 30
0.0
 70
    32
  0
VERTEX
  5
8E9B
  8
01
 10
-508.255
 20
-2443.5149999999999
 30
0.0
 70
    32
  0
VERTEX
  5
8E9C
  8
01
 10
-508.34699999999998
 20
-2443.5
 30
0.0
 70
    32
  0
VERTEX
  5
8E9D
  8
01
 10
-508.44
 20
-2443.4879999999998
 30
0.0
 70
    32
  0
VERTEX
  5
8E9E
  8
01
 10
-508.53399999999999
 20
-2443.4760000000001
 30
0.0
 70
    32
  0
VERTEX
  5
8E9F
  8
01
 10
-508.6269999999999
 20
-2443.4639999999999
 30
0.0
 70
    32
  0
VERTEX
  5
8EA0
  8
01
 10
-508.72099999999989
 20
-2443.458000000001
 30
0.0
 70
    32
  0
VERTEX
  5
8EA1
  8
01
 10
-508.81499999999988
 20
-2443.4490000000001
 30
0.0
 70
    32
  0
VERTEX
  5
8EA2
  8
01
 10
-508.90800000000002
 20
-2443.4459999999999
 30
0.0
 70
    32
  0
VERTEX
  5
8EA3
  8
01
 10
-509.0019999999999
 20
-2443.4400000000001
 30
0.0
 70
    32
  0
VERTEX
  5
8EA4
  8
01
 10
-509.09599999999989
 20
-2443.4400000000001
 30
0.0
 70
    32
  0
VERTEX
  5
8EA5
  8
01
 10
-509.18999999999988
 20
-2443.4369999999999
 30
0.0
 70
    32
  0
VERTEX
  5
8EA6
  8
01
 10
-509.28399999999988
 20
-2443.4400000000001
 30
0.0
 70
    32
  0
VERTEX
  5
8EA7
  8
01
 10
-509.37799999999999
 20
-2443.4400000000001
 30
0.0
 70
    32
  0
VERTEX
  5
8EA8
  8
01
 10
-509.47199999999992
 20
-2443.4459999999999
 30
0.0
 70
    32
  0
VERTEX
  5
8EA9
  8
01
 10
-509.56599999999992
 20
-2443.4490000000001
 30
0.0
 70
    32
  0
VERTEX
  5
8EAA
  8
01
 10
-509.65899999999988
 20
-2443.458000000001
 30
0.0
 70
    32
  0
VERTEX
  5
8EAB
  8
01
 10
-509.75299999999999
 20
-2443.4639999999999
 30
0.0
 70
    32
  0
VERTEX
  5
8EAC
  8
01
 10
-509.846
 20
-2443.4760000000001
 30
0.0
 70
    32
  0
VERTEX
  5
8EAD
  8
01
 10
-509.94
 20
-2443.4879999999998
 30
0.0
 70
    32
  0
VERTEX
  5
8EAE
  8
01
 10
-510.03300000000002
 20
-2443.5
 30
0.0
 70
    32
  0
VERTEX
  5
8EAF
  8
01
 10
-510.12599999999992
 20
-2443.5149999999999
 30
0.0
 70
    32
  0
VERTEX
  5
8EB0
  8
01
 10
-510.21800000000002
 20
-2443.5300000000002
 30
0.0
 70
    32
  0
VERTEX
  5
8EB1
  8
01
 10
-510.31099999999998
 20
-2443.5479999999998
 30
0.0
 70
    32
  0
VERTEX
  5
8EB2
  8
01
 10
-510.40300000000002
 20
-2443.5659999999998
 30
0.0
 70
    32
  0
VERTEX
  5
8EB3
  8
01
 10
-510.49400000000003
 20
-2443.587
 30
0.0
 70
    32
  0
VERTEX
  5
8EB4
  8
01
 10
-510.5859999999999
 20
-2443.6080000000011
 30
0.0
 70
    32
  0
VERTEX
  5
8EB5
  8
01
 10
-510.67700000000002
 20
-2443.6320000000001
 30
0.0
 70
    32
  0
VERTEX
  5
8EB6
  8
01
 10
-510.76799999999997
 20
-2443.6559999999999
 30
0.0
 70
    32
  0
VERTEX
  5
8EB7
  8
01
 10
-510.85799999999989
 20
-2443.683
 30
0.0
 70
    32
  0
VERTEX
  5
8EB8
  8
01
 10
-510.94799999999998
 20
-2443.71
 30
0.0
 70
    32
  0
VERTEX
  5
8EB9
  8
01
 10
-511.03699999999992
 20
-2443.7399999999998
 30
0.0
 70
    32
  0
VERTEX
  5
8EBA
  8
01
 10
-511.12599999999992
 20
-2443.77
 30
0.0
 70
    32
  0
VERTEX
  5
8EBB
  8
01
 10
-511.214
 20
-2443.8000000000002
 30
0.0
 70
    32
  0
VERTEX
  5
8EBC
  8
01
 10
-511.30199999999991
 20
-2443.8359999999998
 30
0.0
 70
    32
  0
VERTEX
  5
8EBD
  8
01
 10
-511.38900000000001
 20
-2443.8690000000001
 30
0.0
 70
    32
  0
VERTEX
  5
8EBE
  8
01
 10
-511.476
 20
-2443.9050000000002
 30
0.0
 70
    32
  0
VERTEX
  5
8EBF
  8
01
 10
-511.5619999999999
 20
-2443.944
 30
0.0
 70
    32
  0
VERTEX
  5
8EC0
  8
01
 10
-511.64800000000002
 20
-2443.9830000000002
 30
0.0
 70
    32
  0
VERTEX
  5
8EC1
  8
01
 10
-511.73199999999991
 20
-2444.0219999999999
 30
0.0
 70
    32
  0
VERTEX
  5
8EC2
  8
01
 10
-511.81699999999989
 20
-2444.0639999999999
 30
0.0
 70
    32
  0
VERTEX
  5
8EC3
  8
01
 10
-511.89999999999992
 20
-2444.1060000000002
 30
0.0
 70
    32
  0
VERTEX
  5
8EC4
  8
01
 10
-511.983
 20
-2444.1509999999998
 30
0.0
 70
    32
  0
VERTEX
  5
8EC5
  8
01
 10
-512.06500000000005
 20
-2444.1959999999999
 30
0.0
 70
    32
  0
VERTEX
  5
8EC6
  8
01
 10
-512.14599999999984
 20
-2444.2440000000001
 30
0.0
 70
    32
  0
VERTEX
  5
8EC7
  8
01
 10
-512.22699999999986
 20
-2444.291999999999
 30
0.0
 70
    32
  0
VERTEX
  5
8EC8
  8
01
 10
-512.30700000000002
 20
-2444.3429999999998
 30
0.0
 70
    32
  0
VERTEX
  5
8EC9
  8
01
 10
-512.38599999999985
 20
-2444.3939999999998
 30
0.0
 70
    32
  0
VERTEX
  5
8ECA
  8
01
 10
-512.46400000000006
 20
-2444.4450000000002
 30
0.0
 70
    32
  0
VERTEX
  5
8ECB
  8
01
 10
-512.54099999999994
 20
-2444.4989999999998
 30
0.0
 70
    32
  0
VERTEX
  5
8ECC
  8
01
 10
-512.61699999999996
 20
-2444.5530000000008
 30
0.0
 70
    32
  0
VERTEX
  5
8ECD
  8
01
 10
-512.69299999999987
 20
-2444.6100000000001
 30
0.0
 70
    32
  0
VERTEX
  5
8ECE
  8
01
 10
-512.76800000000003
 20
-2444.666999999999
 30
0.0
 70
    32
  0
VERTEX
  5
8ECF
  8
01
 10
-512.84100000000001
 20
-2444.7240000000002
 30
0.0
 70
    32
  0
VERTEX
  5
8ED0
  8
01
 10
-512.91399999999987
 20
-2444.7840000000001
 30
0.0
 70
    32
  0
VERTEX
  5
8ED1
  8
01
 10
-512.98599999999988
 20
-2444.8440000000001
 30
0.0
 70
    32
  0
VERTEX
  5
8ED2
  8
01
 10
-513.05600000000004
 20
-2444.9070000000002
 30
0.0
 70
    32
  0
VERTEX
  5
8ED3
  8
01
 10
-513.12599999999998
 20
-2444.9699999999998
 30
0.0
 70
    32
  0
VERTEX
  5
8ED4
  8
01
 10
-513.19500000000005
 20
-2445.0329999999999
 30
0.0
 70
    32
  0
VERTEX
  5
8ED5
  8
01
 10
-513.26300000000003
 20
-2445.0990000000002
 30
0.0
 70
    32
  0
VERTEX
  5
8ED6
  8
01
 10
-513.32899999999995
 20
-2445.165
 30
0.0
 70
    32
  0
VERTEX
  5
8ED7
  8
01
 10
-513.39499999999987
 20
-2445.2339999999999
 30
0.0
 70
    32
  0
VERTEX
  5
8ED8
  8
01
 10
-513.45900000000006
 20
-2445.3000000000002
 30
0.0
 70
    32
  0
VERTEX
  5
8ED9
  8
01
 10
-513.52299999999991
 20
-2445.3719999999998
 30
0.0
 70
    32
  0
VERTEX
  5
8EDA
  8
01
 10
-513.58500000000004
 20
-2445.4409999999998
 30
0.0
 70
    32
  0
VERTEX
  5
8EDB
  8
01
 10
-513.64599999999984
 20
-2445.5129999999999
 30
0.0
 70
    32
  0
VERTEX
  5
8EDC
  8
01
 10
-513.7059999999999
 20
-2445.585
 30
0.0
 70
    32
  0
VERTEX
  5
8EDD
  8
01
 10
-513.76400000000001
 20
-2445.6570000000002
 30
0.0
 70
    32
  0
VERTEX
  5
8EDE
  8
01
 10
-513.822
 20
-2445.732
 30
0.0
 70
    32
  0
VERTEX
  5
8EDF
  8
01
 10
-513.87800000000004
 20
-2445.8069999999998
 30
0.0
 70
    32
  0
VERTEX
  5
8EE0
  8
01
 10
-513.93299999999999
 20
-2445.8850000000002
 30
0.0
 70
    32
  0
VERTEX
  5
8EE1
  8
01
 10
-513.98699999999997
 20
-2445.96
 30
0.0
 70
    32
  0
VERTEX
  5
8EE2
  8
01
 10
-514.03999999999985
 20
-2446.038
 30
0.0
 70
    32
  0
VERTEX
  5
8EE3
  8
01
 10
-514.09099999999989
 20
-2446.116
 30
0.0
 70
    32
  0
VERTEX
  5
8EE4
  8
01
 10
-514.14099999999985
 20
-2446.1970000000001
 30
0.0
 70
    32
  0
VERTEX
  5
8EE5
  8
01
 10
-514.19000000000005
 20
-2446.2779999999998
 30
0.0
 70
    32
  0
SEQEND
  5
8EE6
  8
01
  0
LINE
  5
8EE7
  8
01
 10
-529.19010000000003
 20
-2362.7768999999998
 30
0.0
 11
-529.19010000000003
 21
-2373.777
 31
0.0
  0
LINE
  5
8EE8
  8
01
 10
-528.69010000000003
 20
-2362.2768000000001
 30
0.0
 11
-529.19010000000003
 21
-2362.7768999999998
 31
0.0
  0
LINE
  5
8EE9
  8
01
 10
-529.19010000000003
 20
-2373.777
 30
0.0
 11
-528.69010000000003
 21
-2374.2768000000001
 31
0.0
  0
LINE
  5
8EEA
  8
01
 10
-528.69010000000003
 20
-2362.2768000000001
 30
0.0
 11
-528.69010000000003
 21
-2374.2768000000001
 31
0.0
  0
LINE
  5
8EEB
  8
1CENTER
 10
-509.19009999999997
 20
-2371.2768000000001
 30
0.0
 11
-509.19009999999997
 21
-2365.2768000000001
 31
0.0
  0
LINE
  5
8EEC
  8
1CENTER
 10
-512.19010000000003
 20
-2368.2768000000001
 30
0.0
 11
-506.19009999999992
 21
-2368.2768000000001
 31
0.0
  0
LINE
  5
8EED
  8
1CENTER
 10
-509.19009999999997
 20
-2457.2768999999998
 30
0.0
 11
-509.19009999999997
 21
-2469.2768999999998
 31
0.0
  0
LINE
  5
8EEE
  8
1DIM
 10
-529.19010000000003
 20
-2445.7767000000008
 30
0.0
 11
-529.19010000000003
 21
-2498.2766999999999
 31
0.0
  0
LINE
  5
8EEF
  8
1DIM
 10
-509.19009999999997
 20
-2469.2768999999998
 30
0.0
 11
-509.19009999999997
 21
-2498.2766999999999
 31
0.0
  0
LINE
  5
8EF0
  8
1DIM
 10
-527.19010000000003
 20
-2497.2768000000001
 30
0.0
 11
-511.19009999999992
 21
-2497.2768000000001
 31
0.0
  0
LINE
  5
8EF1
  8
0
  6
BYBLOCK
 10
-527.19010000000003
 20
-2497.8126000000002
 30
0.0
 11
-529.19010000000003
 21
-2497.2768000000001
 31
0.0
  0
LINE
  5
8EF2
  8
0
  6
BYBLOCK
 10
-529.19010000000003
 20
-2497.2768000000001
 30
0.0
 11
-527.19010000000003
 21
-2496.741
 31
0.0
  0
LINE
  5
8EF3
  8
0
  6
BYBLOCK
 10
-529.19010000000003
 20
-2497.2768000000001
 30
0.0
 11
-527.19010000000003
 21
-2497.2768000000001
 31
0.0
  0
LINE
  5
8EF4
  8
0
  6
BYBLOCK
 10
-511.19009999999992
 20
-2496.741
 30
0.0
 11
-509.19009999999997
 21
-2497.2768000000001
 31
0.0
  0
LINE
  5
8EF5
  8
0
  6
BYBLOCK
 10
-509.19009999999997
 20
-2497.2768000000001
 30
0.0
 11
-511.19009999999992
 21
-2497.8126000000002
 31
0.0
  0
LINE
  5
8EF6
  8
0
  6
BYBLOCK
 10
-509.19009999999997
 20
-2497.2768000000001
 30
0.0
 11
-511.19009999999992
 21
-2497.2768000000001
 31
0.0
  0
TEXT
  5
8EF7
  8
1DIM
 10
-521.81510000000003
 20
-2496.5769
 30
0.0
 40
3.5000999999997471
  1
20 
  0
TEXT
  5
8EF8
  8
1TEXT
 10
-516.71289999999999
 20
-2342.277
 30
0.0
 40
8.0000999999997475
  1
PS01H500
  0
LINE
  5
8EF9
  8
1DIM
 10
-509.19009999999997
 20
-2469.2768999999998
 30
0.0
 11
-509.19009999999997
 21
-2498.2766999999999
 31
0.0
  0
LINE
  5
8EFA
  8
1DIM
 10
-9.1900999999999993
 20
-2469.2768999999998
 30
0.0
 11
-9.1900999999999993
 21
-2498.2766999999999
 31
0.0
  0
LINE
  5
8EFB
  8
1DIM
 10
-507.19009999999992
 20
-2497.2768000000001
 30
0.0
 11
-11.190099999999999
 21
-2497.2768000000001
 31
0.0
  0
LINE
  5
8EFC
  8
0
  6
BYBLOCK
 10
-507.19009999999992
 20
-2497.8126000000002
 30
0.0
 11
-509.19009999999997
 21
-2497.2768000000001
 31
0.0
  0
LINE
  5
8EFD
  8
0
  6
BYBLOCK
 10
-509.19009999999997
 20
-2497.2768000000001
 30
0.0
 11
-507.19009999999992
 21
-2496.741
 31
0.0
  0
LINE
  5
8EFE
  8
0
  6
BYBLOCK
 10
-509.19009999999997
 20
-2497.2768000000001
 30
0.0
 11
-507.19009999999992
 21
-2497.2768000000001
 31
0.0
  0
LINE
  5
8EFF
  8
0
  6
BYBLOCK
 10
-11.190099999999999
 20
-2496.741
 30
0.0
 11
-9.1900999999999993
 21
-2497.2768000000001
 31
0.0
  0
LINE
  5
8F00
  8
0
  6
BYBLOCK
 10
-9.1900999999999993
 20
-2497.2768000000001
 30
0.0
 11
-11.190099999999999
 21
-2497.8126000000002
 31
0.0
  0
LINE
  5
8F01
  8
0
  6
BYBLOCK
 10
-9.1900999999999993
 20
-2497.2768000000001
 30
0.0
 11
-11.190099999999999
 21
-2497.2768000000001
 31
0.0
  0
TEXT
  5
8F02
  8
1DIM
 10
-265.02339999999998
 20
-2496.5769
 30
0.0
 40
3.5000999999997471
  1
P500 
  0
LINE
  5
8F03
  8
1DIM
 10
-504.19009999999997
 20
-2467.2768000000001
 30
0.0
 11
-504.19009999999997
 21
-2488.2768000000001
 31
0.0
  0
LINE
  5
8F04
  8
1DIM
 10
-14.190099999999999
 20
-2467.2768000000001
 30
0.0
 11
-14.190099999999999
 21
-2488.2768000000001
 31
0.0
  0
LINE
  5
8F05
  8
1DIM
 10
-502.19009999999992
 20
-2487.2768999999998
 30
0.0
 11
-16.190100000000001
 21
-2487.2768999999998
 31
0.0
  0
LINE
  5
8F06
  8
0
  6
BYBLOCK
 10
-502.19009999999992
 20
-2487.8126999999999
 30
0.0
 11
-504.19009999999997
 21
-2487.2768999999998
 31
0.0
  0
LINE
  5
8F07
  8
0
  6
BYBLOCK
 10
-504.19009999999997
 20
-2487.2768999999998
 30
0.0
 11
-502.19009999999992
 21
-2486.7408
 31
0.0
  0
LINE
  5
8F08
  8
0
  6
BYBLOCK
 10
-504.19009999999997
 20
-2487.2768999999998
 30
0.0
 11
-502.19009999999992
 21
-2487.2768999999998
 31
0.0
  0
LINE
  5
8F09
  8
0
  6
BYBLOCK
 10
-16.190100000000001
 20
-2486.7408
 30
0.0
 11
-14.190099999999999
 21
-2487.2768999999998
 31
0.0
  0
LINE
  5
8F0A
  8
0
  6
BYBLOCK
 10
-14.190099999999999
 20
-2487.2768999999998
 30
0.0
 11
-16.190100000000001
 21
-2487.8126999999999
 31
0.0
  0
LINE
  5
8F0B
  8
0
  6
BYBLOCK
 10
-14.190099999999999
 20
-2487.2768999999998
 30
0.0
 11
-16.190100000000001
 21
-2487.2768999999998
 31
0.0
  0
TEXT
  5
8F0C
  8
1DIM
 10
-263.56509999999997
 20
-2486.5767000000001
 30
0.0
 40
3.5000999999997471
  1
490 
  0
LINE
  5
8F0D
  8
1DIM
 10
10.309900000000001
 20
-2446.2768000000001
 30
0.0
 11
31.809899999999999
 21
-2446.2768000000001
 31
0.0
  0
LINE
  5
8F0E
  8
1DIM
 10
-4.1901000000000002
 20
-2467.2768000000001
 30
0.0
 11
31.809899999999999
 21
-2467.2768000000001
 31
0.0
  0
LINE
  5
8F0F
  8
1DIM
 10
30.809899999999999
 20
-2448.2768999999998
 30
0.0
 11
30.809899999999999
 21
-2465.2766999999999
 31
0.0
  0
LINE
  5
8F10
  8
0
  6
BYBLOCK
 10
30.274000000000001
 20
-2448.2768999999998
 30
0.0
 11
30.809899999999999
 21
-2446.2768000000001
 31
0.0
  0
LINE
  5
8F11
  8
0
  6
BYBLOCK
 10
30.809899999999999
 20
-2446.2768000000001
 30
0.0
 11
31.345800000000001
 21
-2448.2768999999998
 31
0.0
  0
LINE
  5
8F12
  8
0
  6
BYBLOCK
 10
30.809899999999999
 20
-2446.2768000000001
 30
0.0
 11
30.809899999999999
 21
-2448.2768999999998
 31
0.0
  0
LINE
  5
8F13
  8
0
  6
BYBLOCK
 10
31.345800000000001
 20
-2465.2766999999999
 30
0.0
 11
30.809899999999999
 21
-2467.2768000000001
 31
0.0
  0
LINE
  5
8F14
  8
0
  6
BYBLOCK
 10
30.809899999999999
 20
-2467.2768000000001
 30
0.0
 11
30.274000000000001
 21
-2465.2766999999999
 31
0.0
  0
LINE
  5
8F15
  8
0
  6
BYBLOCK
 10
30.809899999999999
 20
-2467.2768000000001
 30
0.0
 11
30.809899999999999
 21
-2465.2766999999999
 31
0.0
  0
TEXT
  5
8F16
  8
1DIM
 10
30.1099
 20
-2459.1102000000001
 30
0.0
 40
3.5
  1
21 
 50
90.0
 41
0.9999000000002524
  0
LINE
  5
8F17
  8
01
 10
10.809900000000001
 20
-2445.7767000000008
 30
0.0
 11
10.309900000000001
 21
-2446.2768000000001
 31
0.0
  0
SOLID
  5
8F18
  8
1DIM
 10
55.453899999999997
 20
-2468.7842999999998
 30
0.0
 11
56.809899999999999
 21
-2467.2768000000001
 31
0.0
 12
56.016100000000002
 22
-2469.1424999999999
 32
0.0
 13
56.016100000000002
 23
-2469.1424999999999
 33
0.0
  0
LINE
  5
8F19
  8
1DIM
 10
55.734999999999999
 20
-2468.9634000000001
 30
0.0
 11
43.618200000000002
 21
-2487.9767999999999
 31
0.0
  0
LINE
  5
8F1A
  8
1DIM
 10
43.618200000000002
 20
-2487.9767999999999
 30
0.0
 11
23.7515
 21
-2487.9767999999999
 31
0.0
  0
TEXT
  5
8F1B
  8
1DIM
 10
24.377600000000001
 20
-2487.2768999999998
 30
0.0
 40
3.5000999999997471
  1
M4-10
  0
LINE
  5
8F1C
  8
1DIM
 10
-529.19010000000003
 20
-2373.777
 30
0.0
 11
-529.19010000000003
 21
-2395.2768000000001
 31
0.0
  0
LINE
  5
8F1D
  8
1DIM
 10
10.809900000000001
 20
-2373.777
 30
0.0
 11
10.809900000000001
 21
-2395.2768000000001
 31
0.0
  0
LINE
  5
8F1E
  8
1DIM
 10
-527.19010000000003
 20
-2394.2768999999998
 30
0.0
 11
8.8099000000000007
 21
-2394.2768999999998
 31
0.0
  0
LINE
  5
8F1F
  8
0
  6
BYBLOCK
 10
-527.19010000000003
 20
-2394.8126999999999
 30
0.0
 11
-529.19010000000003
 21
-2394.2768999999998
 31
0.0
  0
LINE
  5
8F20
  8
0
  6
BYBLOCK
 10
-529.19010000000003
 20
-2394.2768999999998
 30
0.0
 11
-527.19010000000003
 21
-2393.7411000000002
 31
0.0
  0
LINE
  5
8F21
  8
0
  6
BYBLOCK
 10
-529.19010000000003
 20
-2394.2768999999998
 30
0.0
 11
-527.19010000000003
 21
-2394.2768999999998
 31
0.0
  0
LINE
  5
8F22
  8
0
  6
BYBLOCK
 10
8.8099000000000007
 20
-2393.7411000000002
 30
0.0
 11
10.809900000000001
 21
-2394.2768999999998
 31
0.0
  0
LINE
  5
8F23
  8
0
  6
BYBLOCK
 10
10.809900000000001
 20
-2394.2768999999998
 30
0.0
 11
8.8099000000000007
 21
-2394.8126999999999
 31
0.0
  0
LINE
  5
8F24
  8
0
  6
BYBLOCK
 10
10.809900000000001
 20
-2394.2768999999998
 30
0.0
 11
8.8099000000000007
 21
-2394.2768999999998
 31
0.0
  0
TEXT
  5
8F25
  8
1DIM
 10
-263.56509999999997
 20
-2393.5770000000002
 30
0.0
 40
3.5000999999997471
  1
540 
  0
LINE
  5
8F26
  8
1DIM
 10
-529.19010000000003
 20
-2527.2768000000001
 30
0.0
 11
-459.19009999999997
 21
-2527.2768000000001
 31
0.0
  0
LINE
  5
8F27
  8
1DIM
 10
-529.19010000000003
 20
-2534.2767000000008
 30
0.0
 11
-459.19009999999997
 21
-2534.2767000000008
 31
0.0
  0
LINE
  5
8F28
  8
1DIM
 10
-529.19010000000003
 20
-2541.2766000000001
 30
0.0
 11
-459.19009999999997
 21
-2541.2766000000001
 31
0.0
  0
LINE
  5
8F29
  8
1DIM
 10
-529.19010000000003
 20
-2527.2768000000001
 30
0.0
 11
-529.19010000000003
 21
-2541.2766000000001
 31
0.0
  0
TEXT
  5
8F2A
  8
1TEXT
 10
-490.45642499999991
 20
-2539.7766000000001
 30
0.0
 40
3.9998999999997968
  1
PS01H500
 72
     1
 11
-476.7901
 21
-2539.7766000000001
 31
0.0
  0
LINE
  5
8F2B
  8
1DIM
 10
-494.19009999999992
 20
-2527.2768000000001
 30
0.0
 11
-494.19009999999992
 21
-2541.2766000000001
 31
0.0
  0
TEXT
  5
8F2C
  8
1TEXT
 10
-523.25648000000001
 20
-2539.7766000000001
 30
0.0
 40
3.9998999999997968
  1
ヘアライン
 72
     1
 11
-511.79009999999988
 21
-2539.7766000000001
 31
0.0
  0
TEXT
  5
8F2D
  8
1TEXT
 10
-522.43745285714283
 20
-2532.7767000000008
 30
0.0
 40
3.999900000000252
  1
表面処理：
 72
     1
 11
-511.79009999999988
 21
-2532.7767000000008
 31
0.0
  0
LINE
  5
8F2E
  8
1DIM
 10
-459.19009999999997
 20
-2527.2768000000001
 30
0.0
 11
-459.19009999999997
 21
-2541.2766000000001
 31
0.0
  0
TEXT
  5
8F2F
  8
1TEXT
 10
-483.58992999999998
 20
-2532.7767000000008
 30
0.0
 40
3.999900000000252
  1
コード
 72
     1
 11
-476.7901
 21
-2532.7767000000008
 31
0.0
  0
TEXT
  5
8F30
  8
1TEXT
 10
-520.88763999999992
 20
-2523.4418999999998
 30
0.0
 40
3.9998999999997968
  1
材質：ステンレス
 72
     1
 11
-502.48809999999992
 21
-2523.4418999999998
 31
0.0
  0
VIEWPORT
  5
57
 67
     1
  8
0
 10
5.6154163991372421
 20
3.9020832317081959
 30
0.0
 40
12.7102895252974
 41
8.7461330960491512
 68
     1
 69
     1
1001
ACAD
1000
MVIEW
1002
{
1070
    16
1010
0.0
1020
0.0
1030
0.0
1010
0.0
1020
0.0
1030
1.0
1040
0.0
1040
8.7461330960491512
1040
5.6154163991372421
1040
3.9020832317081959
1040
50.0
1040
0.0
1040
0.0
1070
     0
1070
   100
1070
     1
1070
     1
1070
     0
1070
     0
1070
     0
1070
     0
1040
0.0
1040
0.0
1040
0.0
1040
10.0
1040
10.0
1040
10.0
1040
10.0
1070
     0
1002
{
1002
}
1002
}
  0
ENDSEC
  0
EOF
