  0
SECTION
  2
HEADER
  9
$ACADVER
  1
AC1009
  9
$INSBASE
 10
0.0
 20
0.0
 30
0.0
  9
$EXTMIN
 10
165.57849999999999
 20
-3177.3678
 30
0.0
  9
$EXTMAX
 10
557.57799999999986
 20
-2970.3678
 30
0.0
  9
$LIMMIN
 10
0.0
 20
0.0
  9
$LIMMAX
 10
420.0
 20
297.0
  9
$ORTHOMODE
 70
     0
  9
$REGENMODE
 70
     1
  9
$FILLMODE
 70
     1
  9
$QTEXTMODE
 70
     0
  9
$MIRRTEXT
 70
     1
  9
$DRAGMODE
 70
     2
  9
$LTSCALE
 40
0.5
  9
$OSMODE
 70
  2173
  9
$ATTMODE
 70
     1
  9
$TEXTSIZE
 40
4.0
  9
$TRACEWID
 40
1.0
  9
$TEXTSTYLE
  7
STANDARD
  9
$CLAYER
  8
1TEXT
  9
$CELTYPE
  6
BYLAYER
  9
$CECOLOR
 62
   256
  9
$DIMSCALE
 40
1.0
  9
$DIMASZ
 40
2.0
  9
$DIMEXO
 40
0.0
  9
$DIMDLI
 40
7.0
  9
$DIMRND
 40
0.0
  9
$DIMDLE
 40
0.0
  9
$DIMEXE
 40
1.0
  9
$DIMTP
 40
0.0
  9
$DIMTM
 40
0.0
  9
$DIMTXT
 40
3.5
  9
$DIMCEN
 40
0.0
  9
$DIMTSZ
 40
0.0
  9
$DIMTOL
 70
     0
  9
$DIMLIM
 70
     0
  9
$DIMTIH
 70
     0
  9
$DIMTOH
 70
     0
  9
$DIMSE1
 70
     0
  9
$DIMSE2
 70
     0
  9
$DIMTAD
 70
     1
  9
$DIMZIN
 70
     8
  9
$DIMBLK
  1

  9
$DIMASO
 70
     1
  9
$DIMSHO
 70
     1
  9
$DIMPOST
  1
 
  9
$DIMAPOST
  1

  9
$DIMALT
 70
     0
  9
$DIMALTD
 70
     2
  9
$DIMALTF
 40
25.399999999999999
  9
$DIMLFAC
 40
1.0
  9
$DIMTOFL
 70
     1
  9
$DIMTVP
 40
0.0
  9
$DIMTIX
 70
     0
  9
$DIMSOXD
 70
     0
  9
$DIMSAH
 70
     1
  9
$DIMBLK1
  1
OPEN30
  9
$DIMBLK2
  1
OPEN30
  9
$DIMSTYLE
  2
NEWX10
  9
$DIMCLRD
 70
   256
  9
$DIMCLRE
 70
   256
  9
$DIMCLRT
 70
   201
  9
$DIMTFAC
 40
0.7
  9
$DIMGAP
 40
0.7
  9
$LUNITS
 70
     2
  9
$LUPREC
 70
     4
  9
$SKETCHINC
 40
1.0
  9
$FILLETRAD
 40
0.0
  9
$AUNITS
 70
     0
  9
$AUPREC
 70
     2
  9
$MENU
  1
acad
  9
$ELEVATION
 40
0.0
  9
$PELEVATION
 40
0.0
  9
$THICKNESS
 40
0.0
  9
$LIMCHECK
 70
     0
  9
$BLIPMODE
 70
     0
  9
$CHAMFERA
 40
10.0
  9
$CHAMFERB
 40
10.0
  9
$SKPOLY
 70
     0
  9
$TDCREATE
 40
2453033.7327000001
  9
$TDUPDATE
 40
2453335.4923137268
  9
$TDINDWG
 40
0.2282206134
  9
$TDUSRTIMER
 40
0.2282204398
  9
$USRTIMER
 70
     1
  9
$ANGBASE
 50
0.0
  9
$ANGDIR
 70
     0
  9
$PDMODE
 70
     0
  9
$PDSIZE
 40
0.0
  9
$PLINEWID
 40
0.0
  9
$COORDS
 70
     2
  9
$SPLFRAME
 70
     0
  9
$SPLINETYPE
 70
     6
  9
$SPLINESEGS
 70
     8
  9
$ATTDIA
 70
     0
  9
$ATTREQ
 70
     1
  9
$HANDLING
 70
     1
  9
$HANDSEED
  5
8F03
  9
$SURFTAB1
 70
     6
  9
$SURFTAB2
 70
     6
  9
$SURFTYPE
 70
     6
  9
$SURFU
 70
     6
  9
$SURFV
 70
     6
  9
$UCSNAME
  2

  9
$UCSORG
 10
0.0
 20
0.0
 30
0.0
  9
$UCSXDIR
 10
1.0
 20
0.0
 30
0.0
  9
$UCSYDIR
 10
0.0
 20
1.0
 30
0.0
  9
$PUCSNAME
  2

  9
$PUCSORG
 10
0.0
 20
0.0
 30
0.0
  9
$PUCSXDIR
 10
1.0
 20
0.0
 30
0.0
  9
$PUCSYDIR
 10
0.0
 20
1.0
 30
0.0
  9
$USERI1
 70
     0
  9
$USERI2
 70
     0
  9
$USERI3
 70
     0
  9
$USERI4
 70
     0
  9
$USERI5
 70
     0
  9
$USERR1
 40
0.0
  9
$USERR2
 40
0.0
  9
$USERR3
 40
0.0
  9
$USERR4
 40
0.0
  9
$USERR5
 40
0.0
  9
$WORLDVIEW
 70
     1
  9
$SHADEDGE
 70
     3
  9
$SHADEDIF
 70
    70
  9
$TILEMODE
 70
     1
  9
$MAXACTVP
 70
    48
  9
$PLIMCHECK
 70
     0
  9
$PEXTMIN
 10
1.0000000000000000E+020
 20
1.0000000000000000E+020
 30
1.0000000000000000E+020
  9
$PEXTMAX
 10
-1.0000000000000000E+020
 20
-1.0000000000000000E+020
 30
-1.0000000000000000E+020
  9
$PLIMMIN
 10
0.0
 20
0.0
  9
$PLIMMAX
 10
420.0
 20
297.0
  9
$UNITMODE
 70
     0
  9
$VISRETAIN
 70
     1
  9
$PLINEGEN
 70
     0
  9
$PSLTSCALE
 70
     1
  0
ENDSEC
  0
SECTION
  2
TABLES
  0
TABLE
  2
VPORT
 70
     4
  0
VPORT
  2
*ACTIVE
 70
     0
 10
0.0
 20
0.0
 11
1.0
 21
1.0
 12
361.57825000000003
 22
-3073.8678
 13
0.0
 23
0.0
 14
10.0
 24
10.0
 15
10.0
 25
10.0
 16
0.0
 26
0.0
 36
1.0
 17
0.0
 27
0.0
 37
0.0
 40
285.4578418964702
 41
1.453246753246753
 42
50.0
 43
0.0
 44
0.0
 50
0.0
 51
0.0
 71
     0
 72
   100
 73
     1
 74
     1
 75
     0
 76
     0
 77
     0
 78
     0
  0
ENDTAB
  0
TABLE
  2
LTYPE
 70
     4
  0
LTYPE
  2
CONTINUOUS
 70
     0
  3
Solid line
 72
    65
 73
     0
 40
0.0
  0
LTYPE
  2
CENTER2
 70
     0
  3
Center (.5x) ___ _ ___ _ ___ _ ___ _ ___ _ ___
 72
    65
 73
     4
 40
28.574999999999999
 49
19.050000000000001
 49
-3.1749999999999989
 49
3.1749999999999989
 49
-3.1749999999999989
  0
ENDTAB
  0
TABLE
  2
LAYER
 70
    11
  0
LAYER
  2
0
 70
     0
 62
     7
  6
CONTINUOUS
  0
LAYER
  2
1TEXT
 70
     0
 62
     7
  6
CONTINUOUS
  0
LAYER
  2
1CENTER
 70
     0
 62
     7
  6
CENTER2
  0
LAYER
  2
1DIM
 70
     0
 62
     7
  6
CONTINUOUS
  0
LAYER
  2
01
 70
     0
 62
     1
  6
CONTINUOUS
  0
ENDTAB
  0
TABLE
  2
STYLE
 70
     1
  0
STYLE
  2
STANDARD
 70
     0
 40
0.0
 41
1.0
 50
0.0
 71
     0
 42
4.0
  3
txt.shx
  4
extfont.shx
  0
ENDTAB
  0
TABLE
  2
VIEW
 70
     0
  0
ENDTAB
  0
TABLE
  2
UCS
 70
     0
  0
ENDTAB
  0
TABLE
  2
APPID
 70
     9
  0
APPID
  2
ACAD
 70
     0
  0
APPID
  2
DRAWINGVARIABLESXDATA
 70
     0
  0
APPID
  2
CONTENTTABDATA
 70
     0
  0
APPID
  2
CONTENTCURRENTTAB
 70
     0
  0
APPID
  2
CONTENTBLOCKDESCRIPTION
 70
     0
  0
APPID
  2
CONTENTBLOCKICON
 70
     0
  0
APPID
  2
CONTENTLONGBLOCKNAME
 70
     0
  0
APPID
  2
ACAD_PSEXT
 70
     0
  0
APPID
  2
ACAD_DSTYLE_DIMTEXT_FILL
 70
     0
  0
ENDTAB
  0
TABLE
  2
DIMSTYLE
 70
     1
  0
DIMSTYLE
  2
NEWX10
 70
     0
  3
 
  4

  5

  6

  7

 40
1.0
 41
2.0
 42
0.0
 43
7.0
 44
1.0
 45
0.0
 46
0.0
 47
0.0
 48
0.0
140
3.5
141
0.0
142
0.0
143
25.399999999999999
144
1.0
145
0.0
146
0.7
147
0.7
 71
     0
 72
     0
 73
     0
 74
     0
 75
     0
 76
     0
 77
     1
 78
     8
170
     0
171
     2
172
     1
173
     1
174
     0
175
     0
176
   256
177
   256
178
   201
  0
ENDTAB
  0
ENDSEC
  0
SECTION
  2
BLOCKS
  0
BLOCK
  8
0
  2
$MODEL_SPACE
 70
     0
 10
0.0
 20
0.0
 30
0.0
  3
$MODEL_SPACE
  1

  0
ENDBLK
  5
8A6A
  8
0
  0
BLOCK
 67
     1
  8
0
  2
$PAPER_SPACE
 70
     0
 10
0.0
 20
0.0
 30
0.0
  3
$PAPER_SPACE
  1

  0
ENDBLK
  5
8A66
 67
     1
  8
0
  0
BLOCK
  8
0
  2
_OPEN30
 70
     0
 10
0.0
 20
0.0
 30
0.0
  3
_OPEN30
  1

  0
LINE
  5
44
  8
0
  6
BYBLOCK
 62
     0
 10
-1.0
 20
0.2679
 30
0.0
 11
0.0
 21
0.0
 31
0.0
  0
LINE
  5
45
  8
0
  6
BYBLOCK
 62
     0
 10
0.0
 20
0.0
 30
0.0
 11
-1.0
 21
-0.2679
 31
0.0
  0
LINE
  5
46
  8
0
  6
BYBLOCK
 62
     0
 10
0.0
 20
0.0
 30
0.0
 11
-1.0
 21
0.0
 31
0.0
  0
ENDBLK
  5
47
  8
0
  0
ENDSEC
  0
SECTION
  2
ENTITIES
  0
LINE
  5
8CCF
  8
01
 10
166.07849999999999
 20
-3070.3676999999998
 30
0.0
 11
505.07850000000002
 21
-3070.3676999999998
 31
0.0
  0
LINE
  5
8CD0
  8
01
 10
166.07849999999999
 20
-3082.3676999999998
 30
0.0
 11
180.57849999999999
 21
-3082.3676999999998
 31
0.0
  0
LINE
  5
8CD1
  8
01
 10
165.57849999999999
 20
-3070.8678
 30
0.0
 11
165.57849999999999
 21
-3081.8679000000002
 31
0.0
  0
LINE
  5
8CD2
  8
01
 10
505.57850000000002
 20
-3070.8678
 30
0.0
 11
505.57850000000002
 21
-3081.8679000000002
 31
0.0
  0
LINE
  5
8CD3
  8
01
 10
166.07849999999999
 20
-3070.3676999999998
 30
0.0
 11
165.57849999999999
 21
-3070.8678
 31
0.0
  0
LINE
  5
8CD4
  8
01
 10
165.57849999999999
 20
-3081.8679000000002
 30
0.0
 11
166.07849999999999
 21
-3082.3676999999998
 31
0.0
  0
LINE
  5
8CD5
  8
01
 10
166.07849999999999
 20
-3070.3676999999998
 30
0.0
 11
166.07849999999999
 21
-3082.3676999999998
 31
0.0
  0
LINE
  5
8CD6
  8
01
 10
505.57850000000002
 20
-3070.8678
 30
0.0
 11
505.07850000000002
 21
-3070.3676999999998
 31
0.0
  0
LINE
  5
8CD7
  8
01
 10
505.57850000000002
 20
-3081.8679000000002
 30
0.0
 11
505.07850000000002
 21
-3082.3676999999998
 31
0.0
  0
LINE
  5
8CD8
  8
01
 10
505.07850000000002
 20
-3070.3676999999998
 30
0.0
 11
505.07850000000002
 21
-3082.3676999999998
 31
0.0
  0
LINE
  5
8CD9
  8
01
 10
490.57850000000002
 20
-3103.3676999999998
 30
0.0
 11
490.57850000000002
 21
-3082.3676999999998
 31
0.0
  0
LINE
  5
8CDA
  8
01
 10
480.57850000000002
 20
-3103.3676999999998
 30
0.0
 11
480.57850000000002
 21
-3082.3676999999998
 31
0.0
  0
LINE
  5
8CDB
  8
01
 10
190.57849999999999
 20
-3103.3676999999998
 30
0.0
 11
190.57849999999999
 21
-3082.3676999999998
 31
0.0
  0
LINE
  5
8CDC
  8
01
 10
180.57849999999999
 20
-3103.3676999999998
 30
0.0
 11
180.57849999999999
 21
-3082.3676999999998
 31
0.0
  0
LINE
  5
8CDD
  8
01
 10
180.57849999999999
 20
-3103.3676999999998
 30
0.0
 11
190.57849999999999
 21
-3103.3676999999998
 31
0.0
  0
LINE
  5
8CDE
  8
01
 10
480.57850000000002
 20
-3103.3676999999998
 30
0.0
 11
490.57850000000002
 21
-3103.3676999999998
 31
0.0
  0
LINE
  5
8CDF
  8
01
 10
556.57849999999985
 20
-3103.3676999999998
 30
0.0
 11
546.57849999999985
 21
-3103.3676999999998
 31
0.0
  0
LINE
  5
8CE0
  8
01
 10
556.57849999999985
 20
-3079.6845000000012
 30
0.0
 11
556.57849999999985
 21
-3103.3676999999998
 31
0.0
  0
LINE
  5
8CE1
  8
01
 10
546.57849999999985
 20
-3079.6845000000012
 30
0.0
 11
546.57849999999985
 21
-3103.3676999999998
 31
0.0
  0
POLYLINE
  5
8CE2
  8
01
 66
     1
 10
0.0
 20
0.0
 30
0.0
 70
     8
  0
VERTEX
  5
8CE3
  8
01
 10
490.57900000000001
 20
-3082.380000000001
 30
0.0
 70
    32
  0
VERTEX
  5
8CE4
  8
01
 10
490.52999999999992
 20
-3082.29
 30
0.0
 70
    32
  0
VERTEX
  5
8CE5
  8
01
 10
490.48000000000002
 20
-3082.1999999999998
 30
0.0
 70
    32
  0
VERTEX
  5
8CE6
  8
01
 10
490.428
 20
-3082.1400000000008
 30
0.0
 70
    32
  0
VERTEX
  5
8CE7
  8
01
 10
490.37599999999998
 20
-3082.0500000000002
 30
0.0
 70
    32
  0
VERTEX
  5
8CE8
  8
01
 10
490.32199999999989
 20
-3081.96
 30
0.0
 70
    32
  0
VERTEX
  5
8CE9
  8
01
 10
490.26699999999988
 20
-3081.9000000000001
 30
0.0
 70
    32
  0
VERTEX
  5
8CEA
  8
01
 10
490.20999999999992
 20
-3081.8099999999999
 30
0.0
 70
    32
  0
VERTEX
  5
8CEB
  8
01
 10
490.15300000000002
 20
-3081.75
 30
0.0
 70
    32
  0
VERTEX
  5
8CEC
  8
01
 10
490.09399999999999
 20
-3081.6900000000001
 30
0.0
 70
    32
  0
VERTEX
  5
8CED
  8
01
 10
490.03399999999988
 20
-3081.6000000000008
 30
0.0
 70
    32
  0
VERTEX
  5
8CEE
  8
01
 10
489.9729999999999
 20
-3081.54
 30
0.0
 70
    32
  0
VERTEX
  5
8CEF
  8
01
 10
489.911
 20
-3081.4499999999998
 30
0.0
 70
    32
  0
VERTEX
  5
8CF0
  8
01
 10
489.84800000000001
 20
-3081.3900000000008
 30
0.0
 70
    32
  0
VERTEX
  5
8CF1
  8
01
 10
489.7829999999999
 20
-3081.3299999999999
 30
0.0
 70
    32
  0
VERTEX
  5
8CF2
  8
01
 10
489.71800000000002
 20
-3081.27
 30
0.0
 70
    32
  0
VERTEX
  5
8CF3
  8
01
 10
489.65100000000001
 20
-3081.1799999999998
 30
0.0
 70
    32
  0
VERTEX
  5
8CF4
  8
01
 10
489.58300000000003
 20
-3081.1199999999999
 30
0.0
 70
    32
  0
VERTEX
  5
8CF5
  8
01
 10
489.51499999999999
 20
-3081.0599999999999
 30
0.0
 70
    32
  0
VERTEX
  5
8CF6
  8
01
 10
489.44499999999988
 20
-3081.0
 30
0.0
 70
    32
  0
VERTEX
  5
8CF7
  8
01
 10
489.37400000000002
 20
-3080.9400000000001
 30
0.0
 70
    32
  0
VERTEX
  5
8CF8
  8
01
 10
489.30199999999991
 20
-3080.8800000000001
 30
0.0
 70
    32
  0
VERTEX
  5
8CF9
  8
01
 10
489.23000000000002
 20
-3080.8200000000011
 30
0.0
 70
    32
  0
VERTEX
  5
8CFA
  8
01
 10
489.15600000000001
 20
-3080.7600000000011
 30
0.0
 70
    32
  0
VERTEX
  5
8CFB
  8
01
 10
489.08100000000002
 20
-3080.6999999999998
 30
0.0
 70
    32
  0
VERTEX
  5
8CFC
  8
01
 10
489.00599999999997
 20
-3080.6400000000008
 30
0.0
 70
    32
  0
VERTEX
  5
8CFD
  8
01
 10
488.92899999999997
 20
-3080.5799999999999
 30
0.0
 70
    32
  0
VERTEX
  5
8CFE
  8
01
 10
488.85199999999992
 20
-3080.5500000000002
 30
0.0
 70
    32
  0
VERTEX
  5
8CFF
  8
01
 10
488.77399999999989
 20
-3080.4899999999998
 30
0.0
 70
    32
  0
VERTEX
  5
8D00
  8
01
 10
488.69499999999988
 20
-3080.4299999999998
 30
0.0
 70
    32
  0
VERTEX
  5
8D01
  8
01
 10
488.6149999999999
 20
-3080.3699999999999
 30
0.0
 70
    32
  0
VERTEX
  5
8D02
  8
01
 10
488.53500000000003
 20
-3080.3400000000001
 30
0.0
 70
    32
  0
VERTEX
  5
8D03
  8
01
 10
488.45299999999997
 20
-3080.2800000000002
 30
0.0
 70
    32
  0
VERTEX
  5
8D04
  8
01
 10
488.37099999999992
 20
-3080.25
 30
0.0
 70
    32
  0
VERTEX
  5
8D05
  8
01
 10
488.28899999999987
 20
-3080.1900000000001
 30
0.0
 70
    32
  0
VERTEX
  5
8D06
  8
01
 10
488.20499999999993
 20
-3080.1599999999999
 30
0.0
 70
    32
  0
VERTEX
  5
8D07
  8
01
 10
488.12099999999998
 20
-3080.1000000000008
 30
0.0
 70
    32
  0
VERTEX
  5
8D08
  8
01
 10
488.036
 20
-3080.0700000000002
 30
0.0
 70
    32
  0
VERTEX
  5
8D09
  8
01
 10
487.95099999999991
 20
-3080.04
 30
0.0
 70
    32
  0
VERTEX
  5
8D0A
  8
01
 10
487.86399999999998
 20
-3080.0100000000011
 30
0.0
 70
    32
  0
VERTEX
  5
8D0B
  8
01
 10
487.77800000000002
 20
-3079.9499999999998
 30
0.0
 70
    32
  0
VERTEX
  5
8D0C
  8
01
 10
487.69
 20
-3079.9200000000001
 30
0.0
 70
    32
  0
VERTEX
  5
8D0D
  8
01
 10
487.60300000000001
 20
-3079.8900000000008
 30
0.0
 70
    32
  0
VERTEX
  5
8D0E
  8
01
 10
487.51400000000001
 20
-3079.8600000000001
 30
0.0
 70
    32
  0
VERTEX
  5
8D0F
  8
01
 10
487.4249999999999
 20
-3079.8299999999999
 30
0.0
 70
    32
  0
VERTEX
  5
8D10
  8
01
 10
487.3359999999999
 20
-3079.8000000000002
 30
0.0
 70
    32
  0
VERTEX
  5
8D11
  8
01
 10
487.24599999999998
 20
-3079.77
 30
0.0
 70
    32
  0
VERTEX
  5
8D12
  8
01
 10
487.15600000000001
 20
-3079.7399999999998
 30
0.0
 70
    32
  0
VERTEX
  5
8D13
  8
01
 10
487.065
 20
-3079.71
 30
0.0
 70
    32
  0
VERTEX
  5
8D14
  8
01
 10
486.97399999999999
 20
-3079.71
 30
0.0
 70
    32
  0
VERTEX
  5
8D15
  8
01
 10
486.88299999999998
 20
-3079.6799999999998
 30
0.0
 70
    32
  0
VERTEX
  5
8D16
  8
01
 10
486.791
 20
-3079.6500000000001
 30
0.0
 70
    32
  0
VERTEX
  5
8D17
  8
01
 10
486.69900000000001
 20
-3079.6500000000001
 30
0.0
 70
    32
  0
VERTEX
  5
8D18
  8
01
 10
486.60699999999991
 20
-3079.6199999999999
 30
0.0
 70
    32
  0
VERTEX
  5
8D19
  8
01
 10
486.51400000000001
 20
-3079.5900000000001
 30
0.0
 70
    32
  0
VERTEX
  5
8D1A
  8
01
 10
486.42099999999988
 20
-3079.5900000000001
 30
0.0
 70
    32
  0
VERTEX
  5
8D1B
  8
01
 10
486.32799999999997
 20
-3079.5900000000001
 30
0.0
 70
    32
  0
VERTEX
  5
8D1C
  8
01
 10
486.23500000000001
 20
-3079.5599999999999
 30
0.0
 70
    32
  0
VERTEX
  5
8D1D
  8
01
 10
486.14099999999991
 20
-3079.5599999999999
 30
0.0
 70
    32
  0
VERTEX
  5
8D1E
  8
01
 10
486.04799999999989
 20
-3079.5599999999999
 30
0.0
 70
    32
  0
VERTEX
  5
8D1F
  8
01
 10
485.95399999999989
 20
-3079.5300000000002
 30
0.0
 70
    32
  0
VERTEX
  5
8D20
  8
01
 10
485.86000000000001
 20
-3079.5300000000002
 30
0.0
 70
    32
  0
VERTEX
  5
8D21
  8
01
 10
485.76600000000002
 20
-3079.5300000000002
 30
0.0
 70
    32
  0
VERTEX
  5
8D22
  8
01
 10
485.67200000000003
 20
-3079.5300000000002
 30
0.0
 70
    32
  0
VERTEX
  5
8D23
  8
01
 10
485.57899999999989
 20
-3079.5300000000002
 30
0.0
 70
    32
  0
VERTEX
  5
8D24
  8
01
 10
485.4849999999999
 20
-3079.5300000000002
 30
0.0
 70
    32
  0
VERTEX
  5
8D25
  8
01
 10
485.39099999999991
 20
-3079.5300000000002
 30
0.0
 70
    32
  0
VERTEX
  5
8D26
  8
01
 10
485.29700000000003
 20
-3079.5300000000002
 30
0.0
 70
    32
  0
VERTEX
  5
8D27
  8
01
 10
485.20299999999997
 20
-3079.5300000000002
 30
0.0
 70
    32
  0
VERTEX
  5
8D28
  8
01
 10
485.10899999999998
 20
-3079.5599999999999
 30
0.0
 70
    32
  0
VERTEX
  5
8D29
  8
01
 10
485.01599999999991
 20
-3079.5599999999999
 30
0.0
 70
    32
  0
VERTEX
  5
8D2A
  8
01
 10
484.92199999999991
 20
-3079.5599999999999
 30
0.0
 70
    32
  0
VERTEX
  5
8D2B
  8
01
 10
484.82900000000001
 20
-3079.5900000000001
 30
0.0
 70
    32
  0
VERTEX
  5
8D2C
  8
01
 10
484.73599999999999
 20
-3079.5900000000001
 30
0.0
 70
    32
  0
VERTEX
  5
8D2D
  8
01
 10
484.64299999999997
 20
-3079.5900000000001
 30
0.0
 70
    32
  0
VERTEX
  5
8D2E
  8
01
 10
484.55000000000001
 20
-3079.6199999999999
 30
0.0
 70
    32
  0
VERTEX
  5
8D2F
  8
01
 10
484.45800000000003
 20
-3079.6500000000001
 30
0.0
 70
    32
  0
VERTEX
  5
8D30
  8
01
 10
484.36599999999987
 20
-3079.6500000000001
 30
0.0
 70
    32
  0
VERTEX
  5
8D31
  8
01
 10
484.274
 20
-3079.6799999999998
 30
0.0
 70
    32
  0
VERTEX
  5
8D32
  8
01
 10
484.18299999999999
 20
-3079.71
 30
0.0
 70
    32
  0
VERTEX
  5
8D33
  8
01
 10
484.09199999999993
 20
-3079.71
 30
0.0
 70
    32
  0
VERTEX
  5
8D34
  8
01
 10
484.00099999999992
 20
-3079.7399999999998
 30
0.0
 70
    32
  0
VERTEX
  5
8D35
  8
01
 10
483.91099999999989
 20
-3079.77
 30
0.0
 70
    32
  0
VERTEX
  5
8D36
  8
01
 10
483.82100000000003
 20
-3079.8000000000002
 30
0.0
 70
    32
  0
VERTEX
  5
8D37
  8
01
 10
483.73200000000003
 20
-3079.8299999999999
 30
0.0
 70
    32
  0
VERTEX
  5
8D38
  8
01
 10
483.64299999999997
 20
-3079.8600000000001
 30
0.0
 70
    32
  0
VERTEX
  5
8D39
  8
01
 10
483.55399999999997
 20
-3079.8900000000008
 30
0.0
 70
    32
  0
VERTEX
  5
8D3A
  8
01
 10
483.46699999999998
 20
-3079.9200000000001
 30
0.0
 70
    32
  0
VERTEX
  5
8D3B
  8
01
 10
483.37900000000002
 20
-3079.9499999999998
 30
0.0
 70
    32
  0
VERTEX
  5
8D3C
  8
01
 10
483.29300000000001
 20
-3080.0100000000011
 30
0.0
 70
    32
  0
VERTEX
  5
8D3D
  8
01
 10
483.2059999999999
 20
-3080.04
 30
0.0
 70
    32
  0
VERTEX
  5
8D3E
  8
01
 10
483.12099999999992
 20
-3080.0700000000002
 30
0.0
 70
    32
  0
VERTEX
  5
8D3F
  8
01
 10
483.03599999999989
 20
-3080.1000000000008
 30
0.0
 70
    32
  0
VERTEX
  5
8D40
  8
01
 10
482.952
 20
-3080.1599999999999
 30
0.0
 70
    32
  0
VERTEX
  5
8D41
  8
01
 10
482.86799999999999
 20
-3080.1900000000001
 30
0.0
 70
    32
  0
VERTEX
  5
8D42
  8
01
 10
482.786
 20
-3080.25
 30
0.0
 70
    32
  0
VERTEX
  5
8D43
  8
01
 10
482.70400000000001
 20
-3080.2800000000002
 30
0.0
 70
    32
  0
VERTEX
  5
8D44
  8
01
 10
482.6219999999999
 20
-3080.3400000000001
 30
0.0
 70
    32
  0
VERTEX
  5
8D45
  8
01
 10
482.54199999999997
 20
-3080.3699999999999
 30
0.0
 70
    32
  0
VERTEX
  5
8D46
  8
01
 10
482.46199999999999
 20
-3080.4299999999998
 30
0.0
 70
    32
  0
VERTEX
  5
8D47
  8
01
 10
482.38299999999998
 20
-3080.4899999999998
 30
0.0
 70
    32
  0
VERTEX
  5
8D48
  8
01
 10
482.30500000000001
 20
-3080.5500000000002
 30
0.0
 70
    32
  0
VERTEX
  5
8D49
  8
01
 10
482.22800000000001
 20
-3080.5799999999999
 30
0.0
 70
    32
  0
VERTEX
  5
8D4A
  8
01
 10
482.1509999999999
 20
-3080.6400000000008
 30
0.0
 70
    32
  0
VERTEX
  5
8D4B
  8
01
 10
482.07599999999991
 20
-3080.6999999999998
 30
0.0
 70
    32
  0
VERTEX
  5
8D4C
  8
01
 10
482.00099999999992
 20
-3080.7600000000011
 30
0.0
 70
    32
  0
VERTEX
  5
8D4D
  8
01
 10
481.92699999999991
 20
-3080.8200000000011
 30
0.0
 70
    32
  0
VERTEX
  5
8D4E
  8
01
 10
481.85500000000002
 20
-3080.8800000000001
 30
0.0
 70
    32
  0
VERTEX
  5
8D4F
  8
01
 10
481.7829999999999
 20
-3080.9400000000001
 30
0.0
 70
    32
  0
VERTEX
  5
8D50
  8
01
 10
481.71199999999999
 20
-3081.0
 30
0.0
 70
    32
  0
VERTEX
  5
8D51
  8
01
 10
481.64199999999988
 20
-3081.0599999999999
 30
0.0
 70
    32
  0
VERTEX
  5
8D52
  8
01
 10
481.5739999999999
 20
-3081.1199999999999
 30
0.0
 70
    32
  0
VERTEX
  5
8D53
  8
01
 10
481.50599999999991
 20
-3081.1799999999998
 30
0.0
 70
    32
  0
VERTEX
  5
8D54
  8
01
 10
481.43900000000002
 20
-3081.27
 30
0.0
 70
    32
  0
VERTEX
  5
8D55
  8
01
 10
481.37400000000002
 20
-3081.3299999999999
 30
0.0
 70
    32
  0
VERTEX
  5
8D56
  8
01
 10
481.30900000000003
 20
-3081.3900000000008
 30
0.0
 70
    32
  0
VERTEX
  5
8D57
  8
01
 10
481.24599999999992
 20
-3081.4499999999998
 30
0.0
 70
    32
  0
VERTEX
  5
8D58
  8
01
 10
481.18400000000003
 20
-3081.54
 30
0.0
 70
    32
  0
VERTEX
  5
8D59
  8
01
 10
481.1230000000001
 20
-3081.6000000000008
 30
0.0
 70
    32
  0
VERTEX
  5
8D5A
  8
01
 10
481.06299999999999
 20
-3081.6900000000001
 30
0.0
 70
    32
  0
VERTEX
  5
8D5B
  8
01
 10
481.00399999999991
 20
-3081.75
 30
0.0
 70
    32
  0
VERTEX
  5
8D5C
  8
01
 10
480.94699999999989
 20
-3081.8099999999999
 30
0.0
 70
    32
  0
VERTEX
  5
8D5D
  8
01
 10
480.88999999999999
 20
-3081.9000000000001
 30
0.0
 70
    32
  0
VERTEX
  5
8D5E
  8
01
 10
480.83499999999992
 20
-3081.96
 30
0.0
 70
    32
  0
VERTEX
  5
8D5F
  8
01
 10
480.78099999999989
 20
-3082.0500000000002
 30
0.0
 70
    32
  0
VERTEX
  5
8D60
  8
01
 10
480.72899999999998
 20
-3082.1400000000008
 30
0.0
 70
    32
  0
VERTEX
  5
8D61
  8
01
 10
480.67699999999991
 20
-3082.1999999999998
 30
0.0
 70
    32
  0
VERTEX
  5
8D62
  8
01
 10
480.6269999999999
 20
-3082.29
 30
0.0
 70
    32
  0
VERTEX
  5
8D63
  8
01
 10
480.57799999999997
 20
-3082.380000000001
 30
0.0
 70
    32
  0
SEQEND
  5
8D64
  8
01
  0
POLYLINE
  5
8D65
  8
01
 66
     1
 10
0.0
 20
0.0
 30
0.0
 70
     8
  0
VERTEX
  5
8D66
  8
01
 10
190.57900000000001
 20
-3082.380000000001
 30
0.0
 70
    32
  0
VERTEX
  5
8D67
  8
01
 10
190.53
 20
-3082.29
 30
0.0
 70
    32
  0
VERTEX
  5
8D68
  8
01
 10
190.47999999999999
 20
-3082.1999999999998
 30
0.0
 70
    32
  0
VERTEX
  5
8D69
  8
01
 10
190.428
 20
-3082.1400000000008
 30
0.0
 70
    32
  0
VERTEX
  5
8D6A
  8
01
 10
190.376
 20
-3082.0500000000002
 30
0.0
 70
    32
  0
VERTEX
  5
8D6B
  8
01
 10
190.322
 20
-3081.96
 30
0.0
 70
    32
  0
VERTEX
  5
8D6C
  8
01
 10
190.267
 20
-3081.9000000000001
 30
0.0
 70
    32
  0
VERTEX
  5
8D6D
  8
01
 10
190.21000000000001
 20
-3081.8099999999999
 30
0.0
 70
    32
  0
VERTEX
  5
8D6E
  8
01
 10
190.15299999999999
 20
-3081.75
 30
0.0
 70
    32
  0
VERTEX
  5
8D6F
  8
01
 10
190.09399999999999
 20
-3081.6900000000001
 30
0.0
 70
    32
  0
VERTEX
  5
8D70
  8
01
 10
190.03399999999999
 20
-3081.6000000000008
 30
0.0
 70
    32
  0
VERTEX
  5
8D71
  8
01
 10
189.97300000000001
 20
-3081.54
 30
0.0
 70
    32
  0
VERTEX
  5
8D72
  8
01
 10
189.911
 20
-3081.4499999999998
 30
0.0
 70
    32
  0
VERTEX
  5
8D73
  8
01
 10
189.84800000000001
 20
-3081.3900000000008
 30
0.0
 70
    32
  0
VERTEX
  5
8D74
  8
01
 10
189.78299999999999
 20
-3081.3299999999999
 30
0.0
 70
    32
  0
VERTEX
  5
8D75
  8
01
 10
189.71799999999999
 20
-3081.27
 30
0.0
 70
    32
  0
VERTEX
  5
8D76
  8
01
 10
189.65100000000001
 20
-3081.1799999999998
 30
0.0
 70
    32
  0
VERTEX
  5
8D77
  8
01
 10
189.583
 20
-3081.1199999999999
 30
0.0
 70
    32
  0
VERTEX
  5
8D78
  8
01
 10
189.51499999999999
 20
-3081.0599999999999
 30
0.0
 70
    32
  0
VERTEX
  5
8D79
  8
01
 10
189.44499999999999
 20
-3081.0
 30
0.0
 70
    32
  0
VERTEX
  5
8D7A
  8
01
 10
189.374
 20
-3080.9400000000001
 30
0.0
 70
    32
  0
VERTEX
  5
8D7B
  8
01
 10
189.30199999999999
 20
-3080.8800000000001
 30
0.0
 70
    32
  0
VERTEX
  5
8D7C
  8
01
 10
189.22999999999999
 20
-3080.8200000000011
 30
0.0
 70
    32
  0
VERTEX
  5
8D7D
  8
01
 10
189.15600000000001
 20
-3080.7600000000011
 30
0.0
 70
    32
  0
VERTEX
  5
8D7E
  8
01
 10
189.08099999999999
 20
-3080.6999999999998
 30
0.0
 70
    32
  0
VERTEX
  5
8D7F
  8
01
 10
189.006
 20
-3080.6400000000008
 30
0.0
 70
    32
  0
VERTEX
  5
8D80
  8
01
 10
188.929
 20
-3080.5799999999999
 30
0.0
 70
    32
  0
VERTEX
  5
8D81
  8
01
 10
188.852
 20
-3080.5500000000002
 30
0.0
 70
    32
  0
VERTEX
  5
8D82
  8
01
 10
188.774
 20
-3080.4899999999998
 30
0.0
 70
    32
  0
VERTEX
  5
8D83
  8
01
 10
188.69499999999999
 20
-3080.4299999999998
 30
0.0
 70
    32
  0
VERTEX
  5
8D84
  8
01
 10
188.61500000000001
 20
-3080.3699999999999
 30
0.0
 70
    32
  0
VERTEX
  5
8D85
  8
01
 10
188.535
 20
-3080.3400000000001
 30
0.0
 70
    32
  0
VERTEX
  5
8D86
  8
01
 10
188.453
 20
-3080.2800000000002
 30
0.0
 70
    32
  0
VERTEX
  5
8D87
  8
01
 10
188.3709999999999
 20
-3080.25
 30
0.0
 70
    32
  0
VERTEX
  5
8D88
  8
01
 10
188.28899999999999
 20
-3080.1900000000001
 30
0.0
 70
    32
  0
VERTEX
  5
8D89
  8
01
 10
188.20500000000001
 20
-3080.1599999999999
 30
0.0
 70
    32
  0
VERTEX
  5
8D8A
  8
01
 10
188.12100000000001
 20
-3080.1000000000008
 30
0.0
 70
    32
  0
VERTEX
  5
8D8B
  8
01
 10
188.03599999999989
 20
-3080.0700000000002
 30
0.0
 70
    32
  0
VERTEX
  5
8D8C
  8
01
 10
187.95099999999999
 20
-3080.04
 30
0.0
 70
    32
  0
VERTEX
  5
8D8D
  8
01
 10
187.864
 20
-3080.0100000000011
 30
0.0
 70
    32
  0
VERTEX
  5
8D8E
  8
01
 10
187.77799999999999
 20
-3079.9499999999998
 30
0.0
 70
    32
  0
VERTEX
  5
8D8F
  8
01
 10
187.69
 20
-3079.9200000000001
 30
0.0
 70
    32
  0
VERTEX
  5
8D90
  8
01
 10
187.60300000000001
 20
-3079.8900000000008
 30
0.0
 70
    32
  0
VERTEX
  5
8D91
  8
01
 10
187.51400000000001
 20
-3079.8600000000001
 30
0.0
 70
    32
  0
VERTEX
  5
8D92
  8
01
 10
187.42500000000001
 20
-3079.8299999999999
 30
0.0
 70
    32
  0
VERTEX
  5
8D93
  8
01
 10
187.33600000000001
 20
-3079.8000000000002
 30
0.0
 70
    32
  0
VERTEX
  5
8D94
  8
01
 10
187.24600000000001
 20
-3079.77
 30
0.0
 70
    32
  0
VERTEX
  5
8D95
  8
01
 10
187.15600000000001
 20
-3079.7399999999998
 30
0.0
 70
    32
  0
VERTEX
  5
8D96
  8
01
 10
187.065
 20
-3079.71
 30
0.0
 70
    32
  0
VERTEX
  5
8D97
  8
01
 10
186.97399999999999
 20
-3079.71
 30
0.0
 70
    32
  0
VERTEX
  5
8D98
  8
01
 10
186.8829999999999
 20
-3079.6799999999998
 30
0.0
 70
    32
  0
VERTEX
  5
8D99
  8
01
 10
186.791
 20
-3079.6500000000001
 30
0.0
 70
    32
  0
VERTEX
  5
8D9A
  8
01
 10
186.69900000000001
 20
-3079.6500000000001
 30
0.0
 70
    32
  0
VERTEX
  5
8D9B
  8
01
 10
186.607
 20
-3079.6199999999999
 30
0.0
 70
    32
  0
VERTEX
  5
8D9C
  8
01
 10
186.51400000000001
 20
-3079.5900000000001
 30
0.0
 70
    32
  0
VERTEX
  5
8D9D
  8
01
 10
186.42099999999999
 20
-3079.5900000000001
 30
0.0
 70
    32
  0
VERTEX
  5
8D9E
  8
01
 10
186.328
 20
-3079.5900000000001
 30
0.0
 70
    32
  0
VERTEX
  5
8D9F
  8
01
 10
186.23500000000001
 20
-3079.5599999999999
 30
0.0
 70
    32
  0
VERTEX
  5
8DA0
  8
01
 10
186.14099999999999
 20
-3079.5599999999999
 30
0.0
 70
    32
  0
VERTEX
  5
8DA1
  8
01
 10
186.048
 20
-3079.5599999999999
 30
0.0
 70
    32
  0
VERTEX
  5
8DA2
  8
01
 10
185.95400000000001
 20
-3079.5300000000002
 30
0.0
 70
    32
  0
VERTEX
  5
8DA3
  8
01
 10
185.86000000000001
 20
-3079.5300000000002
 30
0.0
 70
    32
  0
VERTEX
  5
8DA4
  8
01
 10
185.76599999999999
 20
-3079.5300000000002
 30
0.0
 70
    32
  0
VERTEX
  5
8DA5
  8
01
 10
185.672
 20
-3079.5300000000002
 30
0.0
 70
    32
  0
VERTEX
  5
8DA6
  8
01
 10
185.578
 20
-3079.5300000000002
 30
0.0
 70
    32
  0
VERTEX
  5
8DA7
  8
01
 10
185.48500000000001
 20
-3079.5300000000002
 30
0.0
 70
    32
  0
VERTEX
  5
8DA8
  8
01
 10
185.39099999999999
 20
-3079.5300000000002
 30
0.0
 70
    32
  0
VERTEX
  5
8DA9
  8
01
 10
185.297
 20
-3079.5300000000002
 30
0.0
 70
    32
  0
VERTEX
  5
8DAA
  8
01
 10
185.203
 20
-3079.5300000000002
 30
0.0
 70
    32
  0
VERTEX
  5
8DAB
  8
01
 10
185.10900000000001
 20
-3079.5599999999999
 30
0.0
 70
    32
  0
VERTEX
  5
8DAC
  8
01
 10
185.01599999999999
 20
-3079.5599999999999
 30
0.0
 70
    32
  0
VERTEX
  5
8DAD
  8
01
 10
184.922
 20
-3079.5599999999999
 30
0.0
 70
    32
  0
VERTEX
  5
8DAE
  8
01
 10
184.82900000000001
 20
-3079.5900000000001
 30
0.0
 70
    32
  0
VERTEX
  5
8DAF
  8
01
 10
184.73599999999999
 20
-3079.5900000000001
 30
0.0
 70
    32
  0
VERTEX
  5
8DB0
  8
01
 10
184.643
 20
-3079.5900000000001
 30
0.0
 70
    32
  0
VERTEX
  5
8DB1
  8
01
 10
184.55000000000001
 20
-3079.6199999999999
 30
0.0
 70
    32
  0
VERTEX
  5
8DB2
  8
01
 10
184.458
 20
-3079.6500000000001
 30
0.0
 70
    32
  0
VERTEX
  5
8DB3
  8
01
 10
184.36600000000001
 20
-3079.6500000000001
 30
0.0
 70
    32
  0
VERTEX
  5
8DB4
  8
01
 10
184.274
 20
-3079.6799999999998
 30
0.0
 70
    32
  0
VERTEX
  5
8DB5
  8
01
 10
184.18299999999999
 20
-3079.71
 30
0.0
 70
    32
  0
VERTEX
  5
8DB6
  8
01
 10
184.09200000000001
 20
-3079.71
 30
0.0
 70
    32
  0
VERTEX
  5
8DB7
  8
01
 10
184.00099999999989
 20
-3079.7399999999998
 30
0.0
 70
    32
  0
VERTEX
  5
8DB8
  8
01
 10
183.91099999999989
 20
-3079.77
 30
0.0
 70
    32
  0
VERTEX
  5
8DB9
  8
01
 10
183.821
 20
-3079.8000000000002
 30
0.0
 70
    32
  0
VERTEX
  5
8DBA
  8
01
 10
183.732
 20
-3079.8299999999999
 30
0.0
 70
    32
  0
VERTEX
  5
8DBB
  8
01
 10
183.643
 20
-3079.8600000000001
 30
0.0
 70
    32
  0
VERTEX
  5
8DBC
  8
01
 10
183.554
 20
-3079.8900000000008
 30
0.0
 70
    32
  0
VERTEX
  5
8DBD
  8
01
 10
183.46700000000001
 20
-3079.9200000000001
 30
0.0
 70
    32
  0
VERTEX
  5
8DBE
  8
01
 10
183.37899999999999
 20
-3079.9499999999998
 30
0.0
 70
    32
  0
VERTEX
  5
8DBF
  8
01
 10
183.29300000000001
 20
-3080.0100000000011
 30
0.0
 70
    32
  0
VERTEX
  5
8DC0
  8
01
 10
183.20599999999999
 20
-3080.04
 30
0.0
 70
    32
  0
VERTEX
  5
8DC1
  8
01
 10
183.12100000000001
 20
-3080.0700000000002
 30
0.0
 70
    32
  0
VERTEX
  5
8DC2
  8
01
 10
183.03599999999989
 20
-3080.1000000000008
 30
0.0
 70
    32
  0
VERTEX
  5
8DC3
  8
01
 10
182.952
 20
-3080.1599999999999
 30
0.0
 70
    32
  0
VERTEX
  5
8DC4
  8
01
 10
182.86799999999999
 20
-3080.1900000000001
 30
0.0
 70
    32
  0
VERTEX
  5
8DC5
  8
01
 10
182.786
 20
-3080.25
 30
0.0
 70
    32
  0
VERTEX
  5
8DC6
  8
01
 10
182.70400000000001
 20
-3080.2800000000002
 30
0.0
 70
    32
  0
VERTEX
  5
8DC7
  8
01
 10
182.62200000000001
 20
-3080.3400000000001
 30
0.0
 70
    32
  0
VERTEX
  5
8DC8
  8
01
 10
182.542
 20
-3080.3699999999999
 30
0.0
 70
    32
  0
VERTEX
  5
8DC9
  8
01
 10
182.46199999999999
 20
-3080.4299999999998
 30
0.0
 70
    32
  0
VERTEX
  5
8DCA
  8
01
 10
182.38300000000001
 20
-3080.4899999999998
 30
0.0
 70
    32
  0
VERTEX
  5
8DCB
  8
01
 10
182.30500000000001
 20
-3080.5500000000002
 30
0.0
 70
    32
  0
VERTEX
  5
8DCC
  8
01
 10
182.22800000000001
 20
-3080.5799999999999
 30
0.0
 70
    32
  0
VERTEX
  5
8DCD
  8
01
 10
182.15100000000001
 20
-3080.6400000000008
 30
0.0
 70
    32
  0
VERTEX
  5
8DCE
  8
01
 10
182.07599999999999
 20
-3080.6999999999998
 30
0.0
 70
    32
  0
VERTEX
  5
8DCF
  8
01
 10
182.001
 20
-3080.7600000000011
 30
0.0
 70
    32
  0
VERTEX
  5
8DD0
  8
01
 10
181.92699999999999
 20
-3080.8200000000011
 30
0.0
 70
    32
  0
VERTEX
  5
8DD1
  8
01
 10
181.85499999999999
 20
-3080.8800000000001
 30
0.0
 70
    32
  0
VERTEX
  5
8DD2
  8
01
 10
181.78299999999999
 20
-3080.9400000000001
 30
0.0
 70
    32
  0
VERTEX
  5
8DD3
  8
01
 10
181.71199999999999
 20
-3081.0
 30
0.0
 70
    32
  0
VERTEX
  5
8DD4
  8
01
 10
181.642
 20
-3081.0599999999999
 30
0.0
 70
    32
  0
VERTEX
  5
8DD5
  8
01
 10
181.57400000000001
 20
-3081.1199999999999
 30
0.0
 70
    32
  0
VERTEX
  5
8DD6
  8
01
 10
181.50599999999989
 20
-3081.1799999999998
 30
0.0
 70
    32
  0
VERTEX
  5
8DD7
  8
01
 10
181.43899999999999
 20
-3081.27
 30
0.0
 70
    32
  0
VERTEX
  5
8DD8
  8
01
 10
181.374
 20
-3081.3299999999999
 30
0.0
 70
    32
  0
VERTEX
  5
8DD9
  8
01
 10
181.309
 20
-3081.3900000000008
 30
0.0
 70
    32
  0
VERTEX
  5
8DDA
  8
01
 10
181.2459999999999
 20
-3081.4499999999998
 30
0.0
 70
    32
  0
VERTEX
  5
8DDB
  8
01
 10
181.184
 20
-3081.54
 30
0.0
 70
    32
  0
VERTEX
  5
8DDC
  8
01
 10
181.12299999999999
 20
-3081.6000000000008
 30
0.0
 70
    32
  0
VERTEX
  5
8DDD
  8
01
 10
181.06299999999999
 20
-3081.6900000000001
 30
0.0
 70
    32
  0
VERTEX
  5
8DDE
  8
01
 10
181.00399999999999
 20
-3081.75
 30
0.0
 70
    32
  0
VERTEX
  5
8DDF
  8
01
 10
180.947
 20
-3081.8099999999999
 30
0.0
 70
    32
  0
VERTEX
  5
8DE0
  8
01
 10
180.88999999999999
 20
-3081.9000000000001
 30
0.0
 70
    32
  0
VERTEX
  5
8DE1
  8
01
 10
180.83500000000001
 20
-3081.96
 30
0.0
 70
    32
  0
VERTEX
  5
8DE2
  8
01
 10
180.78100000000001
 20
-3082.0500000000002
 30
0.0
 70
    32
  0
VERTEX
  5
8DE3
  8
01
 10
180.72900000000001
 20
-3082.1400000000008
 30
0.0
 70
    32
  0
VERTEX
  5
8DE4
  8
01
 10
180.67699999999999
 20
-3082.1999999999998
 30
0.0
 70
    32
  0
VERTEX
  5
8DE5
  8
01
 10
180.62700000000001
 20
-3082.29
 30
0.0
 70
    32
  0
VERTEX
  5
8DE6
  8
01
 10
180.578
 20
-3082.380000000001
 30
0.0
 70
    32
  0
SEQEND
  5
8DE7
  8
01
  0
LINE
  5
8DE8
  8
01
 10
190.57849999999999
 20
-3082.3676999999998
 30
0.0
 11
480.57850000000002
 21
-3082.3676999999998
 31
0.0
  0
LINE
  5
8DE9
  8
01
 10
490.57850000000002
 20
-3082.3676999999998
 30
0.0
 11
505.07850000000002
 21
-3082.3676999999998
 31
0.0
  0
POLYLINE
  5
8DEA
  8
01
 66
     1
 10
0.0
 20
0.0
 30
0.0
 70
     8
  0
VERTEX
  5
8DEB
  8
01
 10
557.57799999999986
 20
-3076.3800000000001
 30
0.0
 70
    32
  0
VERTEX
  5
8DEC
  8
01
 10
557.57099999999991
 20
-3076.0799999999999
 30
0.0
 70
    32
  0
VERTEX
  5
8DED
  8
01
 10
557.54999999999995
 20
-3075.7800000000002
 30
0.0
 70
    32
  0
VERTEX
  5
8DEE
  8
01
 10
557.51400000000001
 20
-3075.4800000000009
 30
0.0
 70
    32
  0
VERTEX
  5
8DEF
  8
01
 10
557.46299999999997
 20
-3075.21
 30
0.0
 70
    32
  0
VERTEX
  5
8DF0
  8
01
 10
557.399
 20
-3074.9099999999999
 30
0.0
 70
    32
  0
VERTEX
  5
8DF1
  8
01
 10
557.32000000000005
 20
-3074.6399999999999
 30
0.0
 70
    32
  0
VERTEX
  5
8DF2
  8
01
 10
557.22800000000007
 20
-3074.3400000000001
 30
0.0
 70
    32
  0
VERTEX
  5
8DF3
  8
01
 10
557.12199999999984
 20
-3074.0700000000011
 30
0.0
 70
    32
  0
VERTEX
  5
8DF4
  8
01
 10
557.00199999999995
 20
-3073.8000000000002
 30
0.0
 70
    32
  0
VERTEX
  5
8DF5
  8
01
 10
556.86999999999989
 20
-3073.5300000000002
 30
0.0
 70
    32
  0
VERTEX
  5
8DF6
  8
01
 10
556.72500000000002
 20
-3073.29
 30
0.0
 70
    32
  0
VERTEX
  5
8DF7
  8
01
 10
556.56699999999989
 20
-3073.02
 30
0.0
 70
    32
  0
VERTEX
  5
8DF8
  8
01
 10
556.39799999999991
 20
-3072.7800000000002
 30
0.0
 70
    32
  0
VERTEX
  5
8DF9
  8
01
 10
556.21699999999998
 20
-3072.5700000000011
 30
0.0
 70
    32
  0
VERTEX
  5
8DFA
  8
01
 10
556.024
 20
-3072.3299999999999
 30
0.0
 70
    32
  0
VERTEX
  5
8DFB
  8
01
 10
555.82100000000003
 20
-3072.1199999999999
 30
0.0
 70
    32
  0
VERTEX
  5
8DFC
  8
01
 10
555.60799999999995
 20
-3071.9099999999999
 30
0.0
 70
    32
  0
VERTEX
  5
8DFD
  8
01
 10
555.38499999999988
 20
-3071.73
 30
0.0
 70
    32
  0
VERTEX
  5
8DFE
  8
01
 10
555.15300000000002
 20
-3071.5500000000002
 30
0.0
 70
    32
  0
VERTEX
  5
8DFF
  8
01
 10
554.91199999999992
 20
-3071.3699999999999
 30
0.0
 70
    32
  0
VERTEX
  5
8E00
  8
01
 10
554.66300000000001
 20
-3071.2199999999998
 30
0.0
 70
    32
  0
VERTEX
  5
8E01
  8
01
 10
554.40699999999993
 20
-3071.0700000000011
 30
0.0
 70
    32
  0
VERTEX
  5
8E02
  8
01
 10
554.14400000000001
 20
-3070.9499999999998
 30
0.0
 70
    32
  0
VERTEX
  5
8E03
  8
01
 10
553.875
 20
-3070.8299999999999
 30
0.0
 70
    32
  0
VERTEX
  5
8E04
  8
01
 10
553.60000000000002
 20
-3070.71
 30
0.0
 70
    32
  0
VERTEX
  5
8E05
  8
01
 10
553.32000000000005
 20
-3070.6199999999999
 30
0.0
 70
    32
  0
VERTEX
  5
8E06
  8
01
 10
553.03599999999994
 20
-3070.5599999999999
 30
0.0
 70
    32
  0
VERTEX
  5
8E07
  8
01
 10
552.74900000000002
 20
-3070.4699999999998
 30
0.0
 70
    32
  0
VERTEX
  5
8E08
  8
01
 10
552.45899999999995
 20
-3070.4400000000001
 30
0.0
 70
    32
  0
VERTEX
  5
8E09
  8
01
 10
552.16699999999992
 20
-3070.4099999999999
 30
0.0
 70
    32
  0
VERTEX
  5
8E0A
  8
01
 10
551.87300000000005
 20
-3070.3800000000001
 30
0.0
 70
    32
  0
VERTEX
  5
8E0B
  8
01
 10
551.57799999999986
 20
-3070.3800000000001
 30
0.0
 70
    32
  0
VERTEX
  5
8E0C
  8
01
 10
551.28399999999988
 20
-3070.3800000000001
 30
0.0
 70
    32
  0
VERTEX
  5
8E0D
  8
01
 10
550.99000000000001
 20
-3070.4099999999999
 30
0.0
 70
    32
  0
VERTEX
  5
8E0E
  8
01
 10
550.69799999999987
 20
-3070.4400000000001
 30
0.0
 70
    32
  0
VERTEX
  5
8E0F
  8
01
 10
550.40800000000002
 20
-3070.4699999999998
 30
0.0
 70
    32
  0
VERTEX
  5
8E10
  8
01
 10
550.12099999999987
 20
-3070.5599999999999
 30
0.0
 70
    32
  0
VERTEX
  5
8E11
  8
01
 10
549.83699999999999
 20
-3070.6199999999999
 30
0.0
 70
    32
  0
VERTEX
  5
8E12
  8
01
 10
549.5569999999999
 20
-3070.71
 30
0.0
 70
    32
  0
VERTEX
  5
8E13
  8
01
 10
549.28199999999993
 20
-3070.8299999999999
 30
0.0
 70
    32
  0
VERTEX
  5
8E14
  8
01
 10
549.01300000000003
 20
-3070.9499999999998
 30
0.0
 70
    32
  0
VERTEX
  5
8E15
  8
01
 10
548.74999999999989
 20
-3071.0700000000011
 30
0.0
 70
    32
  0
VERTEX
  5
8E16
  8
01
 10
548.49400000000003
 20
-3071.2199999999998
 30
0.0
 70
    32
  0
VERTEX
  5
8E17
  8
01
 10
548.245
 20
-3071.3699999999999
 30
0.0
 70
    32
  0
VERTEX
  5
8E18
  8
01
 10
548.00400000000002
 20
-3071.5500000000002
 30
0.0
 70
    32
  0
VERTEX
  5
8E19
  8
01
 10
547.77199999999993
 20
-3071.73
 30
0.0
 70
    32
  0
VERTEX
  5
8E1A
  8
01
 10
547.54899999999986
 20
-3071.9099999999999
 30
0.0
 70
    32
  0
VERTEX
  5
8E1B
  8
01
 10
547.33600000000001
 20
-3072.1199999999999
 30
0.0
 70
    32
  0
VERTEX
  5
8E1C
  8
01
 10
547.13300000000004
 20
-3072.3299999999999
 30
0.0
 70
    32
  0
VERTEX
  5
8E1D
  8
01
 10
546.94000000000005
 20
-3072.5700000000011
 30
0.0
 70
    32
  0
VERTEX
  5
8E1E
  8
01
 10
546.75900000000001
 20
-3072.7800000000002
 30
0.0
 70
    32
  0
VERTEX
  5
8E1F
  8
01
 10
546.59000000000003
 20
-3073.02
 30
0.0
 70
    32
  0
VERTEX
  5
8E20
  8
01
 10
546.4319999999999
 20
-3073.29
 30
0.0
 70
    32
  0
VERTEX
  5
8E21
  8
01
 10
546.28699999999992
 20
-3073.5300000000002
 30
0.0
 70
    32
  0
VERTEX
  5
8E22
  8
01
 10
546.15499999999986
 20
-3073.8000000000002
 30
0.0
 70
    32
  0
VERTEX
  5
8E23
  8
01
 10
546.03499999999997
 20
-3074.0700000000011
 30
0.0
 70
    32
  0
VERTEX
  5
8E24
  8
01
 10
545.92899999999997
 20
-3074.3400000000001
 30
0.0
 70
    32
  0
VERTEX
  5
8E25
  8
01
 10
545.83699999999999
 20
-3074.6399999999999
 30
0.0
 70
    32
  0
VERTEX
  5
8E26
  8
01
 10
545.75800000000004
 20
-3074.9099999999999
 30
0.0
 70
    32
  0
VERTEX
  5
8E27
  8
01
 10
545.69399999999985
 20
-3075.21
 30
0.0
 70
    32
  0
VERTEX
  5
8E28
  8
01
 10
545.64300000000003
 20
-3075.4800000000009
 30
0.0
 70
    32
  0
VERTEX
  5
8E29
  8
01
 10
545.60699999999986
 20
-3075.7800000000002
 30
0.0
 70
    32
  0
VERTEX
  5
8E2A
  8
01
 10
545.58600000000001
 20
-3076.0799999999999
 30
0.0
 70
    32
  0
VERTEX
  5
8E2B
  8
01
 10
545.57799999999986
 20
-3076.3800000000001
 30
0.0
 70
    32
  0
VERTEX
  5
8E2C
  8
01
 10
545.58600000000001
 20
-3076.6500000000001
 30
0.0
 70
    32
  0
VERTEX
  5
8E2D
  8
01
 10
545.60699999999986
 20
-3076.9499999999998
 30
0.0
 70
    32
  0
VERTEX
  5
8E2E
  8
01
 10
545.64300000000003
 20
-3077.25
 30
0.0
 70
    32
  0
VERTEX
  5
8E2F
  8
01
 10
545.69399999999985
 20
-3077.5500000000002
 30
0.0
 70
    32
  0
VERTEX
  5
8E30
  8
01
 10
545.75800000000004
 20
-3077.8200000000002
 30
0.0
 70
    32
  0
VERTEX
  5
8E31
  8
01
 10
545.83699999999999
 20
-3078.1199999999999
 30
0.0
 70
    32
  0
VERTEX
  5
8E32
  8
01
 10
545.92899999999997
 20
-3078.3900000000008
 30
0.0
 70
    32
  0
VERTEX
  5
8E33
  8
01
 10
546.03499999999997
 20
-3078.6599999999999
 30
0.0
 70
    32
  0
VERTEX
  5
8E34
  8
01
 10
546.15499999999986
 20
-3078.9299999999998
 30
0.0
 70
    32
  0
VERTEX
  5
8E35
  8
01
 10
546.28699999999992
 20
-3079.2000000000012
 30
0.0
 70
    32
  0
VERTEX
  5
8E36
  8
01
 10
546.4319999999999
 20
-3079.4400000000001
 30
0.0
 70
    32
  0
VERTEX
  5
8E37
  8
01
 10
546.59000000000003
 20
-3079.71
 30
0.0
 70
    32
  0
VERTEX
  5
8E38
  8
01
 10
546.75900000000001
 20
-3079.9499999999998
 30
0.0
 70
    32
  0
VERTEX
  5
8E39
  8
01
 10
546.94000000000005
 20
-3080.1599999999999
 30
0.0
 70
    32
  0
VERTEX
  5
8E3A
  8
01
 10
547.13300000000004
 20
-3080.4000000000001
 30
0.0
 70
    32
  0
VERTEX
  5
8E3B
  8
01
 10
547.33600000000001
 20
-3080.6100000000001
 30
0.0
 70
    32
  0
VERTEX
  5
8E3C
  8
01
 10
547.54899999999986
 20
-3080.8200000000011
 30
0.0
 70
    32
  0
VERTEX
  5
8E3D
  8
01
 10
547.77199999999993
 20
-3081.0
 30
0.0
 70
    32
  0
VERTEX
  5
8E3E
  8
01
 10
548.00400000000002
 20
-3081.1799999999998
 30
0.0
 70
    32
  0
VERTEX
  5
8E3F
  8
01
 10
548.245
 20
-3081.3600000000001
 30
0.0
 70
    32
  0
VERTEX
  5
8E40
  8
01
 10
548.49400000000003
 20
-3081.5100000000011
 30
0.0
 70
    32
  0
VERTEX
  5
8E41
  8
01
 10
548.74999999999989
 20
-3081.6599999999999
 30
0.0
 70
    32
  0
VERTEX
  5
8E42
  8
01
 10
549.01300000000003
 20
-3081.7800000000002
 30
0.0
 70
    32
  0
VERTEX
  5
8E43
  8
01
 10
549.28199999999993
 20
-3081.9000000000001
 30
0.0
 70
    32
  0
VERTEX
  5
8E44
  8
01
 10
549.5569999999999
 20
-3082.02
 30
0.0
 70
    32
  0
VERTEX
  5
8E45
  8
01
 10
549.83699999999999
 20
-3082.1100000000001
 30
0.0
 70
    32
  0
VERTEX
  5
8E46
  8
01
 10
550.12099999999987
 20
-3082.1999999999998
 30
0.0
 70
    32
  0
VERTEX
  5
8E47
  8
01
 10
550.40800000000002
 20
-3082.2600000000002
 30
0.0
 70
    32
  0
VERTEX
  5
8E48
  8
01
 10
550.69799999999987
 20
-3082.29
 30
0.0
 70
    32
  0
VERTEX
  5
8E49
  8
01
 10
550.99000000000001
 20
-3082.3499999999999
 30
0.0
 70
    32
  0
VERTEX
  5
8E4A
  8
01
 10
551.28399999999988
 20
-3082.3499999999999
 30
0.0
 70
    32
  0
VERTEX
  5
8E4B
  8
01
 10
551.57899999999995
 20
-3082.380000000001
 30
0.0
 70
    32
  0
VERTEX
  5
8E4C
  8
01
 10
551.87300000000005
 20
-3082.3499999999999
 30
0.0
 70
    32
  0
VERTEX
  5
8E4D
  8
01
 10
552.16699999999992
 20
-3082.3499999999999
 30
0.0
 70
    32
  0
VERTEX
  5
8E4E
  8
01
 10
552.45899999999995
 20
-3082.29
 30
0.0
 70
    32
  0
VERTEX
  5
8E4F
  8
01
 10
552.74900000000002
 20
-3082.2600000000002
 30
0.0
 70
    32
  0
VERTEX
  5
8E50
  8
01
 10
553.03599999999994
 20
-3082.1999999999998
 30
0.0
 70
    32
  0
VERTEX
  5
8E51
  8
01
 10
553.32000000000005
 20
-3082.1100000000001
 30
0.0
 70
    32
  0
VERTEX
  5
8E52
  8
01
 10
553.60000000000002
 20
-3082.02
 30
0.0
 70
    32
  0
VERTEX
  5
8E53
  8
01
 10
553.875
 20
-3081.9000000000001
 30
0.0
 70
    32
  0
VERTEX
  5
8E54
  8
01
 10
554.14400000000001
 20
-3081.7800000000002
 30
0.0
 70
    32
  0
VERTEX
  5
8E55
  8
01
 10
554.40699999999993
 20
-3081.6599999999999
 30
0.0
 70
    32
  0
VERTEX
  5
8E56
  8
01
 10
554.66300000000001
 20
-3081.5100000000011
 30
0.0
 70
    32
  0
VERTEX
  5
8E57
  8
01
 10
554.91199999999992
 20
-3081.3600000000001
 30
0.0
 70
    32
  0
VERTEX
  5
8E58
  8
01
 10
555.15300000000002
 20
-3081.1799999999998
 30
0.0
 70
    32
  0
VERTEX
  5
8E59
  8
01
 10
555.38499999999988
 20
-3081.0
 30
0.0
 70
    32
  0
VERTEX
  5
8E5A
  8
01
 10
555.60799999999995
 20
-3080.8200000000011
 30
0.0
 70
    32
  0
VERTEX
  5
8E5B
  8
01
 10
555.82100000000003
 20
-3080.6100000000001
 30
0.0
 70
    32
  0
VERTEX
  5
8E5C
  8
01
 10
556.024
 20
-3080.4000000000001
 30
0.0
 70
    32
  0
VERTEX
  5
8E5D
  8
01
 10
556.21699999999998
 20
-3080.1599999999999
 30
0.0
 70
    32
  0
VERTEX
  5
8E5E
  8
01
 10
556.39799999999991
 20
-3079.9499999999998
 30
0.0
 70
    32
  0
VERTEX
  5
8E5F
  8
01
 10
556.56699999999989
 20
-3079.71
 30
0.0
 70
    32
  0
VERTEX
  5
8E60
  8
01
 10
556.72500000000002
 20
-3079.4400000000001
 30
0.0
 70
    32
  0
VERTEX
  5
8E61
  8
01
 10
556.86999999999989
 20
-3079.2000000000012
 30
0.0
 70
    32
  0
VERTEX
  5
8E62
  8
01
 10
557.00199999999995
 20
-3078.9299999999998
 30
0.0
 70
    32
  0
VERTEX
  5
8E63
  8
01
 10
557.12199999999984
 20
-3078.6599999999999
 30
0.0
 70
    32
  0
VERTEX
  5
8E64
  8
01
 10
557.22800000000007
 20
-3078.3900000000008
 30
0.0
 70
    32
  0
VERTEX
  5
8E65
  8
01
 10
557.32000000000005
 20
-3078.1199999999999
 30
0.0
 70
    32
  0
VERTEX
  5
8E66
  8
01
 10
557.399
 20
-3077.8200000000002
 30
0.0
 70
    32
  0
VERTEX
  5
8E67
  8
01
 10
557.46299999999997
 20
-3077.5500000000002
 30
0.0
 70
    32
  0
VERTEX
  5
8E68
  8
01
 10
557.51400000000001
 20
-3077.25
 30
0.0
 70
    32
  0
VERTEX
  5
8E69
  8
01
 10
557.54999999999995
 20
-3076.9499999999998
 30
0.0
 70
    32
  0
VERTEX
  5
8E6A
  8
01
 10
557.57099999999991
 20
-3076.6500000000001
 30
0.0
 70
    32
  0
VERTEX
  5
8E6B
  8
01
 10
557.57799999999986
 20
-3076.3800000000001
 30
0.0
 70
    32
  0
SEQEND
  5
8E6C
  8
01
  0
LINE
  5
8E6D
  8
01
 10
166.07849999999999
 20
-2998.3679999999999
 30
0.0
 11
505.07850000000002
 21
-2998.3679999999999
 31
0.0
  0
LINE
  5
8E6E
  8
01
 10
165.57849999999999
 20
-2998.8678
 30
0.0
 11
165.57849999999999
 21
-3009.8679000000011
 31
0.0
  0
LINE
  5
8E6F
  8
01
 10
505.57850000000002
 20
-2998.8678
 30
0.0
 11
505.57850000000002
 21
-3009.8679000000011
 31
0.0
  0
LINE
  5
8E70
  8
01
 10
166.07849999999999
 20
-2998.3679999999999
 30
0.0
 11
165.57849999999999
 21
-2998.8678
 31
0.0
  0
LINE
  5
8E71
  8
01
 10
165.57849999999999
 20
-3009.8679000000011
 30
0.0
 11
166.07849999999999
 21
-3010.3679999999999
 31
0.0
  0
LINE
  5
8E72
  8
01
 10
166.07849999999999
 20
-2998.3679999999999
 30
0.0
 11
166.07849999999999
 21
-3010.3679999999999
 31
0.0
  0
LINE
  5
8E73
  8
01
 10
505.57850000000002
 20
-2998.8678
 30
0.0
 11
505.07850000000002
 21
-2998.3679999999999
 31
0.0
  0
LINE
  5
8E74
  8
01
 10
505.57850000000002
 20
-3009.8679000000011
 30
0.0
 11
505.07850000000002
 21
-3010.3679999999999
 31
0.0
  0
LINE
  5
8E75
  8
01
 10
505.07850000000002
 20
-2998.3679999999999
 30
0.0
 11
505.07850000000002
 21
-3010.3679999999999
 31
0.0
  0
LINE
  5
8E76
  8
01
 10
166.07849999999999
 20
-3010.3679999999999
 30
0.0
 11
505.07850000000002
 21
-3010.3679999999999
 31
0.0
  0
LINE
  5
8E77
  8
1CENTER
 10
485.57850000000002
 20
-3007.3679999999999
 30
0.0
 11
485.57850000000002
 21
-3001.3679999999999
 31
0.0
  0
LINE
  5
8E78
  8
1CENTER
 10
482.57850000000002
 20
-3004.3679999999999
 30
0.0
 11
488.57850000000002
 21
-3004.3679999999999
 31
0.0
  0
LINE
  5
8E79
  8
1CENTER
 10
185.57849999999999
 20
-3007.3679999999999
 30
0.0
 11
185.57849999999999
 21
-3001.3679999999999
 31
0.0
  0
LINE
  5
8E7A
  8
1CENTER
 10
182.57849999999999
 20
-3004.3679999999999
 30
0.0
 11
188.57849999999999
 21
-3004.3679999999999
 31
0.0
  0
LINE
  5
8E7B
  8
1CENTER
 10
485.57850000000002
 20
-3093.3678
 30
0.0
 11
485.57850000000002
 21
-3105.3678
 31
0.0
  0
LINE
  5
8E7C
  8
1CENTER
 10
185.57849999999999
 20
-3093.3678
 30
0.0
 11
185.57849999999999
 21
-3105.3678
 31
0.0
  0
LINE
  5
8E7D
  8
1CENTER
 10
551.57849999999996
 20
-3093.3678
 30
0.0
 11
551.57849999999996
 21
-3105.3678
 31
0.0
  0
LINE
  5
8E7E
  8
1DIM
 10
165.57849999999999
 20
-3081.8679000000002
 30
0.0
 11
165.57849999999999
 21
-3134.3679000000002
 31
0.0
  0
LINE
  5
8E7F
  8
1DIM
 10
185.57849999999999
 20
-3105.3678
 30
0.0
 11
185.57849999999999
 21
-3134.3679000000002
 31
0.0
  0
LINE
  5
8E80
  8
1DIM
 10
167.57849999999999
 20
-3133.3676999999998
 30
0.0
 11
183.57849999999999
 21
-3133.3676999999998
 31
0.0
  0
LINE
  5
8E81
  8
0
  6
BYBLOCK
 10
167.57849999999999
 20
-3133.903800000001
 30
0.0
 11
165.57849999999999
 21
-3133.3676999999998
 31
0.0
  0
LINE
  5
8E82
  8
0
  6
BYBLOCK
 10
165.57849999999999
 20
-3133.3676999999998
 30
0.0
 11
167.57849999999999
 21
-3132.8319000000001
 31
0.0
  0
LINE
  5
8E83
  8
0
  6
BYBLOCK
 10
165.57849999999999
 20
-3133.3676999999998
 30
0.0
 11
167.57849999999999
 21
-3133.3676999999998
 31
0.0
  0
LINE
  5
8E84
  8
0
  6
BYBLOCK
 10
183.57849999999999
 20
-3132.8319000000001
 30
0.0
 11
185.57849999999999
 21
-3133.3676999999998
 31
0.0
  0
LINE
  5
8E85
  8
0
  6
BYBLOCK
 10
185.57849999999999
 20
-3133.3676999999998
 30
0.0
 11
183.57849999999999
 21
-3133.903800000001
 31
0.0
  0
LINE
  5
8E86
  8
0
  6
BYBLOCK
 10
185.57849999999999
 20
-3133.3676999999998
 30
0.0
 11
183.57849999999999
 21
-3133.3676999999998
 31
0.0
  0
TEXT
  5
8E87
  8
1DIM
 10
172.95349999999999
 20
-3132.6678000000002
 30
0.0
 40
3.5001000000002018
  1
20 
  0
LINE
  5
8E88
  8
1DIM
 10
485.57850000000002
 20
-3105.3678
 30
0.0
 11
485.57850000000002
 21
-3134.3679000000002
 31
0.0
  0
LINE
  5
8E89
  8
1DIM
 10
505.57850000000002
 20
-3081.8679000000002
 30
0.0
 11
505.57850000000002
 21
-3134.3679000000002
 31
0.0
  0
LINE
  5
8E8A
  8
1DIM
 10
487.57850000000002
 20
-3133.3676999999998
 30
0.0
 11
503.57850000000002
 21
-3133.3676999999998
 31
0.0
  0
LINE
  5
8E8B
  8
0
  6
BYBLOCK
 10
487.57850000000002
 20
-3133.903800000001
 30
0.0
 11
485.57850000000002
 21
-3133.3676999999998
 31
0.0
  0
LINE
  5
8E8C
  8
0
  6
BYBLOCK
 10
485.57850000000002
 20
-3133.3676999999998
 30
0.0
 11
487.57850000000002
 21
-3132.8319000000001
 31
0.0
  0
LINE
  5
8E8D
  8
0
  6
BYBLOCK
 10
485.57850000000002
 20
-3133.3676999999998
 30
0.0
 11
487.57850000000002
 21
-3133.3676999999998
 31
0.0
  0
LINE
  5
8E8E
  8
0
  6
BYBLOCK
 10
503.57850000000002
 20
-3132.8319000000001
 30
0.0
 11
505.57850000000002
 21
-3133.3676999999998
 31
0.0
  0
LINE
  5
8E8F
  8
0
  6
BYBLOCK
 10
505.57850000000002
 20
-3133.3676999999998
 30
0.0
 11
503.57850000000002
 21
-3133.903800000001
 31
0.0
  0
LINE
  5
8E90
  8
0
  6
BYBLOCK
 10
505.57850000000002
 20
-3133.3676999999998
 30
0.0
 11
503.57850000000002
 21
-3133.3676999999998
 31
0.0
  0
TEXT
  5
8E91
  8
1DIM
 10
492.95350000000002
 20
-3132.6678000000002
 30
0.0
 40
3.5001000000002018
  1
20 
  0
LINE
  5
8E92
  8
1DIM
 10
505.07850000000002
 20
-3070.3676999999998
 30
0.0
 11
536.57849999999985
 21
-3070.3676999999998
 31
0.0
  0
LINE
  5
8E93
  8
1DIM
 10
505.57850000000002
 20
-3103.3676999999998
 30
0.0
 11
536.57849999999985
 21
-3103.3676999999998
 31
0.0
  0
LINE
  5
8E94
  8
1DIM
 10
535.57849999999996
 20
-3072.3678
 30
0.0
 11
535.57849999999996
 21
-3101.3679000000002
 31
0.0
  0
LINE
  5
8E95
  8
0
  6
BYBLOCK
 10
535.04259999999988
 20
-3072.3678
 30
0.0
 11
535.57849999999996
 21
-3070.3676999999998
 31
0.0
  0
LINE
  5
8E96
  8
0
  6
BYBLOCK
 10
535.57849999999996
 20
-3070.3676999999998
 30
0.0
 11
536.11440000000005
 21
-3072.3678
 31
0.0
  0
LINE
  5
8E97
  8
0
  6
BYBLOCK
 10
535.57849999999996
 20
-3070.3676999999998
 30
0.0
 11
535.57849999999996
 21
-3072.3678
 31
0.0
  0
LINE
  5
8E98
  8
0
  6
BYBLOCK
 10
536.11440000000005
 20
-3101.3679000000002
 30
0.0
 11
535.57849999999996
 21
-3103.3676999999998
 31
0.0
  0
LINE
  5
8E99
  8
0
  6
BYBLOCK
 10
535.57849999999996
 20
-3103.3676999999998
 30
0.0
 11
535.04259999999988
 21
-3101.3679000000002
 31
0.0
  0
LINE
  5
8E9A
  8
0
  6
BYBLOCK
 10
535.57849999999996
 20
-3103.3676999999998
 30
0.0
 11
535.57849999999996
 21
-3101.3679000000002
 31
0.0
  0
TEXT
  5
8E9B
  8
1DIM
 10
534.87850000000003
 20
-3089.7846
 30
0.0
 40
3.5
  1
33 
 50
90.0
 41
0.9998999999997977
  0
LINE
  5
8E9C
  8
1DIM
 10
505.07850000000002
 20
-2998.3679999999999
 30
0.0
 11
536.57849999999985
 21
-2998.3679999999999
 31
0.0
  0
LINE
  5
8E9D
  8
1DIM
 10
505.07850000000002
 20
-3010.3679999999999
 30
0.0
 11
536.57849999999985
 21
-3010.3679999999999
 31
0.0
  0
LINE
  5
8E9E
  8
1DIM
 10
535.57849999999996
 20
-3000.3678
 30
0.0
 11
535.57849999999996
 21
-3008.3679000000002
 31
0.0
  0
LINE
  5
8E9F
  8
0
  6
BYBLOCK
 10
535.04259999999988
 20
-3000.3678
 30
0.0
 11
535.57849999999996
 21
-2998.3679999999999
 31
0.0
  0
LINE
  5
8EA0
  8
0
  6
BYBLOCK
 10
535.57849999999996
 20
-2998.3679999999999
 30
0.0
 11
536.11440000000005
 21
-3000.3678
 31
0.0
  0
LINE
  5
8EA1
  8
0
  6
BYBLOCK
 10
535.57849999999996
 20
-2998.3679999999999
 30
0.0
 11
535.57849999999996
 21
-3000.3678
 31
0.0
  0
LINE
  5
8EA2
  8
0
  6
BYBLOCK
 10
536.11440000000005
 20
-3008.3679000000002
 30
0.0
 11
535.57849999999996
 21
-3010.3679999999999
 31
0.0
  0
LINE
  5
8EA3
  8
0
  6
BYBLOCK
 10
535.57849999999996
 20
-3010.3679999999999
 30
0.0
 11
535.04259999999988
 21
-3008.3679000000002
 31
0.0
  0
LINE
  5
8EA4
  8
0
  6
BYBLOCK
 10
535.57849999999996
 20
-3010.3679999999999
 30
0.0
 11
535.57849999999996
 21
-3008.3679000000002
 31
0.0
  0
TEXT
  5
8EA5
  8
1DIM
 10
534.87850000000003
 20
-3009.1511999999998
 30
0.0
 40
3.5
  1
φ12
 50
90.0
 41
0.9998999999997977
  0
LINE
  5
8EA6
  8
1DIM
 10
546.57849999999985
 20
-3103.3676999999998
 30
0.0
 11
546.57849999999985
 21
-3134.3679000000002
 31
0.0
  0
LINE
  5
8EA7
  8
1DIM
 10
556.57849999999985
 20
-3103.3676999999998
 30
0.0
 11
556.57849999999985
 21
-3134.3679000000002
 31
0.0
  0
LINE
  5
8EA8
  8
1DIM
 10
554.57849999999985
 20
-3133.3676999999998
 30
0.0
 11
548.57849999999985
 21
-3133.3676999999998
 31
0.0
  0
LINE
  5
8EA9
  8
1DIM
 10
546.57849999999985
 20
-3133.3676999999998
 30
0.0
 11
527.01829999999995
 21
-3133.3676999999998
 31
0.0
  0
LINE
  5
8EAA
  8
0
  6
BYBLOCK
 10
554.57849999999985
 20
-3132.8319000000001
 30
0.0
 11
556.57849999999985
 21
-3133.3676999999998
 31
0.0
  0
LINE
  5
8EAB
  8
0
  6
BYBLOCK
 10
556.57849999999985
 20
-3133.3676999999998
 30
0.0
 11
554.57849999999985
 21
-3133.903800000001
 31
0.0
  0
LINE
  5
8EAC
  8
0
  6
BYBLOCK
 10
556.57849999999985
 20
-3133.3676999999998
 30
0.0
 11
554.57849999999985
 21
-3133.3676999999998
 31
0.0
  0
LINE
  5
8EAD
  8
0
  6
BYBLOCK
 10
548.57849999999985
 20
-3133.903800000001
 30
0.0
 11
546.57849999999985
 21
-3133.3676999999998
 31
0.0
  0
LINE
  5
8EAE
  8
0
  6
BYBLOCK
 10
546.57849999999985
 20
-3133.3676999999998
 30
0.0
 11
548.57849999999985
 21
-3132.8319000000001
 31
0.0
  0
LINE
  5
8EAF
  8
0
  6
BYBLOCK
 10
546.57849999999985
 20
-3133.3676999999998
 30
0.0
 11
548.57849999999985
 21
-3133.3676999999998
 31
0.0
  0
TEXT
  5
8EB0
  8
1DIM
 10
528.05989999999986
 20
-3132.6678000000002
 30
0.0
 40
3.5001000000002018
  1
φ10
  0
TEXT
  5
8EB1
  8
1TEXT
 10
178.0557
 20
-2978.3679000000002
 30
0.0
 40
8.0001000000002023
  1
PS01H300
  0
LINE
  5
8EB2
  8
1DIM
 10
185.57849999999999
 20
-3105.3678
 30
0.0
 11
185.57849999999999
 21
-3134.3679000000002
 31
0.0
  0
LINE
  5
8EB3
  8
1DIM
 10
485.57850000000002
 20
-3105.3678
 30
0.0
 11
485.57850000000002
 21
-3134.3679000000002
 31
0.0
  0
LINE
  5
8EB4
  8
1DIM
 10
187.57849999999999
 20
-3133.3676999999998
 30
0.0
 11
483.57850000000002
 21
-3133.3676999999998
 31
0.0
  0
LINE
  5
8EB5
  8
0
  6
BYBLOCK
 10
187.57849999999999
 20
-3133.903800000001
 30
0.0
 11
185.57849999999999
 21
-3133.3676999999998
 31
0.0
  0
LINE
  5
8EB6
  8
0
  6
BYBLOCK
 10
185.57849999999999
 20
-3133.3676999999998
 30
0.0
 11
187.57849999999999
 21
-3132.8319000000001
 31
0.0
  0
LINE
  5
8EB7
  8
0
  6
BYBLOCK
 10
185.57849999999999
 20
-3133.3676999999998
 30
0.0
 11
187.57849999999999
 21
-3133.3676999999998
 31
0.0
  0
LINE
  5
8EB8
  8
0
  6
BYBLOCK
 10
483.57850000000002
 20
-3132.8319000000001
 30
0.0
 11
485.57850000000002
 21
-3133.3676999999998
 31
0.0
  0
LINE
  5
8EB9
  8
0
  6
BYBLOCK
 10
485.57850000000002
 20
-3133.3676999999998
 30
0.0
 11
483.57850000000002
 21
-3133.903800000001
 31
0.0
  0
LINE
  5
8EBA
  8
0
  6
BYBLOCK
 10
485.57850000000002
 20
-3133.3676999999998
 30
0.0
 11
483.57850000000002
 21
-3133.3676999999998
 31
0.0
  0
TEXT
  5
8EBB
  8
1DIM
 10
329.74520000000001
 20
-3132.6678000000002
 30
0.0
 40
3.5001000000002018
  1
P300 
  0
LINE
  5
8EBC
  8
1DIM
 10
190.57849999999999
 20
-3103.3676999999998
 30
0.0
 11
190.57849999999999
 21
-3124.3676999999998
 31
0.0
  0
LINE
  5
8EBD
  8
1DIM
 10
480.57850000000002
 20
-3103.3676999999998
 30
0.0
 11
480.57850000000002
 21
-3124.3676999999998
 31
0.0
  0
LINE
  5
8EBE
  8
1DIM
 10
192.57849999999999
 20
-3123.3678
 30
0.0
 11
478.57850000000002
 21
-3123.3678
 31
0.0
  0
LINE
  5
8EBF
  8
0
  6
BYBLOCK
 10
192.57849999999999
 20
-3123.903600000001
 30
0.0
 11
190.57849999999999
 21
-3123.3678
 31
0.0
  0
LINE
  5
8EC0
  8
0
  6
BYBLOCK
 10
190.57849999999999
 20
-3123.3678
 30
0.0
 11
192.57849999999999
 21
-3122.8319999999999
 31
0.0
  0
LINE
  5
8EC1
  8
0
  6
BYBLOCK
 10
190.57849999999999
 20
-3123.3678
 30
0.0
 11
192.57849999999999
 21
-3123.3678
 31
0.0
  0
LINE
  5
8EC2
  8
0
  6
BYBLOCK
 10
478.57850000000002
 20
-3122.8319999999999
 30
0.0
 11
480.57850000000002
 21
-3123.3678
 31
0.0
  0
LINE
  5
8EC3
  8
0
  6
BYBLOCK
 10
480.57850000000002
 20
-3123.3678
 30
0.0
 11
478.57850000000002
 21
-3123.903600000001
 31
0.0
  0
LINE
  5
8EC4
  8
0
  6
BYBLOCK
 10
480.57850000000002
 20
-3123.3678
 30
0.0
 11
478.57850000000002
 21
-3123.3678
 31
0.0
  0
TEXT
  5
8EC5
  8
1DIM
 10
331.20350000000002
 20
-3122.6679000000008
 30
0.0
 40
3.5001000000002018
  1
290 
  0
LINE
  5
8EC6
  8
1DIM
 10
505.07850000000002
 20
-3082.3676999999998
 30
0.0
 11
526.57849999999996
 21
-3082.3676999999998
 31
0.0
  0
LINE
  5
8EC7
  8
1DIM
 10
490.57850000000002
 20
-3103.3676999999998
 30
0.0
 11
526.57849999999996
 21
-3103.3676999999998
 31
0.0
  0
LINE
  5
8EC8
  8
1DIM
 10
525.57849999999985
 20
-3084.3678
 30
0.0
 11
525.57849999999985
 21
-3101.3679000000002
 31
0.0
  0
LINE
  5
8EC9
  8
0
  6
BYBLOCK
 10
525.04259999999999
 20
-3084.3678
 30
0.0
 11
525.57849999999985
 21
-3082.3676999999998
 31
0.0
  0
LINE
  5
8ECA
  8
0
  6
BYBLOCK
 10
525.57849999999985
 20
-3082.3676999999998
 30
0.0
 11
526.11440000000005
 21
-3084.3678
 31
0.0
  0
LINE
  5
8ECB
  8
0
  6
BYBLOCK
 10
525.57849999999985
 20
-3082.3676999999998
 30
0.0
 11
525.57849999999985
 21
-3084.3678
 31
0.0
  0
LINE
  5
8ECC
  8
0
  6
BYBLOCK
 10
526.11440000000005
 20
-3101.3679000000002
 30
0.0
 11
525.57849999999985
 21
-3103.3676999999998
 31
0.0
  0
LINE
  5
8ECD
  8
0
  6
BYBLOCK
 10
525.57849999999985
 20
-3103.3676999999998
 30
0.0
 11
525.04259999999999
 21
-3101.3679000000002
 31
0.0
  0
LINE
  5
8ECE
  8
0
  6
BYBLOCK
 10
525.57849999999985
 20
-3103.3676999999998
 30
0.0
 11
525.57849999999985
 21
-3101.3679000000002
 31
0.0
  0
TEXT
  5
8ECF
  8
1DIM
 10
524.87850000000003
 20
-3095.2011000000011
 30
0.0
 40
3.5
  1
21 
 50
90.0
 41
0.9999000000002524
  0
SOLID
  5
8ED0
  8
1DIM
 10
550.22260000000006
 20
-3104.8751999999999
 30
0.0
 11
551.57849999999996
 21
-3103.3676999999998
 31
0.0
 12
550.78480000000002
 22
-3105.2337000000002
 32
0.0
 13
550.78480000000002
 23
-3105.2337000000002
 33
0.0
  0
LINE
  5
8ED1
  8
1DIM
 10
550.50369999999987
 20
-3105.0542999999998
 30
0.0
 11
538.38679999999988
 21
-3124.0677000000001
 31
0.0
  0
LINE
  5
8ED2
  8
1DIM
 10
538.38679999999988
 20
-3124.0677000000001
 30
0.0
 11
518.52009999999996
 21
-3124.0677000000001
 31
0.0
  0
TEXT
  5
8ED3
  8
1DIM
 10
519.14629999999988
 20
-3123.3678
 30
0.0
 40
3.5001000000002018
  1
M4-10
  0
LINE
  5
8ED4
  8
1DIM
 10
165.57849999999999
 20
-3009.8679000000011
 30
0.0
 11
165.57849999999999
 21
-3031.3679999999999
 31
0.0
  0
LINE
  5
8ED5
  8
1DIM
 10
505.57850000000002
 20
-3009.8679000000011
 30
0.0
 11
505.57850000000002
 21
-3031.3679999999999
 31
0.0
  0
LINE
  5
8ED6
  8
1DIM
 10
167.57849999999999
 20
-3030.3678
 30
0.0
 11
503.57850000000002
 21
-3030.3678
 31
0.0
  0
LINE
  5
8ED7
  8
0
  6
BYBLOCK
 10
167.57849999999999
 20
-3030.9038999999998
 30
0.0
 11
165.57849999999999
 21
-3030.3678
 31
0.0
  0
LINE
  5
8ED8
  8
0
  6
BYBLOCK
 10
165.57849999999999
 20
-3030.3678
 30
0.0
 11
167.57849999999999
 21
-3029.8319999999999
 31
0.0
  0
LINE
  5
8ED9
  8
0
  6
BYBLOCK
 10
165.57849999999999
 20
-3030.3678
 30
0.0
 11
167.57849999999999
 21
-3030.3678
 31
0.0
  0
LINE
  5
8EDA
  8
0
  6
BYBLOCK
 10
503.57850000000002
 20
-3029.8319999999999
 30
0.0
 11
505.57850000000002
 21
-3030.3678
 31
0.0
  0
LINE
  5
8EDB
  8
0
  6
BYBLOCK
 10
505.57850000000002
 20
-3030.3678
 30
0.0
 11
503.57850000000002
 21
-3030.9038999999998
 31
0.0
  0
LINE
  5
8EDC
  8
0
  6
BYBLOCK
 10
505.57850000000002
 20
-3030.3678
 30
0.0
 11
503.57850000000002
 21
-3030.3678
 31
0.0
  0
TEXT
  5
8EDD
  8
1DIM
 10
331.20350000000002
 20
-3029.6679000000008
 30
0.0
 40
3.5001000000002018
  1
340 
  0
LINE
  5
8EDE
  8
1DIM
 10
165.57849999999999
 20
-3163.3676999999998
 30
0.0
 11
235.57849999999999
 21
-3163.3676999999998
 31
0.0
  0
LINE
  5
8EDF
  8
1DIM
 10
165.57849999999999
 20
-3170.3676
 30
0.0
 11
235.57849999999999
 21
-3170.3676
 31
0.0
  0
LINE
  5
8EE0
  8
1DIM
 10
165.57849999999999
 20
-3177.3678
 30
0.0
 11
235.57849999999999
 21
-3177.3678
 31
0.0
  0
LINE
  5
8EE1
  8
1DIM
 10
165.57849999999999
 20
-3163.3676999999998
 30
0.0
 11
165.57849999999999
 21
-3177.3678
 31
0.0
  0
TEXT
  5
8EE2
  8
1TEXT
 10
204.312175
 20
-3175.8678
 30
0.0
 40
3.999900000000252
  1
PS01H300
 72
     1
 11
217.9785
 21
-3175.8678
 31
0.0
  0
LINE
  5
8EE3
  8
1DIM
 10
200.57849999999999
 20
-3163.3676999999998
 30
0.0
 11
200.57849999999999
 21
-3177.3678
 31
0.0
  0
TEXT
  5
8EE4
  8
1TEXT
 10
171.51212000000001
 20
-3175.8678
 30
0.0
 40
3.999900000000252
  1
ヘアライン
 72
     1
 11
182.9785
 21
-3175.8678
 31
0.0
  0
TEXT
  5
8EE5
  8
1TEXT
 10
172.33114714285711
 20
-3168.8676
 30
0.0
 40
3.9998999999997968
  1
表面処理：
 72
     1
 11
182.9785
 21
-3168.8676
 31
0.0
  0
LINE
  5
8EE6
  8
1DIM
 10
235.57849999999999
 20
-3163.3676999999998
 30
0.0
 11
235.57849999999999
 21
-3177.3678
 31
0.0
  0
TEXT
  5
8EE7
  8
1TEXT
 10
211.17867000000001
 20
-3168.8676
 30
0.0
 40
3.9998999999997968
  1
コード
 72
     1
 11
217.9785
 21
-3168.8676
 31
0.0
  0
TEXT
  5
8EE8
  8
1TEXT
 10
173.88095999999999
 20
-3159.5331000000001
 30
0.0
 40
3.9998999999997968
  1
材質：ステンレス
 72
     1
 11
192.28049999999999
 21
-3159.5331000000001
 31
0.0
  0
VIEWPORT
  5
57
 67
     1
  8
0
 10
5.6154163991372421
 20
3.9020832317081959
 30
0.0
 40
12.7102895252974
 41
8.7461330960491512
 68
     1
 69
     1
1001
ACAD
1000
MVIEW
1002
{
1070
    16
1010
0.0
1020
0.0
1030
0.0
1010
0.0
1020
0.0
1030
1.0
1040
0.0
1040
8.7461330960491512
1040
5.6154163991372421
1040
3.9020832317081959
1040
50.0
1040
0.0
1040
0.0
1070
     0
1070
   100
1070
     1
1070
     1
1070
     0
1070
     0
1070
     0
1070
     0
1040
0.0
1040
0.0
1040
0.0
1040
10.0
1040
10.0
1040
10.0
1040
10.0
1070
     0
1002
{
1002
}
1002
}
  0
ENDSEC
  0
EOF
