  0
SECTION
  2
HEADER
  9
$ACADVER
  1
AC1009
  9
$INSBASE
 10
0.0
 20
0.0
 30
0.0
  9
$EXTMIN
 10
-266.07768587368929
 20
-1868.9642148460671
 30
0.0
  9
$EXTMAX
 10
-74.9906986870769
 20
-1652.4642148460671
 30
0.0
  9
$LIMMIN
 10
0.0
 20
0.0
  9
$LIMMAX
 10
420.0
 20
297.0
  9
$ORTHOMODE
 70
     0
  9
$REGENMODE
 70
     1
  9
$FILLMODE
 70
     1
  9
$QTEXTMODE
 70
     0
  9
$MIRRTEXT
 70
     0
  9
$DRAGMODE
 70
     2
  9
$LTSCALE
 40
0.5
  9
$OSMODE
 70
    63
  9
$ATTMODE
 70
     1
  9
$TEXTSIZE
 40
4.0
  9
$TRACEWID
 40
1.0
  9
$TEXTSTYLE
  7
STANDARD
  9
$CLAYER
  8
1TEXT
  9
$CELTYPE
  6
BYLAYER
  9
$CECOLOR
 62
   256
  9
$DIMSCALE
 40
1.0
  9
$DIMASZ
 40
2.0
  9
$DIMEXO
 40
0.0
  9
$DIMDLI
 40
7.0
  9
$DIMRND
 40
0.0
  9
$DIMDLE
 40
0.0
  9
$DIMEXE
 40
1.0
  9
$DIMTP
 40
0.0
  9
$DIMTM
 40
0.0
  9
$DIMTXT
 40
3.5
  9
$DIMCEN
 40
0.0
  9
$DIMTSZ
 40
0.0
  9
$DIMTOL
 70
     0
  9
$DIMLIM
 70
     0
  9
$DIMTIH
 70
     0
  9
$DIMTOH
 70
     0
  9
$DIMSE1
 70
     0
  9
$DIMSE2
 70
     0
  9
$DIMTAD
 70
     1
  9
$DIMZIN
 70
     8
  9
$DIMBLK
  1

  9
$DIMASO
 70
     1
  9
$DIMSHO
 70
     1
  9
$DIMPOST
  1
 
  9
$DIMAPOST
  1

  9
$DIMALT
 70
     0
  9
$DIMALTD
 70
     2
  9
$DIMALTF
 40
25.399999999999999
  9
$DIMLFAC
 40
1.0
  9
$DIMTOFL
 70
     1
  9
$DIMTVP
 40
0.0
  9
$DIMTIX
 70
     0
  9
$DIMSOXD
 70
     0
  9
$DIMSAH
 70
     1
  9
$DIMBLK1
  1
OPEN30
  9
$DIMBLK2
  1
OPEN30
  9
$DIMSTYLE
  2
NEWX10
  9
$DIMCLRD
 70
   256
  9
$DIMCLRE
 70
   256
  9
$DIMCLRT
 70
   201
  9
$DIMTFAC
 40
0.7
  9
$DIMGAP
 40
0.7
  9
$LUNITS
 70
     2
  9
$LUPREC
 70
     4
  9
$SKETCHINC
 40
1.0
  9
$FILLETRAD
 40
0.0
  9
$AUNITS
 70
     0
  9
$AUPREC
 70
     2
  9
$MENU
  1
acad
  9
$ELEVATION
 40
0.0
  9
$PELEVATION
 40
0.0
  9
$THICKNESS
 40
0.0
  9
$LIMCHECK
 70
     0
  9
$BLIPMODE
 70
     0
  9
$CHAMFERA
 40
10.0
  9
$CHAMFERB
 40
10.0
  9
$SKPOLY
 70
     0
  9
$TDCREATE
 40
2453033.7326634838
  9
$TDUPDATE
 40
2457014.7272587498
  9
$TDINDWG
 40
0.3659521181
  9
$TDUSRTIMER
 40
0.3659521181
  9
$USRTIMER
 70
     1
  9
$ANGBASE
 50
0.0
  9
$ANGDIR
 70
     0
  9
$PDMODE
 70
     0
  9
$PDSIZE
 40
0.0
  9
$PLINEWID
 40
0.0
  9
$COORDS
 70
     0
  9
$SPLFRAME
 70
     0
  9
$SPLINETYPE
 70
     6
  9
$SPLINESEGS
 70
     8
  9
$ATTDIA
 70
     0
  9
$ATTREQ
 70
     1
  9
$HANDLING
 70
     1
  9
$HANDSEED
  5
A003
  9
$SURFTAB1
 70
     6
  9
$SURFTAB2
 70
     6
  9
$SURFTYPE
 70
     6
  9
$SURFU
 70
     6
  9
$SURFV
 70
     6
  9
$UCSNAME
  2

  9
$UCSORG
 10
0.0
 20
0.0
 30
0.0
  9
$UCSXDIR
 10
1.0
 20
0.0
 30
0.0
  9
$UCSYDIR
 10
0.0
 20
1.0
 30
0.0
  9
$PUCSNAME
  2

  9
$PUCSORG
 10
0.0
 20
0.0
 30
0.0
  9
$PUCSXDIR
 10
1.0
 20
0.0
 30
0.0
  9
$PUCSYDIR
 10
0.0
 20
1.0
 30
0.0
  9
$USERI1
 70
     0
  9
$USERI2
 70
     0
  9
$USERI3
 70
     0
  9
$USERI4
 70
     0
  9
$USERI5
 70
     0
  9
$USERR1
 40
0.0
  9
$USERR2
 40
0.0
  9
$USERR3
 40
0.0
  9
$USERR4
 40
0.0
  9
$USERR5
 40
0.0
  9
$WORLDVIEW
 70
     1
  9
$SHADEDGE
 70
     3
  9
$SHADEDIF
 70
    70
  9
$TILEMODE
 70
     1
  9
$MAXACTVP
 70
    48
  9
$PLIMCHECK
 70
     0
  9
$PEXTMIN
 10
1.0000000000000000E+020
 20
1.0000000000000000E+020
 30
1.0000000000000000E+020
  9
$PEXTMAX
 10
-1.0000000000000000E+020
 20
-1.0000000000000000E+020
 30
-1.0000000000000000E+020
  9
$PLIMMIN
 10
0.0
 20
0.0
  9
$PLIMMAX
 10
420.0
 20
297.0
  9
$UNITMODE
 70
     0
  9
$VISRETAIN
 70
     1
  9
$PLINEGEN
 70
     0
  9
$PSLTSCALE
 70
     1
  0
ENDSEC
  0
SECTION
  2
TABLES
  0
TABLE
  2
VPORT
 70
     1
  0
VPORT
  2
*ACTIVE
 70
     0
 10
0.0
 20
0.0
 11
1.0
 21
1.0
 12
-170.54539254917299
 22
-1760.7089651838589
 13
0.0
 23
0.0
 14
10.0
 24
10.0
 15
10.0
 25
10.0
 16
0.0
 26
0.0
 36
1.0
 17
0.0
 27
0.0
 37
0.0
 40
229.7404373858665
 41
2.1749379652605461
 42
50.0
 43
0.0
 44
0.0
 50
0.0
 51
0.0
 71
     0
 72
   100
 73
     1
 74
     1
 75
     0
 76
     0
 77
     0
 78
     0
  0
ENDTAB
  0
TABLE
  2
LTYPE
 70
    16
  0
LTYPE
  2
CONTINUOUS
 70
     0
  3
Solid line
 72
    65
 73
     0
 40
0.0
  0
LTYPE
  2
CENTER2
 70
     0
  3
Center (.5x) ___ _ ___ _ ___ _ ___ _ ___ _ ___
 72
    65
 73
     4
 40
28.574999999999999
 49
19.050000000000001
 49
-3.1749999999999989
 49
3.1749999999999989
 49
-3.1749999999999989
  0
LTYPE
  2
XREF1|CENTER2
 70
    48
  3
Center (.5x) ___ _ ___ _ ___ _ ___ _ ___ _ ___
 72
    65
 73
     4
 40
28.574999999999999
 49
19.050000000000001
 49
-3.1749999999999989
 49
3.1749999999999989
 49
-3.1749999999999989
  0
LTYPE
  2
HIDDEN
 70
     0
  3
Hidden __ __ __ __ __ __ __ __ __ __ __ __ __ _
 72
    65
 73
     2
 40
9.5249999999999986
 49
6.3499999999999988
 49
-3.1749999999999989
  0
LTYPE
  2
A3WAKUDAKE|CENTER2
 70
    48
  3
Center (.5x) ___ _ ___ _ ___ _ ___ _ ___ _ ___
 72
    65
 73
     4
 40
28.574999999999999
 49
19.050000000000001
 49
-3.1749999999999989
 49
3.1749999999999989
 49
-3.1749999999999989
  0
ENDTAB
  0
TABLE
  2
LAYER
 70
    49
  0
LAYER
  2
0
 70
     0
 62
     7
  6
CONTINUOUS
  0
LAYER
  2
1CENTER
 70
     0
 62
     7
  6
CENTER2
  0
LAYER
  2
1TEXT
 70
     0
 62
     7
  6
CONTINUOUS
  0
LAYER
  2
1DIM
 70
     0
 62
     7
  6
CONTINUOUS
  0
LAYER
  2
1HIDDEN
 70
     0
 62
     7
  6
HIDDEN
  0
LAYER
  2
01
 70
     0
 62
     1
  6
CONTINUOUS
  0
LAYER
  2
A3WAKUDAKE|THICK
 70
    48
 62
     7
  6
CONTINUOUS
  0
LAYER
  2
A3WAKUDAKE|POINT
 70
    48
 62
     7
  6
CONTINUOUS
  0
LAYER
  2
A3WAKUDAKE|1CENTER
 70
    48
 62
     7
  6
A3WAKUDAKE|CENTER2
  0
LAYER
  2
A3WAKUDAKE|0-6
 70
    48
 62
     7
  6
CONTINUOUS
  0
LAYER
  2
A3WAKUDAKE|1DIM
 70
    48
 62
     7
  6
CONTINUOUS
  0
LAYER
  2
XREF1|1CENTER
 70
    48
 62
     7
  6
XREF1|CENTER2
  0
ENDTAB
  0
TABLE
  2
STYLE
 70
    23
  0
STYLE
  2
STANDARD
 70
     0
 40
0.0
 41
1.0
 50
0.0
 71
     0
 42
4.0
  3
txt.shx
  4
extfont.shx
  0
ENDTAB
  0
TABLE
  2
VIEW
 70
     5
  0
ENDTAB
  0
TABLE
  2
UCS
 70
     0
  0
ENDTAB
  0
TABLE
  2
APPID
 70
    14
  0
APPID
  2
ACAD
 70
     0
  0
APPID
  2
DRAWINGVARIABLESXDATA
 70
     0
  0
APPID
  2
CONTENTTABDATA
 70
     0
  0
APPID
  2
CONTENTCURRENTTAB
 70
     0
  0
APPID
  2
CONTENTBLOCKDESCRIPTION
 70
     0
  0
APPID
  2
CONTENTBLOCKICON
 70
     0
  0
APPID
  2
CONTENTLONGBLOCKNAME
 70
     0
  0
APPID
  2
ACAD_PSEXT
 70
     0
  0
APPID
  2
ACAD_DSTYLE_DIMTEXT_FILL
 70
     0
  0
APPID
  2
ACAD_DSTYLE_DIMRADIAL_EXTENSION
 70
     0
  0
APPID
  2
ACLAYERTOOLS
 70
     0
  0
APPID
  2
ACAD_MLEADERVER
 70
     0
  0
APPID
  2
ACAD_EXEMPT_FROM_CAD_STANDARDS
 70
     0
  0
APPID
  2
ACAD_NAV_VCDISPLAY
 70
     0
  0
ENDTAB
  0
TABLE
  2
DIMSTYLE
 70
     8
  0
DIMSTYLE
  2
NEWX10
 70
     0
  3
 
  4

  5

  6
OPEN30
  7
OPEN30
 40
1.0
 41
2.0
 42
0.0
 43
7.0
 44
1.0
 45
0.0
 46
0.0
 47
0.0
 48
0.0
140
3.5
141
0.0
142
0.0
143
25.399999999999999
144
1.0
145
0.0
146
0.7
147
0.7
 71
     0
 72
     0
 73
     0
 74
     0
 75
     0
 76
     0
 77
     1
 78
     8
170
     0
171
     2
172
     1
173
     1
174
     0
175
     0
176
   256
177
   256
178
   201
  0
ENDTAB
  0
ENDSEC
  0
SECTION
  2
BLOCKS
  0
BLOCK
  8
0
  2
$MODEL_SPACE
 70
     0
 10
0.0
 20
0.0
 30
0.0
  3
$MODEL_SPACE
  1

  0
ENDBLK
  5
1A
  8
0
  0
BLOCK
 67
     1
  8
0
  2
$PAPER_SPACE
 70
     0
 10
0.0
 20
0.0
 30
0.0
  3
$PAPER_SPACE
  1

  0
ENDBLK
  5
17
 67
     1
  8
0
  0
BLOCK
  8
0
  2
_OPEN30
 70
     0
 10
0.0
 20
0.0
 30
0.0
  3
_OPEN30
  1

  0
LINE
  5
44
  8
0
  6
BYBLOCK
 62
     0
 10
-1.0
 20
0.26794919
 30
0.0
 11
0.0
 21
0.0
 31
0.0
  0
LINE
  5
45
  8
0
  6
BYBLOCK
 62
     0
 10
0.0
 20
0.0
 30
0.0
 11
-1.0
 21
-0.26794919
 31
0.0
  0
LINE
  5
46
  8
0
  6
BYBLOCK
 62
     0
 10
0.0
 20
0.0
 30
0.0
 11
-1.0
 21
0.0
 31
0.0
  0
ENDBLK
  5
47
  8
0
  0
BLOCK
  8
0
  2
XREF1
 70
    36
 10
0.0
 20
0.0
 30
0.0
  3
XREF1
  1
D:\ACLT\FORMAT\KAWAJUN(9)図面用.dwg
  0
ENDBLK
  5
5D
  8
0
  0
BLOCK
  8
0
  2
A3WAKUDAKE
 70
    36
 10
0.0
 20
0.0
 30
0.0
  3
A3WAKUDAKE
  1
D:\ACLT\FORMAT\A3WAKUdake.dwg
  0
ENDBLK
  5
6DC
  8
0
  0
ENDSEC
  0
SECTION
  2
ENTITIES
  0
TEXT
  5
30E6
  8
1TEXT
 10
-256.30677525835267
 20
-1659.4642148460671
 30
0.0
 40
7.0
  1
PC-056-XL
 41
1.0098214000000001
  0
LINE
  5
8CD0
  8
1CENTER
 10
-155.3067752583527
 20
-1682.2642048460671
 30
0.0
 11
-155.3067752583527
 21
-1676.2642048460671
 31
0.0
  0
LINE
  5
8CD1
  8
1CENTER
 10
-158.3067752583527
 20
-1679.2642048460671
 30
0.0
 11
-152.3067752583527
 21
-1679.2642048460671
 31
0.0
  0
LINE
  5
8CD2
  8
1CENTER
 10
-251.3067752583527
 20
-1682.2642048460671
 30
0.0
 11
-251.3067752583527
 21
-1676.2642048460671
 31
0.0
  0
LINE
  5
8CD3
  8
1CENTER
 10
-254.3067752583527
 20
-1679.2642048460671
 30
0.0
 11
-248.3067752583527
 21
-1679.2642048460671
 31
0.0
  0
LINE
  5
8CDC
  8
1CENTER
 10
-100.10678721148621
 20
-1774.566769487197
 30
0.0
 11
-100.10678721148621
 21
-1782.5667694871979
 31
0.0
  0
LINE
  5
91A5
  8
1CENTER
 10
-251.30677525835259
 20
-1774.963312589115
 30
0.0
 11
-251.30677525835259
 21
-1782.963312589115
 31
0.0
  0
LINE
  5
91A6
  8
1CENTER
 10
-155.30677525835259
 20
-1774.963312589115
 30
0.0
 11
-155.30677525835259
 21
-1782.963312589115
 31
0.0
  0
LINE
  5
9B2B
  8
01
 10
-104.60678721148621
 20
-1763.677414846067
 30
0.0
 11
-104.60678721148621
 21
-1780.9642148460671
 31
0.0
  0
LINE
  5
9B2C
  8
01
 10
-95.606787211486193
 20
-1753.4642148460671
 30
0.0
 11
-95.606787211486193
 21
-1780.9642148460671
 31
0.0
  0
ARC
  5
9B2D
  8
1HIDDEN
 10
-100.968237211486
 20
-1741.5416748460671
 30
0.0
 40
16.0
 50
238.35339201668771
 51
276.51468999999952
  0
ARC
  5
9B2E
  8
01
 10
-100.968237211486
 20
-1765.386704846067
 30
0.0
 40
16.0
 50
83.485313000000744
 51
121.6129899999968
  0
ARC
  5
9B2F
  8
01
 10
-114.60678721148589
 20
-1763.677414846067
 30
0.0
 40
10.0
 50
0.0
 51
58.361398000000442
  0
ARC
  5
9B30
  8
01
 10
-108.30673721148609
 20
-1753.4642148460671
 30
0.0
 40
2.0
 50
121.6129899999968
 51
238.38701999999759
  0
ARC
  5
9B31
  8
1HIDDEN
 10
-99.606787211485965
 20
-1753.4642148460671
 30
0.0
 40
4.0
 50
276.51468999999952
 51
0.0
  0
ARC
  5
9B32
  8
01
 10
-99.606787211485965
 20
-1753.4642148460671
 30
0.0
 40
4.0
 50
0.0
 51
83.485313000000744
  0
LINE
  5
9B33
  8
01
 10
-104.60678721148621
 20
-1780.9642148460671
 30
0.0
 11
-95.606787211486193
 21
-1780.9642148460671
 31
0.0
  0
LINE
  5
9B34
  8
01
 10
-256.30677525835267
 20
-1780.9642148460671
 30
0.0
 11
-247.30677525835259
 21
-1780.9642148460671
 31
0.0
  0
ARC
  5
9B35
  8
01
 10
-232.31739525835269
 20
-1780.3991548460669
 30
0.0
 40
15.0
 50
120.5944999999971
 51
182.15896999999831
  0
ARC
  5
9B36
  8
01
 10
-231.33448525835269
 20
-1782.141404846067
 30
0.0
 40
25.0
 50
120.6368600000001
 51
177.30102999999431
  0
ARC
  5
9B39
  8
01
 10
-203.3067752583527
 20
-1829.4642148460671
 30
0.0
 40
80.0
 50
59.363134000002837
 51
120.6368600000001
  0
ARC
  5
9B3A
  8
01
 10
-203.3067752583527
 20
-1829.4642148460671
 30
0.0
 40
72.0
 50
59.405501999997369
 51
120.5944999999971
  0
LINE
  5
9B3B
  8
01
 10
-159.30677525835259
 20
-1780.9642148460671
 30
0.0
 11
-150.30677525835259
 21
-1780.9642148460671
 31
0.0
  0
ARC
  5
9B3C
  8
01
 10
-175.2790052583527
 20
-1782.141404846067
 30
0.0
 40
25.0
 50
2.6989697000001329
 51
59.363134000002837
  0
ARC
  5
9B3D
  8
01
 10
-174.29609525835281
 20
-1780.3991548460669
 30
0.0
 40
15.0
 50
357.84103000000158
 51
59.405501999997369
  0
LINE
  5
9C36
  8
01
 10
-251.8067752583527
 20
-1683.7642048460671
 30
0.0
 11
-246.95887525835289
 21
-1683.7642048460671
 31
0.0
  0
LINE
  5
9C38
  8
01
 10
-251.8067752583527
 20
-1674.7642048460671
 30
0.0
 11
-154.80677525835259
 21
-1674.7642048460671
 31
0.0
  0
ARC
  5
9C3A
  8
01
 10
-251.8067752583527
 20
-1679.2642048460671
 30
0.0
 40
4.5
 50
90.000002999999325
 51
270.0
  0
ARC
  5
9C3B
  8
01
 10
-159.65461525835281
 20
-1793.7642048460671
 30
0.0
 40
110.0
 50
90.000002999999325
 51
104.8789300000018
  0
ARC
  5
9C3C
  8
01
 10
-203.3067752583527
 20
-1629.4642148460671
 30
0.0
 40
60.0
 50
255.12106999999821
 51
284.87893000000179
  0
ARC
  5
9C3D
  8
01
 10
-246.95887525835289
 20
-1793.7642048460671
 30
0.0
 40
110.0
 50
75.121071000001521
 51
90.000002999999325
  0
ARC
  5
9C3E
  8
01
 10
-154.80677525835259
 20
-1679.2642048460671
 30
0.0
 40
4.5
 50
270.0
 51
90.000002999999325
  0
LINE
  5
9C40
  8
01
 10
-159.65461525835281
 20
-1683.7642048460671
 30
0.0
 11
-154.80677525835259
 21
-1683.7642048460671
 31
0.0
  0
LINE
  5
9E72
  8
1DIM
 10
-256.30677525835267
 20
-1868.9642148460671
 30
0.0
 11
-186.3067752583527
 21
-1868.9642148460671
 31
0.0
  0
TEXT
  5
9E73
  8
1TEXT
 10
-249.5543943059717
 20
-1846.4642148460671
 30
0.0
 40
4.0
  1
表面処理：
 72
     1
 11
-238.90677525835261
 21
-1846.4642148460671
 31
0.0
  0
TEXT
  5
9E74
  8
1TEXT
 10
-248.2401085916859
 20
-1860.299503505591
 30
0.0
 40
4.0
  1
クローム
 72
     1
 11
-238.90677525835261
 21
-1860.299503505591
 31
0.0
  0
TEXT
  5
9E75
  8
1TEXT
 10
-250.1067752583526
 20
-1853.4421098660509
 30
0.0
 40
4.0
  1
本金メッキ
 72
     1
 11
-238.90677525835261
 21
-1853.4421098660509
 31
0.0
  0
LINE
  5
9E76
  8
1DIM
 10
-256.30677525835267
 20
-1840.9642148460671
 30
0.0
 11
-186.3067752583527
 21
-1840.9642148460671
 31
0.0
  0
LINE
  5
9E77
  8
1DIM
 10
-256.30677525835267
 20
-1854.9642148460671
 30
0.0
 11
-186.3067752583527
 21
-1854.9642148460671
 31
0.0
  0
LINE
  5
9E78
  8
1DIM
 10
-256.30677525835267
 20
-1847.9642148460671
 30
0.0
 11
-186.3067752583527
 21
-1847.9642148460671
 31
0.0
  0
LINE
  5
9E79
  8
1DIM
 10
-256.30677525835267
 20
-1861.9642148460671
 30
0.0
 11
-186.3067752583527
 21
-1861.9642148460671
 31
0.0
  0
LINE
  5
9E7A
  8
1DIM
 10
-256.30677525835267
 20
-1861.9642148460671
 30
0.0
 11
-186.3067752583527
 21
-1861.9642148460671
 31
0.0
  0
LINE
  5
9E7B
  8
1DIM
 10
-221.3067752583527
 20
-1840.9642148460671
 30
0.0
 11
-221.3067752583527
 21
-1868.9642148460671
 31
0.0
  0
TEXT
  5
9E7C
  8
1TEXT
 10
-210.70677525835259
 20
-1846.4642148460671
 30
0.0
 40
4.0
  1
コード
 72
     1
 11
-203.90677525835261
 21
-1846.4642148460671
 31
0.0
  0
TEXT
  5
9E7D
  8
1TEXT
 10
-255.1734419250192
 20
-1867.2751284576379
 30
0.0
 40
4.0
  1
サテンニッケル
 72
     1
 11
-238.90677525835261
 21
-1867.2751284576379
 31
0.0
  0
LINE
  5
9E7E
  8
1DIM
 10
-256.30677525835267
 20
-1868.9642148460671
 30
0.0
 11
-256.30677525835267
 21
-1840.9642148460671
 31
0.0
  0
LINE
  5
9E7F
  8
1DIM
 10
-186.3067752583527
 20
-1868.9642148460671
 30
0.0
 11
-186.3067752583527
 21
-1840.9642148460671
 31
0.0
  0
TEXT
  5
9E80
  8
1TEXT
 10
-219.10677525835311
 20
-1853.4642148460671
 30
0.0
 40
4.0
  1
PC-056-XGL
 41
0.8
 72
     1
 11
-203.90677525835321
 21
-1853.4642148460671
 31
0.0
  0
TEXT
  5
9E81
  8
1TEXT
 10
-219.10677525835311
 20
-1860.4642148460671
 30
0.0
 40
4.0
  1
PC-056-XCL
 41
0.8
 72
     1
 11
-203.90677525835321
 21
-1860.4642148460671
 31
0.0
  0
TEXT
  5
9E82
  8
1TEXT
 10
-219.10677525835311
 20
-1867.4642148460671
 30
0.0
 40
4.0
  1
PC-056-XNL
 41
0.8
 72
     1
 11
-203.90677525835321
 21
-1867.4642148460671
 31
0.0
  0
TEXT
  5
9F1E
  8
01
 10
-266.07768587368918
 20
-1734.201258028271
 30
0.0
 40
3.5
  1
材質：亜鉛ダイキャスト
  0
TEXT
  5
9F1F
  8
01
 10
-257.9110192070226
 20
-1740.034591361604
 30
0.0
 40
3.5
  1
仕上げ：各種メッキ
  0
SOLID
  5
9F20
  8
1DIM
 10
-212.6768858082759
 20
-1748.244716672556
 30
0.0
 11
-211.48233940732331
 21
-1749.883060350508
 31
0.0
 12
-213.1436704389113
 22
-1748.7206962446469
 32
0.0
 13
-213.1436704389113
 23
-1748.7206962446469
 33
0.0
1001
ACAD
1000
DSTYLE
1002
{
1070
    45
1040
0.5
1002
}
  0
LINE
  5
9F24
  8
1DIM
 10
-95.606787211486193
 20
-1780.9642148460671
 30
0.0
 11
-95.606787211486193
 21
-1811.9642148460639
 31
0.0
  0
LINE
  5
9F25
  8
1DIM
 10
-104.60678721148621
 20
-1780.9642148460671
 30
0.0
 11
-104.60678721148621
 21
-1811.9642148460639
 31
0.0
  0
LINE
  5
9F26
  8
1DIM
 10
-97.606787211486207
 20
-1810.9642148460639
 30
0.0
 11
-102.60678721148621
 21
-1810.9642148460639
 31
0.0
  0
LINE
  5
9F2A
  8
1DIM
 10
-247.3067475088242
 20
-1780.9642381242511
 30
0.0
 11
-247.3067475088242
 21
-1801.9642148460671
 31
0.0
  0
LINE
  5
9F2B
  8
1DIM
 10
-159.30674300788121
 20
-1780.9642381242511
 30
0.0
 11
-159.30674300788121
 21
-1801.9642148460671
 31
0.0
  0
LINE
  5
9F2C
  8
1DIM
 10
-245.3067475088242
 20
-1800.9642148460671
 30
0.0
 11
-161.30674300788121
 21
-1800.9642148460671
 31
0.0
  0
LINE
  5
9F30
  8
1DIM
 10
-152.3067752583527
 20
-1679.2642048460671
 30
0.0
 11
-129.30677525835279
 21
-1679.2642048460671
 31
0.0
  0
LINE
  5
9F31
  8
1DIM
 10
-154.80677525835259
 20
-1674.7642048460671
 30
0.0
 11
-129.30677525835279
 21
-1674.7642048460671
 31
0.0
  0
LINE
  5
9F32
  8
1DIM
 10
-130.30677525835279
 20
-1681.2642048460671
 30
0.0
 11
-130.30677525835279
 21
-1683.2642048460671
 31
0.0
  0
LINE
  5
9F33
  8
1DIM
 10
-130.30677525835279
 20
-1672.7642048460671
 30
0.0
 11
-130.30677525835279
 21
-1662.030871512733
 31
0.0
  0
LINE
  5
9F34
  8
1DIM
 10
-130.30677525835279
 20
-1679.2642048460671
 30
0.0
 11
-130.30677525835279
 21
-1674.7642048460671
 31
0.0
  0
TEXT
  5
9F38
  8
1TEXT
 10
-87.824032020410243
 20
-1798.886918025697
 30
0.0
 40
3.5
  1
M4-6
  0
SOLID
  5
9F39
  8
1DIM
 10
-99.371378075366735
 20
-1782.8537236794041
 30
0.0
 11
-100.1067924339484
 21
-1780.964206060459
 31
0.0
 12
-98.798313677794454
 22
-1782.513074826948
 32
0.0
 13
-98.798313677794454
 23
-1782.513074826948
 33
0.0
  0
LINE
  5
9F3B
  8
1DIM
 10
-203.3067752583527
 20
-1757.4642148460671
 30
0.0
 11
-129.3067752583527
 21
-1757.4642148460671
 31
0.0
  0
LINE
  5
9F3C
  8
1DIM
 10
-150.30673721148611
 20
-1780.9641926326381
 30
0.0
 11
-129.3067752583527
 21
-1780.9641926326381
 31
0.0
  0
LINE
  5
9F3D
  8
1DIM
 10
-130.3067752583527
 20
-1759.4642148460671
 30
0.0
 11
-130.3067752583527
 21
-1778.9641926326381
 31
0.0
  0
LINE
  5
9F41
  8
1DIM
 10
-154.80677525835259
 20
-1674.7642048460671
 30
0.0
 11
-119.3067752583528
 21
-1674.7642048460671
 31
0.0
  0
LINE
  5
9F42
  8
1DIM
 10
-203.3067752583527
 20
-1689.4642148460671
 30
0.0
 11
-119.3067752583528
 21
-1689.4642148460671
 31
0.0
  0
LINE
  5
9F43
  8
1DIM
 10
-120.3067752583528
 20
-1676.7642048460671
 30
0.0
 11
-120.3067752583528
 21
-1687.4642148460671
 31
0.0
  0
LINE
  5
9F47
  8
1DIM
 10
-203.3067752583527
 20
-1749.4642148460671
 30
0.0
 11
-119.3067752583527
 21
-1749.4642148460671
 31
0.0
  0
LINE
  5
9F48
  8
1DIM
 10
-150.30673721148611
 20
-1780.9641926326381
 30
0.0
 11
-119.3067752583527
 21
-1780.9641926326381
 31
0.0
  0
LINE
  5
9F49
  8
1DIM
 10
-120.3067752583527
 20
-1751.4642148460671
 30
0.0
 11
-120.3067752583527
 21
-1778.9641926326381
 31
0.0
  0
LINE
  5
9F4D
  8
1DIM
 10
-251.30677525835259
 20
-1782.963312589115
 30
0.0
 11
-251.30677525835259
 21
-1811.9642148460671
 31
0.0
  0
LINE
  5
9F4E
  8
1DIM
 10
-256.30677525835267
 20
-1780.9642148460671
 30
0.0
 11
-256.30677525835267
 21
-1811.9642148460671
 31
0.0
  0
LINE
  5
9F4F
  8
1DIM
 10
-249.30677525835259
 20
-1810.9642148460671
 30
0.0
 11
-247.30677525835259
 21
-1810.9642148460671
 31
0.0
  0
LINE
  5
9F50
  8
1DIM
 10
-258.30677525835267
 20
-1810.9642148460671
 30
0.0
 11
-260.30677525835267
 21
-1810.9642148460671
 31
0.0
  0
LINE
  5
9F51
  8
1DIM
 10
-251.30677525835259
 20
-1810.9642148460671
 30
0.0
 11
-256.30677525835267
 21
-1810.9642148460671
 31
0.0
  0
LINE
  5
9F55
  8
1DIM
 10
-155.30677525835259
 20
-1782.963312589115
 30
0.0
 11
-155.30677525835259
 21
-1811.9642148460639
 31
0.0
  0
LINE
  5
9F56
  8
1DIM
 10
-150.30673721148611
 20
-1780.9641926326381
 30
0.0
 11
-150.30673721148611
 21
-1811.9642148460639
 31
0.0
  0
LINE
  5
9F57
  8
1DIM
 10
-157.30677525835259
 20
-1810.9642148460639
 30
0.0
 11
-159.30677525835259
 21
-1810.9642148460639
 31
0.0
  0
LINE
  5
9F58
  8
1DIM
 10
-148.30673721148611
 20
-1810.9642148460639
 30
0.0
 11
-146.30673721148611
 21
-1810.9642148460639
 31
0.0
  0
LINE
  5
9F59
  8
1DIM
 10
-155.30677525835259
 20
-1810.9642148460639
 30
0.0
 11
-150.30673721148611
 21
-1810.9642148460639
 31
0.0
  0
LINE
  5
9F5D
  8
1DIM
 10
-251.30677525835259
 20
-1782.963312589115
 30
0.0
 11
-251.30677525835259
 21
-1811.9642148460671
 31
0.0
  0
LINE
  5
9F5E
  8
1DIM
 10
-155.30677525835259
 20
-1782.963312589115
 30
0.0
 11
-155.30677525835259
 21
-1811.9642148460671
 31
0.0
  0
LINE
  5
9F5F
  8
1DIM
 10
-249.30677525835259
 20
-1810.9642148460671
 30
0.0
 11
-157.30677525835259
 21
-1810.9642148460671
 31
0.0
  0
LINE
  5
9F63
  8
1DIM
 10
-256.30677525835267
 20
-1679.2642048460671
 30
0.0
 11
-256.30677525835267
 21
-1710.4642148460689
 31
0.0
  0
LINE
  5
9F64
  8
1DIM
 10
-150.30677525835259
 20
-1679.2642048460671
 30
0.0
 11
-150.30677525835259
 21
-1710.4642148460689
 31
0.0
  0
LINE
  5
9F65
  8
1DIM
 10
-254.3067752583527
 20
-1709.4642148460689
 30
0.0
 11
-152.3067752583527
 21
-1709.4642148460689
 31
0.0
  0
TEXT
  5
9F69
  8
1DIM
 10
-207.0984419250193
 20
-1708.7642148460691
 30
0.0
 40
3.5
  1
106
  0
LINE
  5
9F6A
  8
0
  6
BYBLOCK
 10
-152.3067752583527
 20
-1708.928316466069
 30
0.0
 11
-150.30677525835259
 21
-1709.4642148460689
 31
0.0
  0
LINE
  5
9F6B
  8
0
  6
BYBLOCK
 10
-150.30677525835259
 20
-1709.4642148460689
 30
0.0
 11
-152.3067752583527
 21
-1710.0001132260691
 31
0.0
  0
LINE
  5
9F6C
  8
0
  6
BYBLOCK
 10
-150.30677525835259
 20
-1709.4642148460689
 30
0.0
 11
-152.3067752583527
 21
-1709.4642148460689
 31
0.0
  0
LINE
  5
9F6D
  8
0
  6
BYBLOCK
 10
-254.3067752583527
 20
-1710.0001132260691
 30
0.0
 11
-256.30677525835267
 21
-1709.4642148460689
 31
0.0
  0
LINE
  5
9F6E
  8
0
  6
BYBLOCK
 10
-256.30677525835267
 20
-1709.4642148460689
 30
0.0
 11
-254.3067752583527
 21
-1708.928316466069
 31
0.0
  0
LINE
  5
9F6F
  8
0
  6
BYBLOCK
 10
-256.30677525835267
 20
-1709.4642148460689
 30
0.0
 11
-254.3067752583527
 21
-1709.4642148460689
 31
0.0
  0
TEXT
  5
9F70
  8
1DIM
 10
-207.9734419250193
 20
-1810.264214846067
 30
0.0
 40
3.5
  1
P96
  0
LINE
  5
9F71
  8
0
  6
BYBLOCK
 10
-157.30677525835259
 20
-1810.4283164660669
 30
0.0
 11
-155.30677525835259
 21
-1810.9642148460671
 31
0.0
  0
LINE
  5
9F72
  8
0
  6
BYBLOCK
 10
-155.30677525835259
 20
-1810.9642148460671
 30
0.0
 11
-157.30677525835259
 21
-1811.500113226067
 31
0.0
  0
LINE
  5
9F73
  8
0
  6
BYBLOCK
 10
-155.30677525835259
 20
-1810.9642148460671
 30
0.0
 11
-157.30677525835259
 21
-1810.9642148460671
 31
0.0
  0
LINE
  5
9F74
  8
0
  6
BYBLOCK
 10
-249.30677525835259
 20
-1811.500113226067
 30
0.0
 11
-251.30677525835259
 21
-1810.9642148460671
 31
0.0
  0
LINE
  5
9F75
  8
0
  6
BYBLOCK
 10
-251.30677525835259
 20
-1810.9642148460671
 30
0.0
 11
-249.30677525835259
 21
-1810.4283164660669
 31
0.0
  0
LINE
  5
9F76
  8
0
  6
BYBLOCK
 10
-251.30677525835259
 20
-1810.9642148460671
 30
0.0
 11
-249.30677525835259
 21
-1810.9642148460671
 31
0.0
  0
TEXT
  5
9F77
  8
1DIM
 10
-153.97342290158599
 20
-1810.2642148460641
 30
0.0
 40
3.5
  1
5
  0
LINE
  5
9F78
  8
0
  6
BYBLOCK
 10
-148.30673721148611
 20
-1811.5001132260641
 30
0.0
 11
-150.30673721148611
 21
-1810.9642148460639
 31
0.0
  0
LINE
  5
9F79
  8
0
  6
BYBLOCK
 10
-150.30673721148611
 20
-1810.9642148460639
 30
0.0
 11
-148.30673721148611
 21
-1810.428316466064
 31
0.0
  0
LINE
  5
9F7A
  8
0
  6
BYBLOCK
 10
-150.30673721148611
 20
-1810.9642148460639
 30
0.0
 11
-148.30673721148611
 21
-1810.9642148460639
 31
0.0
  0
LINE
  5
9F7B
  8
0
  6
BYBLOCK
 10
-157.30677525835259
 20
-1810.428316466064
 30
0.0
 11
-155.30677525835259
 21
-1810.9642148460639
 31
0.0
  0
LINE
  5
9F7C
  8
0
  6
BYBLOCK
 10
-155.30677525835259
 20
-1810.9642148460639
 30
0.0
 11
-157.30677525835259
 21
-1811.5001132260641
 31
0.0
  0
LINE
  5
9F7D
  8
0
  6
BYBLOCK
 10
-155.30677525835259
 20
-1810.9642148460639
 30
0.0
 11
-157.30677525835259
 21
-1810.9642148460639
 31
0.0
  0
TEXT
  5
9F7E
  8
1DIM
 10
-254.9734419250193
 20
-1810.264214846067
 30
0.0
 40
3.5
  1
5
  0
LINE
  5
9F7F
  8
0
  6
BYBLOCK
 10
-258.30677525835267
 20
-1810.4283164660669
 30
0.0
 11
-256.30677525835267
 21
-1810.9642148460671
 31
0.0
  0
LINE
  5
9F80
  8
0
  6
BYBLOCK
 10
-256.30677525835267
 20
-1810.9642148460671
 30
0.0
 11
-258.30677525835267
 21
-1811.500113226067
 31
0.0
  0
LINE
  5
9F81
  8
0
  6
BYBLOCK
 10
-256.30677525835267
 20
-1810.9642148460671
 30
0.0
 11
-258.30677525835267
 21
-1810.9642148460671
 31
0.0
  0
LINE
  5
9F82
  8
0
  6
BYBLOCK
 10
-249.30677525835259
 20
-1811.500113226067
 30
0.0
 11
-251.30677525835259
 21
-1810.9642148460671
 31
0.0
  0
LINE
  5
9F83
  8
0
  6
BYBLOCK
 10
-251.30677525835259
 20
-1810.9642148460671
 30
0.0
 11
-249.30677525835259
 21
-1810.4283164660669
 31
0.0
  0
LINE
  5
9F84
  8
0
  6
BYBLOCK
 10
-251.30677525835259
 20
-1810.9642148460671
 30
0.0
 11
-249.30677525835259
 21
-1810.9642148460671
 31
0.0
  0
TEXT
  5
9F85
  8
1DIM
 10
-121.0067752583525
 20
-1767.5475370726861
 30
0.0
 40
3.5
  1
31
 50
90.0
  0
LINE
  5
9F86
  8
0
  6
BYBLOCK
 10
-119.77087687835269
 20
-1778.9641926326381
 30
0.0
 11
-120.3067752583527
 21
-1780.9641926326381
 31
0.0
  0
LINE
  5
9F87
  8
0
  6
BYBLOCK
 10
-120.3067752583527
 20
-1780.9641926326381
 30
0.0
 11
-120.84267363835269
 21
-1778.9641926326381
 31
0.0
  0
LINE
  5
9F88
  8
0
  6
BYBLOCK
 10
-120.3067752583527
 20
-1780.9641926326381
 30
0.0
 11
-120.3067752583527
 21
-1778.9641926326381
 31
0.0
  0
LINE
  5
9F89
  8
0
  6
BYBLOCK
 10
-120.84267363835269
 20
-1751.4642148460671
 30
0.0
 11
-120.3067752583527
 21
-1749.4642148460671
 31
0.0
  0
LINE
  5
9F8A
  8
0
  6
BYBLOCK
 10
-120.3067752583527
 20
-1749.4642148460671
 30
0.0
 11
-119.77087687835269
 21
-1751.4642148460671
 31
0.0
  0
LINE
  5
9F8B
  8
0
  6
BYBLOCK
 10
-120.3067752583527
 20
-1749.4642148460671
 30
0.0
 11
-120.3067752583527
 21
-1751.4642148460671
 31
0.0
  0
TEXT
  5
9F8C
  8
1DIM
 10
-121.0067752583525
 20
-1684.4475431794001
 30
0.0
 40
3.5
  1
15
 50
90.0
  0
LINE
  5
9F8D
  8
0
  6
BYBLOCK
 10
-119.77087687835269
 20
-1687.4642148460671
 30
0.0
 11
-120.3067752583528
 21
-1689.4642148460671
 31
0.0
  0
LINE
  5
9F8E
  8
0
  6
BYBLOCK
 10
-120.3067752583528
 20
-1689.4642148460671
 30
0.0
 11
-120.84267363835281
 21
-1687.4642148460671
 31
0.0
  0
LINE
  5
9F8F
  8
0
  6
BYBLOCK
 10
-120.3067752583528
 20
-1689.4642148460671
 30
0.0
 11
-120.3067752583528
 21
-1687.4642148460671
 31
0.0
  0
LINE
  5
9F90
  8
0
  6
BYBLOCK
 10
-120.84267363835281
 20
-1676.7642048460671
 30
0.0
 11
-120.3067752583528
 21
-1674.7642048460671
 31
0.0
  0
LINE
  5
9F91
  8
0
  6
BYBLOCK
 10
-120.3067752583528
 20
-1674.7642048460671
 30
0.0
 11
-119.77087687835269
 21
-1676.7642048460671
 31
0.0
  0
LINE
  5
9F92
  8
0
  6
BYBLOCK
 10
-120.3067752583528
 20
-1674.7642048460671
 30
0.0
 11
-120.3067752583528
 21
-1676.7642048460671
 31
0.0
  0
TEXT
  5
9F93
  8
1DIM
 10
-131.00677525835241
 20
-1772.1308704060191
 30
0.0
 40
3.5
  1
23
 50
90.0
  0
LINE
  5
9F94
  8
0
  6
BYBLOCK
 10
-129.77087687835271
 20
-1778.9641926326381
 30
0.0
 11
-130.3067752583527
 21
-1780.9641926326381
 31
0.0
  0
LINE
  5
9F95
  8
0
  6
BYBLOCK
 10
-130.3067752583527
 20
-1780.9641926326381
 30
0.0
 11
-130.84267363835269
 21
-1778.9641926326381
 31
0.0
  0
LINE
  5
9F96
  8
0
  6
BYBLOCK
 10
-130.3067752583527
 20
-1780.9641926326381
 30
0.0
 11
-130.3067752583527
 21
-1778.9641926326381
 31
0.0
  0
LINE
  5
9F97
  8
0
  6
BYBLOCK
 10
-130.84267363835269
 20
-1759.4642148460671
 30
0.0
 11
-130.3067752583527
 21
-1757.4642148460671
 31
0.0
  0
LINE
  5
9F98
  8
0
  6
BYBLOCK
 10
-130.3067752583527
 20
-1757.4642148460671
 30
0.0
 11
-129.77087687835271
 21
-1759.4642148460671
 31
0.0
  0
LINE
  5
9F99
  8
0
  6
BYBLOCK
 10
-130.3067752583527
 20
-1757.4642148460671
 30
0.0
 11
-130.3067752583527
 21
-1759.4642148460671
 31
0.0
  0
LINE
  5
9F9A
  8
1DIM
 10
-99.084845876580601
 20
-1782.683399253176
 30
0.0
 11
-89.036822832886912
 21
-1799.5869180256971
 31
0.0
  0
LINE
  5
9F9B
  8
1DIM
 10
-89.036822832886912
 20
-1799.5869180256971
 30
0.0
 11
-86.336822832886895
 21
-1799.5869180256971
 31
0.0
  0
TEXT
  5
9F9C
  8
1DIM
 10
-131.00677525835249
 20
-1669.897538179401
 30
0.0
 40
3.5
  1
4.5
 50
90.0
  0
LINE
  5
9F9D
  8
0
  6
BYBLOCK
 10
-129.77087687835279
 20
-1672.7642048460671
 30
0.0
 11
-130.30677525835279
 21
-1674.7642048460671
 31
0.0
  0
LINE
  5
9F9E
  8
0
  6
BYBLOCK
 10
-130.30677525835279
 20
-1674.7642048460671
 30
0.0
 11
-130.84267363835281
 21
-1672.7642048460671
 31
0.0
  0
LINE
  5
9F9F
  8
0
  6
BYBLOCK
 10
-130.30677525835279
 20
-1674.7642048460671
 30
0.0
 11
-130.30677525835279
 21
-1672.7642048460671
 31
0.0
  0
LINE
  5
9FA0
  8
0
  6
BYBLOCK
 10
-130.84267363835281
 20
-1681.2642048460671
 30
0.0
 11
-130.30677525835279
 21
-1679.2642048460671
 31
0.0
  0
LINE
  5
9FA1
  8
0
  6
BYBLOCK
 10
-130.30677525835279
 20
-1679.2642048460671
 30
0.0
 11
-129.77087687835279
 21
-1681.2642048460671
 31
0.0
  0
LINE
  5
9FA2
  8
0
  6
BYBLOCK
 10
-130.30677525835279
 20
-1679.2642048460671
 30
0.0
 11
-130.30677525835279
 21
-1681.2642048460671
 31
0.0
  0
TEXT
  5
9FA3
  8
1DIM
 10
-206.22341192501941
 20
-1800.264214846067
 30
0.0
 40
3.5
  1
88
  0
LINE
  5
9FA4
  8
0
  6
BYBLOCK
 10
-161.30674300788121
 20
-1800.4283164660669
 30
0.0
 11
-159.30674300788121
 21
-1800.9642148460671
 31
0.0
  0
LINE
  5
9FA5
  8
0
  6
BYBLOCK
 10
-159.30674300788121
 20
-1800.9642148460671
 30
0.0
 11
-161.30674300788121
 21
-1801.500113226067
 31
0.0
  0
LINE
  5
9FA6
  8
0
  6
BYBLOCK
 10
-159.30674300788121
 20
-1800.9642148460671
 30
0.0
 11
-161.30674300788121
 21
-1800.9642148460671
 31
0.0
  0
LINE
  5
9FA7
  8
0
  6
BYBLOCK
 10
-245.3067475088242
 20
-1801.500113226067
 30
0.0
 11
-247.3067475088242
 21
-1800.9642148460671
 31
0.0
  0
LINE
  5
9FA8
  8
0
  6
BYBLOCK
 10
-247.3067475088242
 20
-1800.9642148460671
 30
0.0
 11
-245.3067475088242
 21
-1800.4283164660669
 31
0.0
  0
LINE
  5
9FA9
  8
0
  6
BYBLOCK
 10
-247.3067475088242
 20
-1800.9642148460671
 30
0.0
 11
-245.3067475088242
 21
-1800.9642148460671
 31
0.0
  0
TEXT
  5
9FAA
  8
1DIM
 10
-103.7234538781528
 20
-1810.2642148460641
 30
0.0
 40
3.5
  1
\U+03C69
  0
LINE
  5
9FAB
  8
0
  6
BYBLOCK
 10
-102.60678721148621
 20
-1811.5001132260641
 30
0.0
 11
-104.60678721148621
 21
-1810.9642148460639
 31
0.0
  0
LINE
  5
9FAC
  8
0
  6
BYBLOCK
 10
-104.60678721148621
 20
-1810.9642148460639
 30
0.0
 11
-102.60678721148621
 21
-1810.428316466064
 31
0.0
  0
LINE
  5
9FAD
  8
0
  6
BYBLOCK
 10
-104.60678721148621
 20
-1810.9642148460639
 30
0.0
 11
-102.60678721148621
 21
-1810.9642148460639
 31
0.0
  0
LINE
  5
9FAE
  8
0
  6
BYBLOCK
 10
-97.606787211486207
 20
-1810.428316466064
 30
0.0
 11
-95.606787211486193
 21
-1810.9642148460639
 31
0.0
  0
LINE
  5
9FAF
  8
0
  6
BYBLOCK
 10
-95.606787211486193
 20
-1810.9642148460639
 30
0.0
 11
-97.606787211486207
 21
-1811.5001132260641
 31
0.0
  0
LINE
  5
9FB0
  8
0
  6
BYBLOCK
 10
-95.606787211486193
 20
-1810.9642148460639
 30
0.0
 11
-97.606787211486207
 21
-1810.9642148460639
 31
0.0
  0
LINE
  5
9FB1
  8
1DIM
 10
-212.9102781235936
 20
-1748.482706458602
 30
0.0
 11
-220.81101920702261
 21
-1740.7345913616041
 31
0.0
1001
ACAD
1000
DSTYLE
1002
{
1070
    45
1040
0.5
1002
}
  0
VIEWPORT
  5
57
 67
     1
  8
0
 10
81.078623929536008
 20
9.8414732014601896
 30
0.0
 40
583.25339593311378
 41
268.17012956194509
 68
     1
 69
     1
1001
ACAD
1000
MVIEW
1002
{
1070
    16
1010
0.0
1020
0.0
1030
0.0
1010
0.0
1020
0.0
1030
1.0
1040
0.0
1040
268.17012956194509
1040
81.078623929536008
1040
9.8414732014601896
1040
50.0
1040
0.0
1040
0.0
1070
     0
1070
   100
1070
     1
1070
     1
1070
     0
1070
     0
1070
     0
1070
     0
1040
0.0
1040
0.0
1040
0.0
1040
10.0
1040
10.0
1040
10.0
1040
10.0
1070
     0
1002
{
1002
}
1002
}
  0
ENDSEC
  0
EOF
