  0
SECTION
  2
HEADER
  9
$ACADVER
  1
AC1012
  9
$DWGCODEPAGE
  3
ansi_932
  9
$INSBASE
 10
0.0
 20
0.0
 30
0.0
  9
$EXTMIN
 10
356.142519314223
 20
51.62369408912772
 30
0.0
  9
$EXTMAX
 10
475.7373418049374
 20
134.9039929607924
 30
0.0
  9
$LIMMIN
 10
0.0
 20
0.0
  9
$LIMMAX
 10
420.0
 20
297.0
  9
$ORTHOMODE
 70
     0
  9
$REGENMODE
 70
     1
  9
$FILLMODE
 70
     1
  9
$QTEXTMODE
 70
     0
  9
$MIRRTEXT
 70
     0
  9
$DRAGMODE
 70
     2
  9
$LTSCALE
 40
0.5
  9
$OSMODE
 70
  2687
  9
$ATTMODE
 70
     1
  9
$TEXTSIZE
 40
4.0
  9
$TRACEWID
 40
1.0
  9
$TEXTSTYLE
  7
STANDARD
  9
$CLAYER
  8
1TEXT
  9
$CELTYPE
  6
BYLAYER
  9
$CECOLOR
 62
   256
  9
$CELTSCALE
 40
1.0
  9
$DELOBJ
 70
     1
  9
$DISPSILH
 70
     0
  9
$DIMSCALE
 40
1.0
  9
$DIMASZ
 40
2.0
  9
$DIMEXO
 40
0.0
  9
$DIMDLI
 40
7.0
  9
$DIMRND
 40
0.0
  9
$DIMDLE
 40
0.0
  9
$DIMEXE
 40
1.0
  9
$DIMTP
 40
0.0
  9
$DIMTM
 40
0.0
  9
$DIMTXT
 40
3.5
  9
$DIMCEN
 40
0.0
  9
$DIMTSZ
 40
0.0
  9
$DIMTOL
 70
     0
  9
$DIMLIM
 70
     0
  9
$DIMTIH
 70
     0
  9
$DIMTOH
 70
     0
  9
$DIMSE1
 70
     0
  9
$DIMSE2
 70
     0
  9
$DIMTAD
 70
     1
  9
$DIMZIN
 70
     8
  9
$DIMBLK
  1

  9
$DIMASO
 70
     1
  9
$DIMSHO
 70
     1
  9
$DIMPOST
  1
 
  9
$DIMAPOST
  1

  9
$DIMALT
 70
     0
  9
$DIMALTD
 70
     2
  9
$DIMALTF
 40
25.4
  9
$DIMLFAC
 40
1.0
  9
$DIMTOFL
 70
     1
  9
$DIMTVP
 40
0.0
  9
$DIMTIX
 70
     0
  9
$DIMSOXD
 70
     0
  9
$DIMSAH
 70
     1
  9
$DIMBLK1
  1
OPEN30
  9
$DIMBLK2
  1
OPEN30
  9
$DIMSTYLE
  2
NEWX10
  9
$DIMCLRD
 70
   256
  9
$DIMCLRE
 70
   256
  9
$DIMCLRT
 70
   201
  9
$DIMTFAC
 40
0.7
  9
$DIMGAP
 40
0.7
  9
$DIMJUST
 70
     0
  9
$DIMSD1
 70
     0
  9
$DIMSD2
 70
     0
  9
$DIMTOLJ
 70
     1
  9
$DIMTZIN
 70
     8
  9
$DIMALTZ
 70
     0
  9
$DIMALTTZ
 70
     0
  9
$DIMFIT
 70
     2
  9
$DIMUPT
 70
     0
  9
$DIMUNIT
 70
     2
  9
$DIMDEC
 70
     2
  9
$DIMTDEC
 70
     4
  9
$DIMALTU
 70
     2
  9
$DIMALTTD
 70
     2
  9
$DIMTXSTY
  7
STANDARD
  9
$DIMAUNIT
 70
     0
  9
$LUNITS
 70
     2
  9
$LUPREC
 70
     4
  9
$SKETCHINC
 40
1.0
  9
$FILLETRAD
 40
0.0
  9
$AUNITS
 70
     0
  9
$AUPREC
 70
     2
  9
$MENU
  1
acad
  9
$ELEVATION
 40
0.0
  9
$PELEVATION
 40
0.0
  9
$THICKNESS
 40
0.0
  9
$LIMCHECK
 70
     0
  9
$CHAMFERA
 40
10.0
  9
$CHAMFERB
 40
10.0
  9
$CHAMFERC
 40
20.0
  9
$CHAMFERD
 40
0.0
  9
$SKPOLY
 70
     0
  9
$TDCREATE
 40
2451318.57968625
  9
$TDUPDATE
 40
2458584.41002081
  9
$TDINDWG
 40
1.1952159606
  9
$TDUSRTIMER
 40
1.1952159606
  9
$USRTIMER
 70
     1
  9
$ANGBASE
 50
0.0
  9
$ANGDIR
 70
     0
  9
$PDMODE
 70
     0
  9
$PDSIZE
 40
0.0
  9
$PLINEWID
 40
0.0
  9
$COORDS
 70
     2
  9
$SPLFRAME
 70
     0
  9
$SPLINETYPE
 70
     6
  9
$SPLINESEGS
 70
     8
  9
$ATTDIA
 70
     0
  9
$ATTREQ
 70
     1
  9
$HANDLING
 70
     1
  9
$HANDSEED
  5
11758
  9
$SURFTAB1
 70
     6
  9
$SURFTAB2
 70
     6
  9
$SURFTYPE
 70
     6
  9
$SURFU
 70
     6
  9
$SURFV
 70
     6
  9
$UCSNAME
  2

  9
$UCSORG
 10
0.0
 20
0.0
 30
0.0
  9
$UCSXDIR
 10
1.0
 20
0.0
 30
0.0
  9
$UCSYDIR
 10
0.0
 20
1.0
 30
0.0
  9
$PUCSNAME
  2

  9
$PUCSORG
 10
0.0
 20
0.0
 30
0.0
  9
$PUCSXDIR
 10
1.0
 20
0.0
 30
0.0
  9
$PUCSYDIR
 10
0.0
 20
1.0
 30
0.0
  9
$USERI1
 70
     0
  9
$USERI2
 70
     0
  9
$USERI3
 70
     0
  9
$USERI4
 70
     0
  9
$USERI5
 70
     0
  9
$USERR1
 40
0.0
  9
$USERR2
 40
0.0
  9
$USERR3
 40
0.0
  9
$USERR4
 40
0.0
  9
$USERR5
 40
0.0
  9
$WORLDVIEW
 70
     1
  9
$SHADEDGE
 70
     3
  9
$SHADEDIF
 70
    70
  9
$TILEMODE
 70
     1
  9
$MAXACTVP
 70
    48
  9
$PINSBASE
 10
0.0
 20
0.0
 30
0.0
  9
$PLIMCHECK
 70
     0
  9
$PEXTMIN
 10
1.000000000000000E+20
 20
1.000000000000000E+20
 30
1.000000000000000E+20
  9
$PEXTMAX
 10
-1.000000000000000E+20
 20
-1.000000000000000E+20
 30
-1.000000000000000E+20
  9
$PLIMMIN
 10
0.0
 20
0.0
  9
$PLIMMAX
 10
420.0
 20
297.0
  9
$UNITMODE
 70
     0
  9
$VISRETAIN
 70
     1
  9
$PLINEGEN
 70
     0
  9
$PSLTSCALE
 70
     1
  9
$TREEDEPTH
 70
  3020
  9
$PICKSTYLE
 70
     1
  9
$CMLSTYLE
  2
STANDARD
  9
$CMLJUST
 70
     0
  9
$CMLSCALE
 40
20.0
  9
$SAVEIMAGES
 70
     1
  0
ENDSEC
  0
SECTION
  2
CLASSES
  0
CLASS
  1
DICTIONARYVAR
  2
AcDbDictionaryVar
  3
ObjectDBX Classes
 90
        0
280
     0
281
     0
  0
CLASS
  1
IDBUFFER
  2
AcDbIdBuffer
  3
ObjectDBX Classes
 90
    32768
280
     0
281
     0
  0
CLASS
  1
LWPOLYLINE
  2
AcDbPolyline
  3
ObjectDBX Classes
 90
    32768
280
     0
281
     1
  0
CLASS
  1
ACDBDICTIONARYWDFLT
  2
AcDbDictionaryWithDefault
  3
ObjectDBX Classes
 90
    32768
280
     0
281
     0
  0
CLASS
  1
ACDBPLACEHOLDER
  2
AcDbPlaceHolder
  3
ObjectDBX Classes
 90
        0
280
     0
281
     0
  0
CLASS
  1
LAYOUT
  2
AcDbLayout
  3
ObjectDBX Classes
 90
        0
280
     0
281
     0
  0
CLASS
  1
TABLESTYLE
  2
AcDbTableStyle
  3
ObjectDBX Classes
 90
     4095
280
     0
281
     0
  0
CLASS
  1
SORTENTSTABLE
  2
AcDbSortentsTable
  3
ObjectDBX Classes
 90
    32768
280
     0
281
     0
  0
CLASS
  1
MATERIAL
  2
AcDbMaterial
  3
ObjectDBX Classes
 90
     1153
280
     0
281
     0
  0
CLASS
  1
VISUALSTYLE
  2
AcDbVisualStyle
  3
ObjectDBX Classes
 90
     4095
280
     0
281
     0
  0
CLASS
  1
SCALE
  2
AcDbScale
  3
ObjectDBX Classes
 90
     1153
280
     0
281
     0
  0
CLASS
  1
MLEADERSTYLE
  2
AcDbMLeaderStyle
  3
ACDB_MLEADERSTYLE_CLASS
 90
     4095
280
     0
281
     0
  0
CLASS
  1
CELLSTYLEMAP
  2
AcDbCellStyleMap
  3
ObjectDBX Classes
 90
     1152
280
     0
281
     0
  0
CLASS
  1
SUN
  2
AcDbSun
  3
SCENEOE
 90
     1153
280
     0
281
     0
  0
CLASS
  1
DIMASSOC
  2
AcDbDimAssoc
  3
"AcDbDimAssoc|Product Desc:     AcDim ARX App For Dimension|Company:          Autodesk, Inc.|WEB Address:      www.autodesk.com"
 90
        0
280
     0
281
     0
  0
CLASS
  1
XRECORD
  2
AcDbXrecord
  3
ObjectDBX Classes
 90
    32768
280
     0
281
     0
  0
CLASS
  1
HATCH
  2
AcDbHatch
  3
ObjectDBX Classes
 90
    32768
280
     0
281
     1
  0
ENDSEC
  0
SECTION
  2
TABLES
  0
TABLE
  2
VPORT
  5
8
330
0
100
AcDbSymbolTable
 70
     1
  0
VPORT
  5
CFAB
330
8
100
AcDbSymbolTableRecord
100
AcDbViewportTableRecord
  2
*ACTIVE
 70
     0
 10
0.0
 20
0.0
 11
1.0
 21
1.0
 12
415.9399305595802
 22
93.26384352496004
 13
0.0
 23
0.0
 14
10.0
 24
10.0
 15
10.0
 25
10.0
 16
0.0
 26
0.0
 36
1.0
 17
0.0
 27
0.0
 37
0.0
 40
89.41674194641887
 41
2.146039603960396
 42
50.0
 43
0.0
 44
0.0
 50
0.0
 51
0.0
 71
    16
 72
   100
 73
     1
 74
     1
 75
     0
 76
     0
 77
     0
 78
     0
  0
ENDTAB
  0
TABLE
  2
LTYPE
  5
5
330
0
100
AcDbSymbolTable
 70
     2
  0
LTYPE
  5
12
330
5
100
AcDbSymbolTableRecord
100
AcDbLinetypeTableRecord
  2
BYBLOCK
 70
     0
  3

 72
    65
 73
     0
 40
0.0
  0
LTYPE
  5
13
330
5
100
AcDbSymbolTableRecord
100
AcDbLinetypeTableRecord
  2
BYLAYER
 70
     0
  3

 72
    65
 73
     0
 40
0.0
  0
LTYPE
  5
14
330
5
100
AcDbSymbolTableRecord
100
AcDbLinetypeTableRecord
  2
CONTINUOUS
 70
     0
  3
Solid line
 72
    65
 73
     0
 40
0.0
  0
LTYPE
  5
A61B
330
5
100
AcDbSymbolTableRecord
100
AcDbLinetypeTableRecord
  2
CENTER2
 70
     0
  3
Center (.5x) ___ _ ___ _ ___ _ ___ _ ___ _ ___
 72
    65
 73
     4
 40
28.575
 49
19.05
 74
     0
 49
-3.175
 74
     0
 49
3.175
 74
     0
 49
-3.175
 74
     0
  0
ENDTAB
  0
TABLE
  2
LAYER
  5
2
102
{ACAD_XDICTIONARY
360
D16C
102
}
330
0
100
AcDbSymbolTable
 70
     5
  0
LAYER
  5
E
102
{ACAD_XDICTIONARY
360
D0B5
102
}
330
2
100
AcDbSymbolTableRecord
100
AcDbLayerTableRecord
  2
0
 70
     0
 62
     7
  6
CONTINUOUS
  0
LAYER
  5
29
102
{ACAD_XDICTIONARY
360
D0B7
102
}
330
2
100
AcDbSymbolTableRecord
100
AcDbLayerTableRecord
  2
1CENTER
 70
     0
 62
     7
  6
CENTER2
  0
LAYER
  5
31
102
{ACAD_XDICTIONARY
360
D0B9
102
}
330
2
100
AcDbSymbolTableRecord
100
AcDbLayerTableRecord
  2
1TEXT
 70
     0
 62
     7
  6
CONTINUOUS
  0
LAYER
  5
243
102
{ACAD_XDICTIONARY
360
D0BF
102
}
330
2
100
AcDbSymbolTableRecord
100
AcDbLayerTableRecord
  2
01
 70
     0
 62
     1
  6
CONTINUOUS
  0
LAYER
  5
24E
102
{ACAD_XDICTIONARY
360
D0C5
102
}
330
2
100
AcDbSymbolTableRecord
100
AcDbLayerTableRecord
  2
1DIM
 70
     0
 62
     7
  6
CONTINUOUS
  0
ENDTAB
  0
TABLE
  2
STYLE
  5
3
330
0
100
AcDbSymbolTable
 70
     1
  0
STYLE
  5
F
330
3
100
AcDbSymbolTableRecord
100
AcDbTextStyleTableRecord
  2
STANDARD
 70
     0
 40
0.0
 41
1.0
 50
0.0
 71
     0
 42
4.0
  3
txt.shx
  4
extfont.shx
  0
ENDTAB
  0
TABLE
  2
VIEW
  5
6
330
0
100
AcDbSymbolTable
 70
     0
  0
ENDTAB
  0
TABLE
  2
UCS
  5
7
330
0
100
AcDbSymbolTable
 70
     0
  0
ENDTAB
  0
TABLE
  2
APPID
  5
9
330
0
100
AcDbSymbolTable
 70
    20
  0
APPID
  5
10
330
9
100
AcDbSymbolTableRecord
100
AcDbRegAppTableRecord
  2
ACAD
 70
     0
  0
APPID
  5
21
330
9
100
AcDbSymbolTableRecord
100
AcDbRegAppTableRecord
  2
DRAWINGVARIABLESXDATA
 70
     0
  0
APPID
  5
64
330
9
100
AcDbSymbolTableRecord
100
AcDbRegAppTableRecord
  2
CONTENTTABDATA
 70
     0
  0
APPID
  5
65
330
9
100
AcDbSymbolTableRecord
100
AcDbRegAppTableRecord
  2
CONTENTCURRENTTAB
 70
     0
  0
APPID
  5
66
330
9
100
AcDbSymbolTableRecord
100
AcDbRegAppTableRecord
  2
CONTENTBLOCKDESCRIPTION
 70
     0
  0
APPID
  5
67
330
9
100
AcDbSymbolTableRecord
100
AcDbRegAppTableRecord
  2
CONTENTBLOCKICON
 70
     0
  0
APPID
  5
68
330
9
100
AcDbSymbolTableRecord
100
AcDbRegAppTableRecord
  2
CONTENTLONGBLOCKNAME
 70
     0
  0
APPID
  5
2AE
330
9
100
AcDbSymbolTableRecord
100
AcDbRegAppTableRecord
  2
ACAD_PSEXT
 70
     0
  0
APPID
  5
D09F
330
9
100
AcDbSymbolTableRecord
100
AcDbRegAppTableRecord
  2
ACAD_MLEADERVER
 70
     0
  0
APPID
  5
D7D9
330
9
100
AcDbSymbolTableRecord
100
AcDbRegAppTableRecord
  2
ACAD_EXEMPT_FROM_CAD_STAND
 70
     0
  0
APPID
  5
DB3E
330
9
100
AcDbSymbolTableRecord
100
AcDbRegAppTableRecord
  2
ACAECLAYERSTANDARD
 70
     0
  0
APPID
  5
F289
330
9
100
AcDbSymbolTableRecord
100
AcDbRegAppTableRecord
  2
ACADANNOTATIVE
 70
     0
  0
APPID
  5
F2A2
330
9
100
AcDbSymbolTableRecord
100
AcDbRegAppTableRecord
  2
ACDBBLOCKREPETAG
 70
     0
  0
APPID
  5
F2A3
330
9
100
AcDbSymbolTableRecord
100
AcDbRegAppTableRecord
  2
ACLAYERTOOLS
 70
     0
  0
APPID
  5
F2A4
330
9
100
AcDbSymbolTableRecord
100
AcDbRegAppTableRecord
  2
ACAD_NAV_VCDISPLAY
 70
     0
  0
APPID
  5
100DD
330
9
100
AcDbSymbolTableRecord
100
AcDbRegAppTableRecord
  2
ACAD_DSTYLE_DIMRADIAL_EXTE
 70
     0
  0
APPID
  5
112DE
330
9
100
AcDbSymbolTableRecord
100
AcDbRegAppTableRecord
  2
ACAD_DSTYLE_DIMJOGGED_JOGA
 70
     0
  0
APPID
  5
112DF
330
9
100
AcDbSymbolTableRecord
100
AcDbRegAppTableRecord
  2
ACAD_DSTYLE_DIM_LINETYPE
 70
     0
  0
APPID
  5
112E0
330
9
100
AcDbSymbolTableRecord
100
AcDbRegAppTableRecord
  2
ACAD_DSTYLE_DIM_EXT1_LINET
 70
     0
  0
APPID
  5
112E1
330
9
100
AcDbSymbolTableRecord
100
AcDbRegAppTableRecord
  2
ACAD_DSTYLE_DIM_EXT2_LINET
 70
     0
  0
ENDTAB
  0
TABLE
  2
DIMSTYLE
  5
A
330
0
100
AcDbSymbolTable
 70
     1
  0
DIMSTYLE
105
48
330
A
100
AcDbSymbolTableRecord
100
AcDbDimStyleTableRecord
  2
NEWX10
 70
     0
  3
 
  4

  5

  6
OPEN30
  7
OPEN30
 40
1.0
 41
2.0
 42
0.0
 43
7.0
 44
1.0
 45
0.0
 46
0.0
 47
0.0
 48
0.0
140
3.5
141
0.0
142
0.0
143
25.4
144
1.0
145
0.0
146
0.7
147
0.7
 71
     0
 72
     0
 73
     0
 74
     0
 75
     0
 76
     0
 77
     1
 78
     8
170
     0
171
     2
172
     1
173
     1
174
     0
175
     0
176
   256
177
   256
178
   201
179
     2
270
     2
271
     2
272
     4
273
     2
274
     2
340
F
275
     0
280
     0
281
     0
282
     0
283
     1
284
     8
285
     0
286
     0
287
     2
288
     0
  0
ENDTAB
  0
TABLE
  2
BLOCK_RECORD
  5
1
330
0
100
AcDbSymbolTable
 70
     8
  0
BLOCK_RECORD
  5
18
102
{ACAD_XDICTIONARY
360
88F
102
}
330
1
100
AcDbSymbolTableRecord
100
AcDbBlockTableRecord
  2
*MODEL_SPACE
  0
BLOCK_RECORD
  5
15
330
1
100
AcDbSymbolTableRecord
100
AcDbBlockTableRecord
  2
*PAPER_SPACE
  0
BLOCK_RECORD
  5
42
330
1
100
AcDbSymbolTableRecord
100
AcDbBlockTableRecord
  2
_OPEN30
  0
BLOCK_RECORD
  5
F2F3
330
1
100
AcDbSymbolTableRecord
100
AcDbBlockTableRecord
  2
A3WAKUKAWAJUN2017_HYOUDAI_
  0
BLOCK_RECORD
  5
115B8
330
1
100
AcDbSymbolTableRecord
100
AcDbBlockTableRecord
  2
*X86
  0
BLOCK_RECORD
  5
11606
330
1
100
AcDbSymbolTableRecord
100
AcDbBlockTableRecord
  2
*X87
  0
BLOCK_RECORD
  5
11658
330
1
100
AcDbSymbolTableRecord
100
AcDbBlockTableRecord
  2
*X88
  0
BLOCK_RECORD
  5
116A9
330
1
100
AcDbSymbolTableRecord
100
AcDbBlockTableRecord
  2
*X89
  0
BLOCK_RECORD
  5
116E6
330
1
100
AcDbSymbolTableRecord
100
AcDbBlockTableRecord
  2
*X90
  0
BLOCK_RECORD
  5
11726
330
1
100
AcDbSymbolTableRecord
100
AcDbBlockTableRecord
  2
*X91
  0
ENDTAB
  0
ENDSEC
  0
SECTION
  2
BLOCKS
  0
BLOCK
  5
19
330
18
100
AcDbEntity
  8
0
100
AcDbBlockBegin
  2
*MODEL_SPACE
 70
     0
 10
0.0
 20
0.0
 30
0.0
  3
*MODEL_SPACE
  1

  0
ENDBLK
  5
1A
330
18
100
AcDbEntity
  8
0
100
AcDbBlockEnd
  0
BLOCK
  5
16
330
15
100
AcDbEntity
 67
     1
  8
0
100
AcDbBlockBegin
  2
*PAPER_SPACE
 70
     0
 10
0.0
 20
0.0
 30
0.0
  3
*PAPER_SPACE
  1

  0
ENDBLK
  5
17
330
15
100
AcDbEntity
 67
     1
  8
0
100
AcDbBlockEnd
  0
BLOCK
  5
43
330
42
100
AcDbEntity
  8
0
100
AcDbBlockBegin
  2
_OPEN30
 70
     0
 10
0.0
 20
0.0
 30
0.0
  3
_OPEN30
  1

  0
LINE
  5
44
330
42
100
AcDbEntity
  8
0
  6
BYBLOCK
 62
     0
100
AcDbLine
 10
-1.0
 20
0.26794919
 30
0.0
 11
0.0
 21
0.0
 31
0.0
  0
LINE
  5
45
330
42
100
AcDbEntity
  8
0
  6
BYBLOCK
 62
     0
100
AcDbLine
 10
0.0
 20
0.0
 30
0.0
 11
-1.0
 21
-0.26794919
 31
0.0
  0
LINE
  5
46
330
42
100
AcDbEntity
  8
0
  6
BYBLOCK
 62
     0
100
AcDbLine
 10
0.0
 20
0.0
 30
0.0
 11
-1.0
 21
0.0
 31
0.0
  0
ENDBLK
  5
47
330
42
100
AcDbEntity
  8
0
100
AcDbBlockEnd
  0
BLOCK
  5
FA01
330
F2F3
100
AcDbEntity
  8
0
100
AcDbBlockBegin
  2
A3WAKUKAWAJUN2017_HYOUDAI_
 70
     0
 10
0.0
 20
0.0
 30
0.0
  3
A3WAKUKAWAJUN2017_HYOUDAI_
  1

  0
LINE
  5
F2F5
330
F2F3
100
AcDbEntity
  8
0
100
AcDbLine
 10
13.26299999998673
 20
-0.0001000000000317
 30
0.0
 11
9.236999999990758
 21
8.999899999990987
 31
0.0
1001
ACAD
1000
ASC_BOUNDS
1002
{
1070
    19
1005
F336
1002
}
  0
LINE
  5
F2F6
330
F2F3
100
AcDbEntity
  8
0
100
AcDbLine
 10
5.657999999994331
 20
0.9999999999989768
 30
0.0
 11
9.236999999990758
 21
8.999999999991019
 31
0.0
1001
ACAD
1000
ASC_BOUNDS
1002
{
1070
    19
1005
F336
1002
}
  0
LINE
  5
F2F7
330
F2F3
100
AcDbEntity
  8
0
100
AcDbLine
 10
18.59199999998134
 20
-0.2368999999997641
 30
0.0
 11
16.46099999998353
 21
5.432899999994561
 31
0.0
1001
ACAD
1000
ASC_BOUNDS
1002
{
1070
    19
1005
F337
1002
}
  0
LINE
  5
F2F8
330
F2F3
100
AcDbEntity
  8
0
100
AcDbLine
 10
18.59199999998134
 20
-0.2368999999997641
 30
0.0
 11
22.38199999997767
 21
8.763099999991255
 31
0.0
1001
ACAD
1000
ASC_BOUNDS
1002
{
1070
    19
1005
F337
1002
}
  0
LINE
  5
F2F9
330
F2F3
100
AcDbEntity
  8
0
100
AcDbLine
 10
14.32899999998563
 20
-0.2368999999997641
 30
0.0
 11
16.46099999998353
 21
5.432899999994561
 31
0.0
1001
ACAD
1000
ASC_BOUNDS
1002
{
1070
    19
1005
F337
1002
}
  0
LINE
  5
F2FA
330
F2F3
100
AcDbEntity
  8
0
100
AcDbLine
 10
14.32899999998563
 20
-0.2368999999997641
 30
0.0
 11
10.53899999998941
 21
8.763099999991255
 31
0.0
1001
ACAD
1000
ASC_BOUNDS
1002
{
1070
    19
1005
F337
1002
}
  0
LINE
  5
F2FB
330
F2F3
100
AcDbEntity
  8
0
100
AcDbLine
 10
19.53899999998043
 20
-0.0001000000000317
 30
0.0
 11
23.56599999997638
 21
8.999899999990987
 31
0.0
1001
ACAD
1000
ASC_BOUNDS
1002
{
1070
    19
1005
F338
1002
}
  0
LINE
  5
F2FC
330
F2F3
100
AcDbEntity
  8
0
100
AcDbLine
 10
26.97358892824991
 20
1.383099999991202
 30
0.0
 11
23.56599999997638
 21
8.999899999990987
 31
0.0
1001
ACAD
1000
ASC_BOUNDS
1002
{
1070
    19
1005
F338
1002
}
  0
LINE
  5
F2FD
330
F2F3
100
AcDbEntity
  8
0
100
AcDbLine
 10
5.657999999994331
 20
0.9999999999989768
 30
0.0
 11
3.181999999996833
 21
4.668599999995308
 31
0.0
1001
ACAD
1000
ASC_BOUNDS
1002
{
1070
    19
1005
F336
1002
}
  0
LINE
  5
F2FE
330
F2F3
100
AcDbEntity
  8
0
100
AcDbLine
 10
4.617999999995391
 20
-0.0001000000000317
 30
0.0
 11
1.420999999998571
 21
4.736799999995242
 31
0.0
1001
ACAD
1000
ASC_BOUNDS
1002
{
1070
    19
1005
F336
1002
}
  0
LINE
  5
F2FF
330
F2F3
100
AcDbEntity
  8
0
100
AcDbLine
 10
1.420999999998571
 20
8.763099999991255
 30
0.0
 11
1.420999999998571
 21
0.0
 31
0.0
1001
ACAD
1000
ASC_BOUNDS
1002
{
1070
    19
1005
F33B
1002
}
  0
LINE
  5
F300
330
F2F3
100
AcDbEntity
  8
0
100
AcDbLine
 10
0.0
 20
8.763099999991255
 30
0.0
 11
0.0
 21
0.0
 31
0.0
1001
ACAD
1000
ASC_BOUNDS
1002
{
1070
    19
1005
F33B
1002
}
  0
LINE
  5
F301
330
F2F3
100
AcDbEntity
  8
0
100
AcDbLine
 10
6.766999999993232
 20
-0.0001000000000317
 30
0.0
 11
7.826999999992154
 21
2.368399999997621
 31
0.0
1001
ACAD
1000
ASC_BOUNDS
1002
{
1070
    19
1005
F336
1002
}
  0
LINE
  5
F302
330
F2F3
100
AcDbEntity
  8
0
100
AcDbLine
 10
0.0
 20
0.0
 30
0.0
 11
1.420999999998571
 21
0.0
 31
0.0
1001
ACAD
1000
ASC_BOUNDS
1002
{
1070
    19
1005
F33B
1002
}
  0
LINE
  5
F303
330
F2F3
100
AcDbEntity
  8
0
100
AcDbLine
 10
4.617999999995391
 20
0.0
 30
0.0
 11
6.766999999993232
 21
0.0
 31
0.0
1001
ACAD
1000
ASC_BOUNDS
1002
{
1070
    19
1005
F336
1002
}
  0
LINE
  5
F304
330
F2F3
100
AcDbEntity
  8
0
100
AcDbLine
 10
11.70599999998831
 20
-0.0001000000000317
 30
0.0
 11
10.64699999998936
 21
2.368399999997621
 31
0.0
1001
ACAD
1000
ASC_BOUNDS
1002
{
1070
    19
1005
F336
1002
}
  0
LINE
  5
F305
330
F2F3
100
AcDbEntity
  8
0
100
AcDbLine
 10
7.826999999992154
 20
2.368399999997621
 30
0.0
 11
10.64699999998936
 21
2.368399999997621
 31
0.0
1001
ACAD
1000
ASC_BOUNDS
1002
{
1070
    19
1005
F336
1002
}
  0
LINE
  5
F306
330
F2F3
100
AcDbEntity
  8
0
100
AcDbLine
 10
11.70599999998831
 20
0.0
 30
0.0
 11
13.26299999998673
 21
0.0
 31
0.0
1001
ACAD
1000
ASC_BOUNDS
1002
{
1070
    19
1005
F336
1002
}
  0
LINE
  5
F307
330
F2F3
100
AcDbEntity
  8
0
100
AcDbLine
 10
22.15599999997789
 20
2.368399999997621
 30
0.0
 11
24.97599999997499
 21
2.368399999997621
 31
0.0
1001
ACAD
1000
ASC_BOUNDS
1002
{
1070
    19
1005
F338
1002
}
  0
LINE
  5
F308
330
F2F3
100
AcDbEntity
  8
0
100
AcDbLine
 10
19.53899999998043
 20
0.0
 30
0.0
 11
21.09599999997886
 21
0.0
 31
0.0
1001
ACAD
1000
ASC_BOUNDS
1002
{
1070
    19
1005
F338
1002
}
  0
LINE
  5
F309
330
F2F3
100
AcDbEntity
  8
0
100
AcDbLine
 10
21.09599999997886
 20
-0.0001000000000317
 30
0.0
 11
22.15599999997789
 21
2.368399999997621
 31
0.0
1001
ACAD
1000
ASC_BOUNDS
1002
{
1070
    19
1005
F338
1002
}
  0
LINE
  5
F30A
330
F2F3
100
AcDbEntity
  8
0
100
AcDbLine
 10
26.02015566812236
 20
0.0330999999912365
 30
0.0
 11
24.97599999997499
 21
2.368399999997621
 31
0.0
1001
ACAD
1000
ASC_BOUNDS
1002
{
1070
    19
1005
F338
1002
}
  0
LINE
  5
F30B
330
F2F3
100
AcDbEntity
  8
0
100
AcDbLine
 10
14.32399999998563
 20
3.315799999996671
 30
0.0
 11
16.46099999998353
 21
8.999899999990987
 31
0.0
1001
ACAD
1000
ASC_BOUNDS
1002
{
1070
    19
1005
F337
1002
}
  0
LINE
  5
F30C
330
F2F3
100
AcDbEntity
  8
0
100
AcDbLine
 10
6.432999999993513
 20
8.763099999991255
 30
0.0
 11
3.181999999996833
 21
4.668599999995308
 31
0.0
1001
ACAD
1000
ASC_BOUNDS
1002
{
1070
    19
1005
F336
1002
}
  0
LINE
  5
F30D
330
F2F3
100
AcDbEntity
  8
0
100
AcDbLine
 10
4.617999999995391
 20
8.763099999991255
 30
0.0
 11
1.420999999998571
 21
4.736799999995242
 31
0.0
1001
ACAD
1000
ASC_BOUNDS
1002
{
1070
    19
1005
F336
1002
}
  0
LINE
  5
F30E
330
F2F3
100
AcDbEntity
  8
0
100
AcDbLine
 10
0.0
 20
8.763099999991255
 30
0.0
 11
1.420999999998571
 21
8.763099999991255
 31
0.0
1001
ACAD
1000
ASC_BOUNDS
1002
{
1070
    19
1005
F33B
1002
}
  0
LINE
  5
F30F
330
F2F3
100
AcDbEntity
  8
0
100
AcDbLine
 10
4.617999999995391
 20
8.763099999991255
 30
0.0
 11
6.432999999993513
 21
8.763099999991255
 31
0.0
1001
ACAD
1000
ASC_BOUNDS
1002
{
1070
    19
1005
F336
1002
}
  0
LINE
  5
F310
330
F2F3
100
AcDbEntity
  8
0
100
AcDbLine
 10
14.32399999998563
 20
3.315799999996671
 30
0.0
 11
12.02999999998792
 21
8.763099999991255
 31
0.0
1001
ACAD
1000
ASC_BOUNDS
1002
{
1070
    19
1005
F337
1002
}
  0
LINE
  5
F311
330
F2F3
100
AcDbEntity
  8
0
100
AcDbLine
 10
10.06399999998996
 20
3.670999999996297
 30
0.0
 11
9.236999999990758
 21
5.5200999999945
 31
0.0
1001
ACAD
1000
ASC_BOUNDS
1002
{
1070
    19
1005
F336
1002
}
  0
LINE
  5
F312
330
F2F3
100
AcDbEntity
  8
0
100
AcDbLine
 10
8.409999999991555
 20
3.670999999996297
 30
0.0
 11
9.236999999990758
 21
5.5200999999945
 31
0.0
1001
ACAD
1000
ASC_BOUNDS
1002
{
1070
    19
1005
F336
1002
}
  0
LINE
  5
F313
330
F2F3
100
AcDbEntity
  8
0
100
AcDbLine
 10
8.409999999991555
 20
3.670999999996297
 30
0.0
 11
10.06399999998996
 21
3.670999999996297
 31
0.0
1001
ACAD
1000
ASC_BOUNDS
1002
{
1070
    19
1005
F336
1002
}
  0
LINE
  5
F314
330
F2F3
100
AcDbEntity
  8
0
100
AcDbLine
 10
10.53899999998941
 20
8.763099999991255
 30
0.0
 11
12.02999999998792
 21
8.763099999991255
 31
0.0
1001
ACAD
1000
ASC_BOUNDS
1002
{
1070
    19
1005
F337
1002
}
  0
LINE
  5
F315
330
F2F3
100
AcDbEntity
  8
0
100
AcDbLine
 10
22.7389999999773
 20
3.670999999996297
 30
0.0
 11
23.56599999997638
 21
5.5200999999945
 31
0.0
1001
ACAD
1000
ASC_BOUNDS
1002
{
1070
    19
1005
F338
1002
}
  0
LINE
  5
F316
330
F2F3
100
AcDbEntity
  8
0
100
AcDbLine
 10
22.7389999999773
 20
3.670999999996297
 30
0.0
 11
24.39299999997559
 21
3.670999999996297
 31
0.0
1001
ACAD
1000
ASC_BOUNDS
1002
{
1070
    19
1005
F338
1002
}
  0
LINE
  5
F317
330
F2F3
100
AcDbEntity
  8
0
100
AcDbLine
 10
18.59799999998143
 20
3.315799999996671
 30
0.0
 11
20.89099999997916
 21
8.763099999991255
 31
0.0
1001
ACAD
1000
ASC_BOUNDS
1002
{
1070
    19
1005
F337
1002
}
  0
LINE
  5
F318
330
F2F3
100
AcDbEntity
  8
0
100
AcDbLine
 10
18.59799999998143
 20
3.315799999996671
 30
0.0
 11
16.46099999998353
 21
8.999899999990987
 31
0.0
1001
ACAD
1000
ASC_BOUNDS
1002
{
1070
    19
1005
F337
1002
}
  0
LINE
  5
F319
330
F2F3
100
AcDbEntity
  8
0
100
AcDbLine
 10
20.89099999997916
 20
8.763099999991255
 30
0.0
 11
22.38199999997767
 21
8.763099999991255
 31
0.0
1001
ACAD
1000
ASC_BOUNDS
1002
{
1070
    19
1005
F337
1002
}
  0
LINE
  5
F31A
330
F2F3
100
AcDbEntity
  8
0
100
AcDbLine
 10
24.39299999997559
 20
3.670999999996297
 30
0.0
 11
23.56599999997638
 21
5.5200999999945
 31
0.0
1001
ACAD
1000
ASC_BOUNDS
1002
{
1070
    19
1005
F338
1002
}
  0
LINE
  5
F31B
330
F2F3
100
AcDbEntity
  8
0
100
AcDbLine
 10
44.99999999995498
 20
-0.2368999999997641
 30
0.0
 11
40.02599999995994
 21
5.341799999994635
 31
0.0
1001
ACAD
1000
ASC_BOUNDS
1002
{
1070
    19
1005
F33A
1002
}
  0
LINE
  5
F31C
330
F2F3
100
AcDbEntity
  8
0
100
AcDbLine
 10
40.02599999995994
 20
5.341799999994635
 30
0.0
 11
40.02599999995994
 21
0.0
 31
0.0
1001
ACAD
1000
ASC_BOUNDS
1002
{
1070
    19
1005
F33A
1002
}
  0
LINE
  5
F31D
330
F2F3
100
AcDbEntity
  8
0
100
AcDbLine
 10
38.60499999996136
 20
8.999999999991019
 30
0.0
 11
38.60499999996136
 21
0.0
 31
0.0
1001
ACAD
1000
ASC_BOUNDS
1002
{
1070
    19
1005
F33A
1002
}
  0
LINE
  5
F31E
330
F2F3
100
AcDbEntity
  8
0
100
AcDbLine
 10
44.99999999995498
 20
8.763099999991255
 30
0.0
 11
44.99999999995498
 21
-0.2368999999997641
 31
0.0
1001
ACAD
1000
ASC_BOUNDS
1002
{
1070
    19
1005
F33A
1002
}
  0
LINE
  5
F31F
330
F2F3
100
AcDbEntity
  8
0
100
AcDbLine
 10
38.60499999996136
 20
0.0
 30
0.0
 11
40.02599999995994
 21
0.0
 31
0.0
1001
ACAD
1000
ASC_BOUNDS
1002
{
1070
    19
1005
F33A
1002
}
  0
LINE
  5
F320
330
F2F3
100
AcDbEntity
  8
0
100
AcDbLine
 10
43.57899999995641
 20
3.421199999996588
 30
0.0
 11
38.60499999996136
 21
8.999899999990987
 31
0.0
1001
ACAD
1000
ASC_BOUNDS
1002
{
1070
    19
1005
F33A
1002
}
  0
LINE
  5
F321
330
F2F3
100
AcDbEntity
  8
0
100
AcDbLine
 10
43.57899999995641
 20
8.763099999991255
 30
0.0
 11
43.57899999995641
 21
3.421199999996588
 31
0.0
1001
ACAD
1000
ASC_BOUNDS
1002
{
1070
    19
1005
F33A
1002
}
  0
LINE
  5
F322
330
F2F3
100
AcDbEntity
  8
0
100
AcDbLine
 10
43.57899999995641
 20
8.763099999991255
 30
0.0
 11
44.99999999995498
 21
8.763099999991255
 31
0.0
1001
ACAD
1000
ASC_BOUNDS
1002
{
1070
    19
1005
F33A
1002
}
  0
LINE
  5
F323
330
F2F3
100
AcDbEntity
  8
0
100
AcDbLine
 10
37.67199999996831
 20
8.763099999991255
 30
0.0
 11
36.23199999996837
 21
8.763099999991255
 31
0.0
  0
LINE
  5
F324
330
F2F3
100
AcDbEntity
  8
0
100
AcDbLine
 10
31.64199999996833
 20
8.763099999991255
 30
0.0
 11
31.64199999996833
 21
2.481619422925121
 31
0.0
  0
LINE
  5
F325
330
F2F3
100
AcDbEntity
  8
0
100
AcDbLine
 10
37.67199999996831
 20
8.763099999991255
 30
0.0
 11
37.67199999996831
 21
2.481619422925121
 31
0.0
  0
LINE
  5
F326
330
F2F3
100
AcDbEntity
  8
0
100
AcDbLine
 10
36.23199999996837
 20
8.763099999991255
 30
0.0
 11
36.23199999996837
 21
2.481619422925064
 31
0.0
  0
LINE
  5
F327
330
F2F3
100
AcDbEntity
  8
0
100
AcDbLine
 10
33.08199999996839
 20
8.763099999991255
 30
0.0
 11
33.08199999996839
 21
2.481619422925121
 31
0.0
  0
ARC
  5
F328
330
F2F3
100
AcDbEntity
  8
0
100
AcDbCircle
 10
34.65699999996832
 20
3.183099999991214
 30
0.0
 40
3.420000000000007
100
AcDbArc
 50
240.0000000000255
 51
299.9999999999766
  0
ARC
  5
F329
330
F2F3
100
AcDbEntity
  8
0
100
AcDbCircle
 10
34.65699999996832
 20
3.183099999991214
 30
0.0
 40
1.97999999999999
100
AcDbArc
 50
240.000000000026
 51
299.9999999999703
  0
LINE
  5
F32A
330
F2F3
100
AcDbEntity
  8
0
100
AcDbLine
 10
33.08199999996828
 20
8.763099999991255
 30
0.0
 11
31.64199999996833
 21
8.763099999991255
 31
0.0
  0
ARC
  5
F32B
330
F2F3
100
AcDbEntity
  8
0
100
AcDbCircle
 10
35.06199999996829
 20
2.481619422925064
 30
0.0
 40
1.17
100
AcDbArc
 50
299.9999999999699
 51
0.0
  0
ARC
  5
F32C
330
F2F3
100
AcDbEntity
  8
0
100
AcDbCircle
 10
34.25199999996835
 20
2.481619422925121
 30
0.0
 40
1.17
100
AcDbArc
 50
180.0
 51
240.0000000000238
  0
ARC
  5
F32D
330
F2F3
100
AcDbEntity
  8
0
100
AcDbCircle
 10
35.06199999996841
 20
2.481619422925121
 30
0.0
 40
2.61
100
AcDbArc
 50
299.9999999999756
 51
0.0
  0
ARC
  5
F32E
330
F2F3
100
AcDbEntity
  8
0
100
AcDbCircle
 10
34.25199999996835
 20
2.481619422925121
 30
0.0
 40
2.61
100
AcDbArc
 50
180.0
 51
240.0000000000244
  0
LINE
  5
F32F
330
F2F3
100
AcDbEntity
  8
0
100
AcDbLine
 10
29.30199999996933
 20
8.763099999991255
 30
0.0
 11
30.74199999996927
 21
8.763099999991255
 31
0.0
1001
ACAD
1000
ASC_BOUNDS
1002
{
1070
    19
1005
F338
1002
}
  0
LINE
  5
F330
330
F2F3
100
AcDbEntity
  8
0
100
AcDbLine
 10
30.74199999996927
 20
8.763099999991255
 30
0.0
 11
30.74199999996927
 21
2.373099999991211
 31
0.0
1001
ACAD
1000
ASC_BOUNDS
1002
{
1070
    19
1005
F338
1002
}
  0
LINE
  5
F331
330
F2F3
100
AcDbEntity
  8
0
100
AcDbLine
 10
26.02015566812236
 20
0.0330999999912365
 30
0.0
 11
28.40199999996923
 21
0.0330999999912365
 31
0.0
1001
ACAD
1000
ASC_BOUNDS
1002
{
1070
    19
1005
F338
1002
}
  0
LINE
  5
F332
330
F2F3
100
AcDbEntity
  8
0
100
AcDbLine
 10
29.30199999996933
 20
8.763099999991255
 30
0.0
 11
29.30199999996933
 21
2.283099999991236
 31
0.0
1001
ACAD
1000
ASC_BOUNDS
1002
{
1070
    19
1005
F338
1002
}
  0
LINE
  5
F333
330
F2F3
100
AcDbEntity
  8
0
100
AcDbLine
 10
26.97358892824991
 20
1.383099999991202
 30
0.0
 11
28.40199999996923
 21
1.383099999991202
 31
0.0
1001
ACAD
1000
ASC_BOUNDS
1002
{
1070
    19
1005
F338
1002
}
  0
ARC
  5
F334
330
F2F3
100
AcDbEntity
  8
0
100
AcDbCircle
 10
28.40199999996923
 20
2.283099999991236
 30
0.0
 40
0.9
100
AcDbArc
 50
270.0
 51
0.0
1001
ACAD
1000
ASC_BOUNDS
1002
{
1070
    19
1005
F338
1002
}
  0
ARC
  5
F335
330
F2F3
100
AcDbEntity
  8
0
100
AcDbCircle
 10
28.40199999996923
 20
2.373099999991211
 30
0.0
 40
2.34
100
AcDbArc
 50
270.0
 51
0.0
1001
ACAD
1000
ASC_BOUNDS
1002
{
1070
    19
1005
F338
1002
}
  0
INSERT
  5
F336
330
F2F3
100
AcDbEntity
  8
0
100
AcDbBlockReference
  2
*X86
 10
0.0
 20
0.0
 30
0.0
1001
ACAD
1000
HATCH
1002
{
1070
    19
1000
ANSI37
1040
0.15
1040
0.0
1000
ASC_BOUNDS
1070
     2
1070
     2
1070
    12
1005
F2F5
1005
F2F6
1005
F2FD
1005
F30C
1005
F30F
1005
F30D
1005
F2FE
1005
F303
1005
F301
1005
F305
1005
F304
1005
F306
1070
     2
1070
     3
1005
F311
1005
F313
1005
F312
1000
ASC_SEEDPOINT
1011
3.614004224891801
1021
2.996669441146025
1031
0.0
1000
R14_HATCH_DATA
1000
F336
1011
1.0
1021
0.0
1031
0.0
1011
0.0
1021
1.0
1031
0.0
1011
0.0
1021
0.0
1031
1.0
1040
0.0
1010
0.0
1020
0.0
1030
1.0
1000
ANSI37
1070
     0
1070
     1
1071
        2
1071
        7
1070
     0
1070
     1
1071
       17
1040
13.26299999998673
1040
-0.0001000000000317
1040
9.236999999990758
1040
8.999899999990987
1040
9.236999999990758
1040
8.999999999991019
1040
5.657999999994331
1040
0.9999999999989768
1040
3.181999999996833
1040
4.668599999995308
1040
6.432999999993513
1040
8.763099999991255
1040
4.617999999995391
1040
8.763099999991255
1040
1.420999999998571
1040
4.736799999995242
1040
4.617999999995391
1040
-0.0001000000000317
1040
4.617999999995391
1040
0.0
1040
6.766999999993232
1040
0.0
1040
6.766999999993232
1040
-0.0001000000000317
1040
7.826999999992154
1040
2.368399999997621
1040
10.64699999998936
1040
2.368399999997621
1040
11.70599999998831
1040
-0.0001000000000317
1040
11.70599999998831
1040
0.0
1040
13.26299999998673
1040
0.0
1071
       12
1005
F2F5
1005
F2F6
1005
F2FD
1005
F30C
1005
F30F
1005
F30D
1005
F2FE
1005
F303
1005
F301
1005
F305
1005
F304
1005
F306
1071
       22
1070
     0
1070
     1
1071
        3
1040
9.236999999990758
1040
5.5200999999945
1040
10.06399999998996
1040
3.670999999996297
1040
8.409999999991555
1040
3.670999999996297
1071
        3
1005
F311
1005
F313
1005
F312
1070
     0
1070
     1
1040
0.0
1040
0.15
1070
     0
1070
     2
1040
0.7853981633974483
1040
49.29960901727088
1040
-10.17736998311392
1040
-0.3367596045400932
1040
0.3367596045400932
1070
     0
1040
2.356194490192345
1040
49.29960901727088
1040
-10.17736998311392
1040
-0.3367596045400932
1040
-0.3367596045400932
1070
     0
1040
0.0110235143455945
1071
        2
1040
3.614004224891801
1040
2.996669441146025
1040
0.0
1040
3.614004224891801
1040
2.996669441146025
1040
0.0
1002
}
  0
INSERT
  5
F337
330
F2F3
100
AcDbEntity
  8
0
100
AcDbBlockReference
  2
*X87
 10
0.0
 20
0.0
 30
0.0
1001
ACAD
1000
HATCH
1002
{
1070
    19
1000
ANSI37
1040
0.15
1040
0.0
1000
ASC_BOUNDS
1070
     1
1070
     2
1070
    10
1005
F2F7
1005
F2F8
1005
F319
1005
F317
1005
F318
1005
F30B
1005
F310
1005
F314
1005
F2FA
1005
F2F9
1000
ASC_SEEDPOINT
1011
14.73245321214324
1021
2.798246178283421
1031
0.0
1000
R14_HATCH_DATA
1000
F337
1011
1.0
1021
0.0
1031
0.0
1011
0.0
1021
1.0
1031
0.0
1011
0.0
1021
0.0
1031
1.0
1040
0.0
1010
0.0
1020
0.0
1030
1.0
1000
ANSI37
1070
     0
1070
     1
1071
        1
1071
        7
1070
     0
1070
     1
1071
       10
1040
16.46099999998353
1040
5.432899999994561
1040
18.59199999998134
1040
-0.2368999999997641
1040
22.38199999997767
1040
8.763099999991255
1040
20.89099999997916
1040
8.763099999991255
1040
18.59799999998143
1040
3.315799999996671
1040
16.46099999998353
1040
8.999899999990987
1040
14.32399999998563
1040
3.315799999996671
1040
12.02999999998792
1040
8.763099999991255
1040
10.53899999998941
1040
8.763099999991255
1040
14.32899999998563
1040
-0.2368999999997641
1071
       10
1005
F2F7
1005
F2F8
1005
F319
1005
F317
1005
F318
1005
F30B
1005
F310
1005
F314
1005
F2FA
1005
F2F9
1070
     0
1070
     1
1040
0.0
1040
0.15
1070
     0
1070
     2
1040
0.7853981633974483
1040
49.29960901727088
1040
-10.17736998311392
1040
-0.3367596045400932
1040
0.3367596045400932
1070
     0
1040
2.356194490192345
1040
49.29960901727088
1040
-10.17736998311392
1040
-0.3367596045400932
1040
-0.3367596045400932
1070
     0
1040
0.0110235143455945
1071
        1
1040
14.73245321214324
1040
2.798246178283421
1040
0.0
1002
}
  0
INSERT
  5
F338
330
F2F3
100
AcDbEntity
  8
0
100
AcDbBlockReference
  2
*X88
 10
0.0
 20
0.0
 30
0.0
1001
ACAD
1000
HATCH
1002
{
1070
    19
1000
ANSI37
1040
0.15
1040
0.0
1000
ASC_BOUNDS
1070
     2
1070
     2
1070
    13
1005
F2FB
1005
F308
1005
F309
1005
F307
1005
F30A
1005
F331
1005
F335
1005
F330
1005
F32F
1005
F332
1005
F334
1005
F333
1005
F2FC
1070
     2
1070
     3
1005
F315
1005
F31A
1005
F316
1000
ASC_SEEDPOINT
1011
21.97929957367762
1021
3.294304244259308
1031
0.0
1000
R14_HATCH_DATA
1000
F338
1011
1.0
1021
0.0
1031
0.0
1011
0.0
1021
1.0
1031
0.0
1011
0.0
1021
0.0
1031
1.0
1040
0.0
1010
0.0
1020
0.0
1030
1.0
1000
ANSI37
1070
     0
1070
     1
1071
        2
1071
        7
1070
     1
1070
     1
1071
       15
1040
23.56599999997638
1040
8.999899999990987
1040
0.0
1040
19.53899999998043
1040
-0.0001000000000317
1040
0.0
1040
19.53899999998043
1040
0.0
1040
0.0
1040
21.09599999997886
1040
0.0
1040
0.0
1040
21.09599999997886
1040
-0.0001000000000317
1040
0.0
1040
22.15599999997789
1040
2.368399999997621
1040
0.0
1040
24.97599999997499
1040
2.368399999997621
1040
0.0
1040
26.02015566812236
1040
0.0330999999912365
1040
0.0
1040
28.40199999996923
1040
0.0330999999912365
1040
0.414213562373095
1040
30.74199999996923
1040
2.373099999991211
1040
0.0
1040
30.74199999996927
1040
8.763099999991255
1040
0.0
1040
29.30199999996933
1040
8.763099999991255
1040
0.0
1040
29.30199999996933
1040
2.283099999991236
1040
-0.414213562373095
1040
28.40199999996923
1040
1.383099999991237
1040
0.0
1040
26.97358892824991
1040
1.383099999991202
1040
0.0
1071
       13
1005
F2FB
1005
F308
1005
F309
1005
F307
1005
F30A
1005
F331
1005
F335
1005
F330
1005
F32F
1005
F332
1005
F334
1005
F333
1005
F2FC
1071
       22
1070
     0
1070
     1
1071
        3
1040
22.7389999999773
1040
3.670999999996297
1040
23.56599999997638
1040
5.5200999999945
1040
24.39299999997559
1040
3.670999999996297
1071
        3
1005
F315
1005
F31A
1005
F316
1070
     0
1070
     1
1040
0.0
1040
0.15
1070
     0
1070
     2
1040
0.7853981633974483
1040
49.29960901727088
1040
-10.17736998311392
1040
-0.3367596045400932
1040
0.3367596045400932
1070
     0
1040
2.356194490192345
1040
49.29960901727088
1040
-10.17736998311392
1040
-0.3367596045400932
1040
-0.3367596045400932
1070
     0
1040
0.0110235143455945
1071
        2
1040
21.97929957367762
1040
3.294304244259308
1040
0.0
1040
21.97929957367762
1040
3.294304244259308
1040
0.0
1002
}
  0
INSERT
  5
F339
330
F2F3
100
AcDbEntity
  8
0
100
AcDbBlockReference
  2
*X89
 10
0.0
 20
0.0
 30
0.0
1001
ACAD
1000
HATCH
1002
{
1070
    19
1000
ANSI37
1040
0.15
1040
0.0
1000
R14_HATCH_DATA
1000
F339
1011
1.0
1021
0.0
1031
0.0
1011
0.0
1021
1.0
1031
0.0
1011
0.0
1021
0.0
1031
1.0
1040
0.0
1010
0.0
1020
0.0
1030
1.0
1000
ANSI37
1070
     0
1070
     1
1071
        1
1071
        7
1070
     1
1070
     1
1071
       12
1040
31.64199999996833
1040
2.481619422925121
1040
0.2679491924310942
1040
32.94699999997067
1040
0.2212931190493919
1040
0.2679491924301353
1040
36.36699999995983
1040
0.2212931190459813
1040
0.2679491924321411
1040
37.67199999996831
1040
2.481619422928361
1040
0.0
1040
37.67199999996831
1040
8.763099999991255
1040
0.0
1040
36.23199999996837
1040
8.763099999991255
1040
0.0
1040
36.23199999996837
1040
2.481619422925064
1040
-0.2679491924310291
1040
35.64699999996708
1040
1.468369700498386
1040
-0.267949192430519
1040
33.66699999997093
1040
1.468369700497703
1040
-0.267949192431809
1040
33.08199999996839
1040
2.481619422926997
1040
0.0
1040
33.08199999996839
1040
8.763099999991255
1040
0.0
1040
31.64199999996833
1040
8.763099999991255
1040
0.0
1071
        0
1070
     0
1070
     1
1040
0.0
1040
0.15
1070
     0
1070
     2
1040
0.7853981633974483
1040
49.29960901727088
1040
-10.17736998311392
1040
-0.3367596045400932
1040
0.3367596045400932
1070
     0
1040
2.356194490192345
1040
49.29960901727088
1040
-10.17736998311392
1040
-0.3367596045400932
1040
-0.3367596045400932
1070
     0
1040
0.0110235143455945
1071
        1
1040
32.30357378967278
1040
3.988785755459219
1040
0.0
1002
}
  0
INSERT
  5
F33A
330
F2F3
100
AcDbEntity
  8
0
100
AcDbBlockReference
  2
*X90
 10
0.0
 20
0.0
 30
0.0
1001
ACAD
1000
HATCH
1002
{
1070
    19
1000
ANSI37
1040
0.15
1040
0.0
1000
ASC_BOUNDS
1070
     1
1070
     2
1070
     8
1005
F31B
1005
F31E
1005
F322
1005
F321
1005
F320
1005
F31D
1005
F31F
1005
F31C
1000
ASC_SEEDPOINT
1011
39.74896370716704
1021
4.484843821435049
1031
0.0
1000
R14_HATCH_DATA
1000
F33A
1011
1.0
1021
0.0
1031
0.0
1011
0.0
1021
1.0
1031
0.0
1011
0.0
1021
0.0
1031
1.0
1040
0.0
1010
0.0
1020
0.0
1030
1.0
1000
ANSI37
1070
     0
1070
     1
1071
        1
1071
        7
1070
     0
1070
     1
1071
        9
1040
40.02599999995994
1040
5.341799999994635
1040
44.99999999995498
1040
-0.2368999999997641
1040
44.99999999995498
1040
8.763099999991255
1040
43.57899999995641
1040
8.763099999991255
1040
43.57899999995641
1040
3.421199999996588
1040
38.60499999996136
1040
8.999899999990987
1040
38.60499999996136
1040
8.999999999991019
1040
38.60499999996136
1040
0.0
1040
40.02599999995994
1040
0.0
1071
        8
1005
F31B
1005
F31E
1005
F322
1005
F321
1005
F320
1005
F31D
1005
F31F
1005
F31C
1070
     0
1070
     1
1040
0.0
1040
0.15
1070
     0
1070
     2
1040
0.7853981633974483
1040
49.29960901727088
1040
-10.17736998311392
1040
-0.3367596045400932
1040
0.3367596045400932
1070
     0
1040
2.356194490192345
1040
49.29960901727088
1040
-10.17736998311392
1040
-0.3367596045400932
1040
-0.3367596045400932
1070
     0
1040
0.0110235143455945
1071
        1
1040
39.74896370716704
1040
4.484843821435049
1040
0.0
1002
}
  0
INSERT
  5
F33B
330
F2F3
100
AcDbEntity
  8
0
100
AcDbBlockReference
  2
*X91
 10
0.0
 20
0.0
 30
0.0
1001
ACAD
1000
HATCH
1002
{
1070
    19
1000
ANSI37
1040
0.15
1040
0.0
1000
ASC_BOUNDS
1070
     1
1070
     2
1070
     4
1005
F2FF
1005
F30E
1005
F300
1005
F302
1000
ASC_SEEDPOINT
1011
1.079051535452663
1021
4.148538732891836
1031
0.0
1000
R14_HATCH_DATA
1000
F33B
1011
1.0
1021
0.0
1031
0.0
1011
0.0
1021
1.0
1031
0.0
1011
0.0
1021
0.0
1031
1.0
1040
0.0
1010
0.0
1020
0.0
1030
1.0
1000
ANSI37
1070
     0
1070
     1
1071
        1
1071
        7
1070
     0
1070
     1
1071
        4
1040
1.420999999998571
1040
0.0
1040
1.420999999998571
1040
8.763099999991255
1040
0.0
1040
8.763099999991255
1040
0.0
1040
0.0
1071
        4
1005
F2FF
1005
F30E
1005
F300
1005
F302
1070
     0
1070
     1
1040
0.0
1040
0.15
1070
     0
1070
     2
1040
0.7853981633974483
1040
49.29960901727088
1040
-10.17736998311392
1040
-0.3367596045400932
1040
0.3367596045400932
1070
     0
1040
2.356194490192345
1040
49.29960901727088
1040
-10.17736998311392
1040
-0.3367596045400932
1040
-0.3367596045400932
1070
     0
1040
0.0053004257112761
1071
        1
1040
1.079051535452663
1040
4.148538732891836
1040
0.0
1002
}
  0
ENDBLK
  5
FA02
330
F2F3
100
AcDbEntity
  8
0
100
AcDbBlockEnd
  0
BLOCK
  5
11746
330
115B8
100
AcDbEntity
  8
0
100
AcDbBlockBegin
  2
*X86
 70
     1
 10
0.0
 20
0.0
 30
0.0
  3
*X86
  1

  0
LINE
  5
115B9
330
115B8
100
AcDbEntity
  8
0
  6
CONTINUOUS
100
AcDbLine
 10
3.418023043697893
 20
7.251849696850613
 30
0.0
 11
4.929273346838536
 21
8.763099999991255
 31
0.0
  0
LINE
  5
115BA
330
115B8
100
AcDbEntity
  8
0
  6
CONTINUOUS
100
AcDbLine
 10
1.483656411257782
 20
4.643963855330318
 30
0.0
 11
5.60279255591872
 21
8.763099999991255
 31
0.0
  0
LINE
  5
115BB
330
115B8
100
AcDbEntity
  8
0
  6
CONTINUOUS
100
AcDbLine
 10
1.755053947328235
 20
4.241842182320584
 30
0.0
 11
6.276311764998907
 21
8.763099999991255
 31
0.0
  0
LINE
  5
115BC
330
115B8
100
AcDbEntity
  8
0
  6
CONTINUOUS
100
AcDbLine
 10
2.026451483398688
 20
3.839720509310849
 30
0.0
 11
4.441040904851878
 21
6.254309930764039
 31
0.0
  0
LINE
  5
115BD
330
115B8
100
AcDbEntity
  8
0
  6
CONTINUOUS
100
AcDbLine
 10
2.297849019469139
 20
3.437598836301114
 30
0.0
 11
3.321765168359338
 21
4.461514985191313
 31
0.0
  0
LINE
  5
115BE
330
115B8
100
AcDbEntity
  8
0
  6
CONTINUOUS
100
AcDbLine
 10
2.569246555539591
 20
3.03547716329138
 30
0.0
 11
3.593163397972743
 21
4.059394005724531
 31
0.0
  0
LINE
  5
115BF
330
115B8
100
AcDbEntity
  8
0
  6
CONTINUOUS
100
AcDbLine
 10
2.840644091610043
 20
2.633355490281646
 30
0.0
 11
3.864561627586149
 21
3.657273026257751
 31
0.0
  0
LINE
  5
115C0
330
115B8
100
AcDbEntity
  8
0
  6
CONTINUOUS
100
AcDbLine
 10
3.112041627680496
 20
2.231233817271911
 30
0.0
 11
4.135959857199554
 21
3.25515204679097
 31
0.0
  0
LINE
  5
115C1
330
115B8
100
AcDbEntity
  8
0
  6
CONTINUOUS
100
AcDbLine
 10
3.383439163750948
 20
1.829112144262177
 30
0.0
 11
4.40735808681296
 21
2.853031067324189
 31
0.0
  0
LINE
  5
115C2
330
115B8
100
AcDbEntity
  8
0
  6
CONTINUOUS
100
AcDbLine
 10
3.654836699821399
 20
1.426990471252442
 30
0.0
 11
4.678756316426365
 21
2.450910087857407
 31
0.0
  0
LINE
  5
115C3
330
115B8
100
AcDbEntity
  8
0
  6
CONTINUOUS
100
AcDbLine
 10
3.926234235891853
 20
1.024868798242709
 30
0.0
 11
4.95015454603977
 21
2.048789108390626
 31
0.0
  0
LINE
  5
115C4
330
115B8
100
AcDbEntity
  8
0
  6
CONTINUOUS
100
AcDbLine
 10
4.197631771962304
 20
0.6227471252329737
 30
0.0
 11
5.221552775653176
 21
1.646668128923846
 31
0.0
  0
LINE
  5
115C5
330
115B8
100
AcDbEntity
  8
0
  6
CONTINUOUS
100
AcDbLine
 10
8.715877546767851
 20
7.835069736359266
 30
0.0
 11
9.435953450375058
 21
8.555145639966472
 31
0.0
  0
LINE
  5
115C6
330
115B8
100
AcDbEntity
  8
0
  6
CONTINUOUS
100
AcDbLine
 10
8.170620868422267
 20
6.616293848933497
 30
0.0
 11
9.644120833743461
 21
8.08979381425469
 31
0.0
  0
LINE
  5
115C7
330
115B8
100
AcDbEntity
  8
0
  6
CONTINUOUS
100
AcDbLine
 10
7.625364190076684
 20
5.397517961507727
 30
0.0
 11
9.852288217111864
 21
7.624441988542907
 31
0.0
  0
LINE
  5
115C8
330
115B8
100
AcDbEntity
  8
0
  6
CONTINUOUS
100
AcDbLine
 10
7.080107511731101
 20
4.178742074081957
 30
0.0
 11
10.06045560048027
 21
7.159090162831124
 31
0.0
  0
LINE
  5
115C9
330
115B8
100
AcDbEntity
  8
0
  6
CONTINUOUS
100
AcDbLine
 10
6.534850833385518
 20
2.959966186656187
 30
0.0
 11
10.26862298384867
 21
6.693738337119342
 31
0.0
  0
LINE
  5
115CA
330
115B8
100
AcDbEntity
  8
0
  6
CONTINUOUS
100
AcDbLine
 10
4.469029308032756
 20
0.2206254522232385
 30
0.0
 11
5.492951005266582
 21
1.244547149457064
 31
0.0
  0
LINE
  5
115CB
330
115B8
100
AcDbEntity
  8
0
  6
CONTINUOUS
100
AcDbLine
 10
5.989594155039935
 20
1.741190299230417
 30
0.0
 11
8.806950407233131
 21
4.558546551423613
 31
0.0
  0
LINE
  5
115CC
330
115B8
100
AcDbEntity
  8
0
  6
CONTINUOUS
100
AcDbLine
 10
9.401251593263643
 20
5.152847737454126
 30
0.0
 11
10.47679036721708
 21
6.228386511407559
 31
0.0
  0
LINE
  5
115CD
330
115B8
100
AcDbEntity
  8
0
  6
CONTINUOUS
100
AcDbLine
 10
4.921837203428691
 20
-0.0000858614610131
 30
0.0
 11
8.592923064886001
 21
3.670999999996297
 31
0.0
  0
LINE
  5
115CE
330
115B8
100
AcDbEntity
  8
0
  6
CONTINUOUS
100
AcDbLine
 10
9.609390446785305
 20
4.6874673818956
 30
0.0
 11
10.68495775058548
 21
5.763034685695775
 31
0.0
  0
LINE
  5
115CF
330
115B8
100
AcDbEntity
  8
0
  6
CONTINUOUS
100
AcDbLine
 10
5.595387755019432
 20
-0.0000545189504582
 30
0.0
 11
7.716137258923768
 21
2.120694984953879
 31
0.0
  0
LINE
  5
115D0
330
115B8
100
AcDbEntity
  8
0
  6
CONTINUOUS
100
AcDbLine
 10
6.268938306610172
 20
-0.000023176439905
 30
0.0
 11
7.170485805526503
 21
0.9015243224764267
 31
0.0
  0
LINE
  5
115D1
330
115B8
100
AcDbEntity
  8
0
  6
CONTINUOUS
100
AcDbLine
 10
7.963842273967511
 20
2.368399999997621
 30
0.0
 11
9.266442273966188
 21
3.670999999996297
 31
0.0
  0
LINE
  5
115D2
330
115B8
100
AcDbEntity
  8
0
  6
CONTINUOUS
100
AcDbLine
 10
8.637361483047696
 20
2.368399999997621
 30
0.0
 11
9.939961483046375
 21
3.670999999996297
 31
0.0
  0
LINE
  5
115D3
330
115B8
100
AcDbEntity
  8
0
  6
CONTINUOUS
100
AcDbLine
 10
9.817529300306965
 20
4.222087026337075
 30
0.0
 11
10.89312513395388
 21
5.297682859983993
 31
0.0
  0
LINE
  5
115D4
330
115B8
100
AcDbEntity
  8
0
  6
CONTINUOUS
100
AcDbLine
 10
10.02566815382863
 20
3.756706670778549
 30
0.0
 11
11.10129251732229
 21
4.832331034272211
 31
0.0
  0
LINE
  5
115D5
330
115B8
100
AcDbEntity
  8
0
  6
CONTINUOUS
100
AcDbLine
 10
9.310880692127883
 20
2.368399999997621
 30
0.0
 11
11.30945990069069
 21
4.366979208560428
 31
0.0
  0
LINE
  5
115D6
330
115B8
100
AcDbEntity
  8
0
  6
CONTINUOUS
100
AcDbLine
 10
9.98439990120807
 20
2.36839999999762
 30
0.0
 11
11.5176272840591
 21
3.901627382848645
 31
0.0
  0
LINE
  5
115D7
330
115B8
100
AcDbEntity
  8
0
  6
CONTINUOUS
100
AcDbLine
 10
10.65037369446246
 20
2.36085458417182
 30
0.0
 11
11.7257946674275
 21
3.436275557136862
 31
0.0
  0
LINE
  5
115D8
330
115B8
100
AcDbEntity
  8
0
  6
CONTINUOUS
100
AcDbLine
 10
10.85847197087848
 20
1.895433651507656
 30
0.0
 11
11.9339620507959
 21
2.97092373142508
 31
0.0
  0
LINE
  5
115D9
330
115B8
100
AcDbEntity
  8
0
  6
CONTINUOUS
100
AcDbLine
 10
11.0665702472945
 20
1.430012718843491
 30
0.0
 11
12.14212943416431
 21
2.505571905713296
 31
0.0
  0
LINE
  5
115DA
330
115B8
100
AcDbEntity
  8
0
  6
CONTINUOUS
100
AcDbLine
 10
11.27466852371052
 20
0.9645917861793256
 30
0.0
 11
12.35029681753271
 21
2.040220080001513
 31
0.0
  0
LINE
  5
115DB
330
115B8
100
AcDbEntity
  8
0
  6
CONTINUOUS
100
AcDbLine
 10
11.48276680012654
 20
0.4991708535151611
 30
0.0
 11
12.55846420090111
 21
1.57486825428973
 31
0.0
  0
LINE
  5
115DC
330
115B8
100
AcDbEntity
  8
0
  6
CONTINUOUS
100
AcDbLine
 10
11.69086507654257
 20
0.0337499208509957
 30
0.0
 11
12.76663158426952
 21
1.109516428577947
 31
0.0
  0
LINE
  5
115DD
330
115B8
100
AcDbEntity
  8
0
  6
CONTINUOUS
100
AcDbLine
 10
12.33057447873954
 20
-0.0000598860322123
 30
0.0
 11
12.97479896763792
 21
0.6441646028661663
 31
0.0
  0
LINE
  5
115DE
330
115B8
100
AcDbEntity
  8
0
  6
CONTINUOUS
100
AcDbLine
 10
13.00413694809395
 20
-0.0000166257579952
 30
0.0
 11
13.18296635100632
 21
0.1788127771543824
 31
0.0
  0
LINE
  5
115DF
330
115B8
100
AcDbEntity
  8
0
  6
CONTINUOUS
100
AcDbLine
 10
4.772852165289667
 20
-0.000092794222212
 30
0.0
 11
4.296495091028902
 21
0.4762642800385528
 31
0.0
  0
LINE
  5
115E0
330
115B8
100
AcDbEntity
  8
0
  6
CONTINUOUS
100
AcDbLine
 10
5.446340034776103
 20
-0.0000614546284616
 30
0.0
 11
2.898195908335625
 21
2.548082671812017
 31
0.0
  0
LINE
  5
115E1
330
115B8
100
AcDbEntity
  8
0
  6
CONTINUOUS
100
AcDbLine
 10
6.119827904262539
 20
-0.0000301150347113
 30
0.0
 11
1.499896725642348
 21
4.61990106358548
 31
0.0
  0
LINE
  5
115E2
330
115B8
100
AcDbEntity
  8
0
  6
CONTINUOUS
100
AcDbLine
 10
6.775136745476159
 20
0.0181802528318542
 30
0.0
 11
5.699826040202669
 21
1.093490958105344
 31
0.0
  0
LINE
  5
115E3
330
115B8
100
AcDbEntity
  8
0
  6
CONTINUOUS
100
AcDbLine
 10
6.983376846288489
 20
0.4834593610997118
 30
0.0
 11
5.908008617934405
 21
1.558827589453796
 31
0.0
  0
LINE
  5
115E4
330
115B8
100
AcDbEntity
  8
0
  6
CONTINUOUS
100
AcDbLine
 10
5.377063484962296
 20
1.416253513345719
 30
0.0
 11
1.702276957014131
 21
5.091040041293883
 31
0.0
  0
LINE
  5
115E5
330
115B8
100
AcDbEntity
  8
0
  6
CONTINUOUS
100
AcDbLine
 10
3.978745891735324
 20
3.488090315652877
 30
0.0
 11
2.000373521109399
 21
5.466462686278803
 31
0.0
  0
LINE
  5
115E6
330
115B8
100
AcDbEntity
  8
0
  6
CONTINUOUS
100
AcDbLine
 10
7.191616947100819
 20
0.948738469367568
 30
0.0
 11
6.11619119566614
 21
2.024164220802247
 31
0.0
  0
LINE
  5
115E7
330
115B8
100
AcDbEntity
  8
0
  6
CONTINUOUS
100
AcDbLine
 10
7.399857047913149
 20
1.414017577635424
 30
0.0
 11
6.324373773397875
 21
2.489500852150698
 31
0.0
  0
LINE
  5
115E8
330
115B8
100
AcDbEntity
  8
0
  6
CONTINUOUS
100
AcDbLine
 10
7.608097148725479
 20
1.879296685903281
 30
0.0
 11
6.53255635112961
 21
2.95483748349915
 31
0.0
  0
LINE
  5
115E9
330
115B8
100
AcDbEntity
  8
0
  6
CONTINUOUS
100
AcDbLine
 10
7.816337249537808
 20
2.344575794171138
 30
0.0
 11
6.740738928861345
 21
3.420174114847601
 31
0.0
  0
LINE
  5
115EA
330
115B8
100
AcDbEntity
  8
0
  6
CONTINUOUS
100
AcDbLine
 10
3.310241080789734
 20
4.830114335678653
 30
0.0
 11
2.298470085204666
 21
5.84188533126372
 31
0.0
  0
LINE
  5
115EB
330
115B8
100
AcDbEntity
  8
0
  6
CONTINUOUS
100
AcDbLine
 10
3.60832983563551
 20
5.205544789913063
 30
0.0
 11
2.596566649299935
 21
6.217307976248638
 31
0.0
  0
LINE
  5
115EC
330
115B8
100
AcDbEntity
  8
0
  6
CONTINUOUS
100
AcDbLine
 10
3.906418590481286
 20
5.580975244147473
 30
0.0
 11
2.894663213395203
 21
6.592730621233557
 31
0.0
  0
LINE
  5
115ED
330
115B8
100
AcDbEntity
  8
0
  6
CONTINUOUS
100
AcDbLine
 10
4.204507345327062
 20
5.956405698381884
 30
0.0
 11
3.192759777490472
 21
6.968153266218474
 31
0.0
  0
LINE
  5
115EE
330
115B8
100
AcDbEntity
  8
0
  6
CONTINUOUS
100
AcDbLine
 10
8.466032252791512
 20
2.368399999997621
 30
0.0
 11
6.948921506593081
 21
3.885510746196053
 31
0.0
  0
LINE
  5
115EF
330
115B8
100
AcDbEntity
  8
0
  6
CONTINUOUS
100
AcDbLine
 10
9.139551461871699
 20
2.36839999999762
 30
0.0
 11
7.157104084324816
 21
4.350847377544504
 31
0.0
  0
LINE
  5
115F0
330
115B8
100
AcDbEntity
  8
0
  6
CONTINUOUS
100
AcDbLine
 10
4.502596100172839
 20
6.331836152616295
 30
0.0
 11
3.49085634158574
 21
7.343575911203393
 31
0.0
  0
LINE
  5
115F1
330
115B8
100
AcDbEntity
  8
0
  6
CONTINUOUS
100
AcDbLine
 10
4.800684855018615
 20
6.707266606850705
 30
0.0
 11
3.788952905681008
 21
7.718998556188312
 31
0.0
  0
LINE
  5
115F2
330
115B8
100
AcDbEntity
  8
0
  6
CONTINUOUS
100
AcDbLine
 10
12.18154012887317
 20
-0.0000694579236642
 30
0.0
 11
11.32140332908496
 21
0.8600673418645499
 31
0.0
  0
LINE
  5
115F3
330
115B8
100
AcDbEntity
  8
0
  6
CONTINUOUS
100
AcDbLine
 10
12.85501608323566
 20
-0.0000262032059659
 30
0.0
 11
10.77672456435345
 21
2.078265315676246
 31
0.0
  0
LINE
  5
115F4
330
115B8
100
AcDbEntity
  8
0
  6
CONTINUOUS
100
AcDbLine
 10
9.813070670951886
 20
2.36839999999762
 30
0.0
 11
8.51047067095321
 21
3.670999999996297
 31
0.0
  0
LINE
  5
115F5
330
115B8
100
AcDbEntity
  8
0
  6
CONTINUOUS
100
AcDbLine
 10
10.48658988003207
 20
2.36839999999762
 30
0.0
 11
9.183989880033396
 21
3.670999999996297
 31
0.0
  0
LINE
  5
115F6
330
115B8
100
AcDbEntity
  8
0
  6
CONTINUOUS
100
AcDbLine
 10
8.441048632286794
 20
3.740422038662712
 30
0.0
 11
7.365286662056551
 21
4.816184008892956
 31
0.0
  0
LINE
  5
115F7
330
115B8
100
AcDbEntity
  8
0
  6
CONTINUOUS
100
AcDbLine
 10
8.649187485808454
 20
4.205802394221237
 30
0.0
 11
7.573469239788285
 21
5.281520640241407
 31
0.0
  0
LINE
  5
115F8
330
115B8
100
AcDbEntity
  8
0
  6
CONTINUOUS
100
AcDbLine
 10
5.098773609864391
 20
7.082697061085115
 30
0.0
 11
4.087049469776277
 21
8.09442120117323
 31
0.0
  0
LINE
  5
115F9
330
115B8
100
AcDbEntity
  8
0
  6
CONTINUOUS
100
AcDbLine
 10
5.396862364710167
 20
7.458127515319526
 30
0.0
 11
4.385146033871544
 21
8.469843846158149
 31
0.0
  0
LINE
  5
115FA
330
115B8
100
AcDbEntity
  8
0
  6
CONTINUOUS
100
AcDbLine
 10
13.04801363231285
 20
0.4804954567970334
 30
0.0
 11
9.85750908911358
 21
3.670999999996297
 31
0.0
  0
LINE
  5
115FB
330
115B8
100
AcDbEntity
  8
0
  6
CONTINUOUS
100
AcDbLine
 10
8.857326339330116
 20
4.671182749779763
 30
0.0
 11
7.781651817520021
 21
5.746857271589858
 31
0.0
  0
LINE
  5
115FC
330
115B8
100
AcDbEntity
  8
0
  6
CONTINUOUS
100
AcDbLine
 10
5.694951119555943
 20
7.833557969553937
 30
0.0
 11
4.765409089118624
 21
8.763099999991255
 31
0.0
  0
LINE
  5
115FD
330
115B8
100
AcDbEntity
  8
0
  6
CONTINUOUS
100
AcDbLine
 10
12.50286117236978
 20
1.699167125820288
 30
0.0
 11
9.68611877250287
 21
4.515909525687196
 31
0.0
  0
LINE
  5
115FE
330
115B8
100
AcDbEntity
  8
0
  6
CONTINUOUS
100
AcDbLine
 10
9.065465192851777
 20
5.136563105338288
 30
0.0
 11
7.989834395251757
 21
6.21219390293831
 31
0.0
  0
LINE
  5
115FF
330
115B8
100
AcDbEntity
  8
0
  6
CONTINUOUS
100
AcDbLine
 10
5.993039874401719
 20
8.208988423788346
 30
0.0
 11
5.43892829819881
 21
8.763099999991255
 31
0.0
  0
LINE
  5
11600
330
115B8
100
AcDbEntity
  8
0
  6
CONTINUOUS
100
AcDbLine
 10
11.95770871242671
 20
2.917838794843543
 30
0.0
 11
8.19801697298349
 21
6.677530534286761
 31
0.0
  0
LINE
  5
11601
330
115B8
100
AcDbEntity
  8
0
  6
CONTINUOUS
100
AcDbLine
 10
6.291128629247495
 20
8.584418878022756
 30
0.0
 11
6.112447507278997
 21
8.763099999991255
 31
0.0
  0
LINE
  5
11602
330
115B8
100
AcDbEntity
  8
0
  6
CONTINUOUS
100
AcDbLine
 10
11.41255625248364
 20
4.136510463866797
 30
0.0
 11
8.406199550715227
 21
7.142867165635211
 31
0.0
  0
LINE
  5
11603
330
115B8
100
AcDbEntity
  8
0
  6
CONTINUOUS
100
AcDbLine
 10
10.86740379254057
 20
5.355182132890051
 30
0.0
 11
8.614382128446962
 21
7.608203796983664
 31
0.0
  0
LINE
  5
11604
330
115B8
100
AcDbEntity
  8
0
  6
CONTINUOUS
100
AcDbLine
 10
10.3222513325975
 20
6.573853801913305
 30
0.0
 11
8.822564706178696
 21
8.073540428332114
 31
0.0
  0
LINE
  5
11605
330
115B8
100
AcDbEntity
  8
0
  6
CONTINUOUS
100
AcDbLine
 10
9.777098872654436
 20
7.792525470936562
 30
0.0
 11
9.030747283910433
 21
8.538877059680566
 31
0.0
  0
ENDBLK
  5
11747
330
115B8
100
AcDbEntity
  8
0
100
AcDbBlockEnd
  0
BLOCK
  5
11748
330
11606
100
AcDbEntity
  8
0
100
AcDbBlockBegin
  2
*X87
 70
     1
 10
0.0
 20
0.0
 30
0.0
  3
*X87
  1

  0
LINE
  5
11607
330
11606
100
AcDbEntity
  8
0
  6
CONTINUOUS
100
AcDbLine
 10
10.67292308101235
 20
8.445076852443387
 30
0.0
 11
10.99094622856022
 21
8.763099999991255
 31
0.0
  0
LINE
  5
11608
330
11606
100
AcDbEntity
  8
0
  6
CONTINUOUS
100
AcDbLine
 10
10.87250383178748
 20
7.971138394138331
 30
0.0
 11
11.6644654376404
 21
8.763099999991255
 31
0.0
  0
LINE
  5
11609
330
11606
100
AcDbEntity
  8
0
  6
CONTINUOUS
100
AcDbLine
 10
11.07208458256261
 20
7.497199935833273
 30
0.0
 11
12.12126590876355
 21
8.546381262034211
 31
0.0
  0
LINE
  5
1160A
330
11606
100
AcDbEntity
  8
0
  6
CONTINUOUS
100
AcDbLine
 10
11.27166533333774
 20
7.023261477528216
 30
0.0
 11
12.32085164573666
 21
8.072447789927136
 31
0.0
  0
LINE
  5
1160B
330
11606
100
AcDbEntity
  8
0
  6
CONTINUOUS
100
AcDbLine
 10
11.47124608411287
 20
6.549323019223158
 30
0.0
 11
12.52043738270977
 21
7.59851431782006
 31
0.0
  0
LINE
  5
1160C
330
11606
100
AcDbEntity
  8
0
  6
CONTINUOUS
100
AcDbLine
 10
11.670826834888
 20
6.075384560918101
 30
0.0
 11
12.72002311968288
 21
7.124580845712984
 31
0.0
  0
LINE
  5
1160D
330
11606
100
AcDbEntity
  8
0
  6
CONTINUOUS
100
AcDbLine
 10
11.87040758566313
 20
5.601446102613043
 30
0.0
 11
12.91960885665599
 21
6.650647373605907
 31
0.0
  0
LINE
  5
1160E
330
11606
100
AcDbEntity
  8
0
  6
CONTINUOUS
100
AcDbLine
 10
12.06998833643825
 20
5.127507644307986
 30
0.0
 11
13.1191945936291
 21
6.176713901498832
 31
0.0
  0
LINE
  5
1160F
330
11606
100
AcDbEntity
  8
0
  6
CONTINUOUS
100
AcDbLine
 10
12.26956908721338
 20
4.65356918600293
 30
0.0
 11
13.31878033060221
 21
5.702780429391757
 31
0.0
  0
LINE
  5
11610
330
11606
100
AcDbEntity
  8
0
  6
CONTINUOUS
100
AcDbLine
 10
12.46914983798851
 20
4.179630727697873
 30
0.0
 11
13.51836606757532
 21
5.228846957284683
 31
0.0
  0
LINE
  5
11611
330
11606
100
AcDbEntity
  8
0
  6
CONTINUOUS
100
AcDbLine
 10
12.66873058876364
 20
3.705692269392816
 30
0.0
 11
13.71795180454843
 21
4.754913485177607
 31
0.0
  0
LINE
  5
11612
330
11606
100
AcDbEntity
  8
0
  6
CONTINUOUS
100
AcDbLine
 10
12.86831133953877
 20
3.231753811087759
 30
0.0
 11
13.91753754152154
 21
4.280980013070531
 31
0.0
  0
LINE
  5
11613
330
11606
100
AcDbEntity
  8
0
  6
CONTINUOUS
100
AcDbLine
 10
13.0678920903139
 20
2.757815352782702
 30
0.0
 11
14.11712327849465
 21
3.807046540963456
 31
0.0
  0
LINE
  5
11614
330
11606
100
AcDbEntity
  8
0
  6
CONTINUOUS
100
AcDbLine
 10
13.26747284108903
 20
2.283876894477644
 30
0.0
 11
14.31670901546777
 21
3.333113068856379
 31
0.0
  0
LINE
  5
11615
330
11606
100
AcDbEntity
  8
0
  6
CONTINUOUS
100
AcDbLine
 10
16.36767838827179
 20
8.751678487061342
 30
0.0
 11
16.50332410898388
 21
8.887324207773432
 31
0.0
  0
LINE
  5
11616
330
11606
100
AcDbEntity
  8
0
  6
CONTINUOUS
100
AcDbLine
 10
15.96190732182191
 20
7.67238821153127
 30
0.0
 11
16.68735328004734
 21
8.397834169756699
 31
0.0
  0
LINE
  5
11617
330
11606
100
AcDbEntity
  8
0
  6
CONTINUOUS
100
AcDbLine
 10
15.55613625537202
 20
6.593097936001196
 30
0.0
 11
16.87138245111079
 21
7.908344131739965
 31
0.0
  0
LINE
  5
11618
330
11606
100
AcDbEntity
  8
0
  6
CONTINUOUS
100
AcDbLine
 10
15.15036518892213
 20
5.513807660471122
 30
0.0
 11
17.05541162217424
 21
7.418854093723231
 31
0.0
  0
LINE
  5
11619
330
11606
100
AcDbEntity
  8
0
  6
CONTINUOUS
100
AcDbLine
 10
14.74459412247225
 20
4.434517384941048
 30
0.0
 11
17.2394407932377
 21
6.929364055706499
 31
0.0
  0
LINE
  5
1161A
330
11606
100
AcDbEntity
  8
0
  6
CONTINUOUS
100
AcDbLine
 10
14.33882305602236
 20
3.355227109410975
 30
0.0
 11
17.42346996430115
 21
6.439874017689766
 31
0.0
  0
LINE
  5
1161B
330
11606
100
AcDbEntity
  8
0
  6
CONTINUOUS
100
AcDbLine
 10
13.46705359186416
 20
1.809938436172586
 30
0.0
 11
16.0819338255367
 21
4.424818669845129
 31
0.0
  0
LINE
  5
1161C
330
11606
100
AcDbEntity
  8
0
  6
CONTINUOUS
100
AcDbLine
 10
16.63283254238972
 20
4.975717386698149
 30
0.0
 11
17.60749913536461
 21
5.950383979673033
 31
0.0
  0
LINE
  5
1161D
330
11606
100
AcDbEntity
  8
0
  6
CONTINUOUS
100
AcDbLine
 10
13.66663434263929
 20
1.335999977867529
 30
0.0
 11
15.67604797733754
 21
3.345413612565779
 31
0.0
  0
LINE
  5
1161E
330
11606
100
AcDbEntity
  8
0
  6
CONTINUOUS
100
AcDbLine
 10
13.86621509341442
 20
0.8620615195624723
 30
0.0
 11
15.27016212913838
 21
2.26600855528643
 31
0.0
  0
LINE
  5
1161F
330
11606
100
AcDbEntity
  8
0
  6
CONTINUOUS
100
AcDbLine
 10
16.81682257348267
 20
4.486188208710908
 30
0.0
 11
17.79152830642806
 21
5.460893941656299
 31
0.0
  0
LINE
  5
11620
330
11606
100
AcDbEntity
  8
0
  6
CONTINUOUS
100
AcDbLine
 10
17.00081260457561
 20
3.996659030723667
 30
0.0
 11
17.97555747749151
 21
4.971403903639565
 31
0.0
  0
LINE
  5
11621
330
11606
100
AcDbEntity
  8
0
  6
CONTINUOUS
100
AcDbLine
 10
20.74362343514722
 20
8.412989070375462
 30
0.0
 11
21.09373436476302
 21
8.763099999991256
 31
0.0
  0
LINE
  5
11622
330
11606
100
AcDbEntity
  8
0
  6
CONTINUOUS
100
AcDbLine
 10
20.25401257174777
 20
7.249858997895826
 30
0.0
 11
21.7672535738432
 21
8.763099999991255
 31
0.0
  0
LINE
  5
11623
330
11606
100
AcDbEntity
  8
0
  6
CONTINUOUS
100
AcDbLine
 10
14.06579584418955
 20
0.3881230612574149
 30
0.0
 11
14.86427628093921
 21
1.186603498007082
 31
0.0
  0
LINE
  5
11624
330
11606
100
AcDbEntity
  8
0
  6
CONTINUOUS
100
AcDbLine
 10
14.26537659496467
 20
-0.0858153970476412
 30
0.0
 11
14.45839043274005
 21
0.1071984407277329
 31
0.0
  0
LINE
  5
11625
330
11606
100
AcDbEntity
  8
0
  6
CONTINUOUS
100
AcDbLine
 10
17.18480263566856
 20
3.507129852736426
 30
0.0
 11
18.15958664855496
 21
4.481913865622833
 31
0.0
  0
LINE
  5
11626
330
11606
100
AcDbEntity
  8
0
  6
CONTINUOUS
100
AcDbLine
 10
17.3687926667615
 20
3.017600674749186
 30
0.0
 11
18.34361581961842
 21
3.9924238276061
 31
0.0
  0
LINE
  5
11627
330
11606
100
AcDbEntity
  8
0
  6
CONTINUOUS
100
AcDbLine
 10
19.76440170834832
 20
6.086728925416191
 30
0.0
 11
22.33924590259489
 21
8.661573119662755
 31
0.0
  0
LINE
  5
11628
330
11606
100
AcDbEntity
  8
0
  6
CONTINUOUS
100
AcDbLine
 10
19.27479084494887
 20
4.923598852936555
 30
0.0
 11
21.84929622842713
 21
7.498104236414807
 31
0.0
  0
LINE
  5
11629
330
11606
100
AcDbEntity
  8
0
  6
CONTINUOUS
100
AcDbLine
 10
17.55278269785445
 20
2.528071496761945
 30
0.0
 11
18.52764499068187
 21
3.502933789589366
 31
0.0
  0
LINE
  5
1162A
330
11606
100
AcDbEntity
  8
0
  6
CONTINUOUS
100
AcDbLine
 10
18.78517998154942
 20
3.760468780456919
 30
0.0
 11
21.35934655425936
 21
6.33463535316686
 31
0.0
  0
LINE
  5
1162B
330
11606
100
AcDbEntity
  8
0
  6
CONTINUOUS
100
AcDbLine
 10
17.73677272894739
 20
2.038542318774704
 30
0.0
 11
20.8693968800916
 21
5.171166469918914
 31
0.0
  0
LINE
  5
1162C
330
11606
100
AcDbEntity
  8
0
  6
CONTINUOUS
100
AcDbLine
 10
17.92076276004034
 20
1.549013140787464
 30
0.0
 11
20.37944720592384
 21
4.007697586670968
 31
0.0
  0
LINE
  5
1162D
330
11606
100
AcDbEntity
  8
0
  6
CONTINUOUS
100
AcDbLine
 10
18.10475279113329
 20
1.059483962800223
 30
0.0
 11
19.88949753175608
 21
2.84422870342302
 31
0.0
  0
LINE
  5
1162E
330
11606
100
AcDbEntity
  8
0
  6
CONTINUOUS
100
AcDbLine
 10
18.28874282222623
 20
0.5699547848129822
 30
0.0
 11
19.39954785758832
 21
1.680759820175074
 31
0.0
  0
LINE
  5
1162F
330
11606
100
AcDbEntity
  8
0
  6
CONTINUOUS
100
AcDbLine
 10
18.47273285331918
 20
0.0804256068257416
 30
0.0
 11
18.90959818342056
 21
0.517290936927127
 31
0.0
  0
LINE
  5
11630
330
11606
100
AcDbEntity
  8
0
  6
CONTINUOUS
100
AcDbLine
 10
14.3590401358224
 20
-0.1570118376323384
 30
0.0
 11
14.24903296539946
 21
-0.0470046672093929
 31
0.0
  0
LINE
  5
11631
330
11606
100
AcDbEntity
  8
0
  6
CONTINUOUS
100
AcDbLine
 10
14.54309291258661
 20
0.332454594683643
 30
0.0
 11
13.75908329123172
 21
1.116464216038529
 31
0.0
  0
LINE
  5
11632
330
11606
100
AcDbEntity
  8
0
  6
CONTINUOUS
100
AcDbLine
 10
14.72714568935081
 20
0.8219210269996244
 30
0.0
 11
13.26913361706399
 21
2.27993309928645
 31
0.0
  0
LINE
  5
11633
330
11606
100
AcDbEntity
  8
0
  6
CONTINUOUS
100
AcDbLine
 10
14.91119846611502
 20
1.311387459315606
 30
0.0
 11
12.77918394289625
 21
3.443401982534371
 31
0.0
  0
LINE
  5
11634
330
11606
100
AcDbEntity
  8
0
  6
CONTINUOUS
100
AcDbLine
 10
15.09525124287922
 20
1.800853891631587
 30
0.0
 11
12.28923426872852
 21
4.606870865782293
 31
0.0
  0
LINE
  5
11635
330
11606
100
AcDbEntity
  8
0
  6
CONTINUOUS
100
AcDbLine
 10
15.27930401964343
 20
2.290320323947569
 30
0.0
 11
11.79928459456078
 21
5.770339749030213
 31
0.0
  0
LINE
  5
11636
330
11606
100
AcDbEntity
  8
0
  6
CONTINUOUS
100
AcDbLine
 10
15.46335679640763
 20
2.77978675626355
 30
0.0
 11
14.48885470994921
 21
3.754288842721972
 31
0.0
  0
LINE
  5
11637
330
11606
100
AcDbEntity
  8
0
  6
CONTINUOUS
100
AcDbLine
 10
13.88507249233704
 20
4.358071060334137
 30
0.0
 11
11.30933492039305
 21
6.933808632278135
 31
0.0
  0
LINE
  5
11638
330
11606
100
AcDbEntity
  8
0
  6
CONTINUOUS
100
AcDbLine
 10
18.75840522805855
 20
0.1582575336928151
 30
0.0
 11
18.25383727664818
 21
0.6628254851031863
 31
0.0
  0
LINE
  5
11639
330
11606
100
AcDbEntity
  8
0
  6
CONTINUOUS
100
AcDbLine
 10
15.64740957317184
 20
3.269253188579531
 30
0.0
 11
14.67288388101266
 21
4.243778880738705
 31
0.0
  0
LINE
  5
1163A
330
11606
100
AcDbEntity
  8
0
  6
CONTINUOUS
100
AcDbLine
 10
13.39509276772158
 20
5.521569994029786
 30
0.0
 11
10.81938524622531
 21
8.097277515526056
 31
0.0
  0
LINE
  5
1163B
330
11606
100
AcDbEntity
  8
0
  6
CONTINUOUS
100
AcDbLine
 10
18.95798597883369
 20
0.6321959919978686
 30
0.0
 11
17.84825644852853
 21
1.741925522303024
 31
0.0
  0
LINE
  5
1163C
330
11606
100
AcDbEntity
  8
0
  6
CONTINUOUS
100
AcDbLine
 10
19.15756672960882
 20
1.106134450302922
 30
0.0
 11
17.44267562040888
 21
2.821025559502861
 31
0.0
  0
LINE
  5
1163D
330
11606
100
AcDbEntity
  8
0
  6
CONTINUOUS
100
AcDbLine
 10
15.83146234993604
 20
3.758719620895513
 30
0.0
 11
14.85691305207612
 21
4.733268918755439
 31
0.0
  0
LINE
  5
1163E
330
11606
100
AcDbEntity
  8
0
  6
CONTINUOUS
100
AcDbLine
 10
16.01551512670025
 20
4.248186053211494
 30
0.0
 11
15.04094222313957
 21
5.222758956772172
 31
0.0
  0
LINE
  5
1163F
330
11606
100
AcDbEntity
  8
0
  6
CONTINUOUS
100
AcDbLine
 10
12.90511304310612
 20
6.685068927725435
 30
0.0
 11
10.8270819708403
 21
8.763099999991255
 31
0.0
  0
LINE
  5
11640
330
11606
100
AcDbEntity
  8
0
  6
CONTINUOUS
100
AcDbLine
 10
12.41513331849066
 20
7.848567861421083
 30
0.0
 11
11.50060117992049
 21
8.763099999991255
 31
0.0
  0
LINE
  5
11641
330
11606
100
AcDbEntity
  8
0
  6
CONTINUOUS
100
AcDbLine
 10
19.35714748038395
 20
1.580072908607975
 30
0.0
 11
17.03709479228923
 21
3.900125596702697
 31
0.0
  0
LINE
  5
11642
330
11606
100
AcDbEntity
  8
0
  6
CONTINUOUS
100
AcDbLine
 10
19.55672823115909
 20
2.054011366913028
 30
0.0
 11
16.63151396416958
 21
4.979225633902534
 31
0.0
  0
LINE
  5
11643
330
11606
100
AcDbEntity
  8
0
  6
CONTINUOUS
100
AcDbLine
 10
16.19956790346445
 20
4.737652485527476
 30
0.0
 11
15.22497139420302
 21
5.712248994788904
 31
0.0
  0
LINE
  5
11644
330
11606
100
AcDbEntity
  8
0
  6
CONTINUOUS
100
AcDbLine
 10
16.38362068022866
 20
5.227118917843457
 30
0.0
 11
15.40900056526648
 21
6.201739032805637
 31
0.0
  0
LINE
  5
11645
330
11606
100
AcDbEntity
  8
0
  6
CONTINUOUS
100
AcDbLine
 10
19.75630898193422
 20
2.527949825218081
 30
0.0
 11
18.70774536448286
 21
3.576513442669441
 31
0.0
  0
LINE
  5
11646
330
11606
100
AcDbEntity
  8
0
  6
CONTINUOUS
100
AcDbLine
 10
19.95588973270936
 20
3.001888283523134
 30
0.0
 11
18.90726987211446
 21
4.050508144118028
 31
0.0
  0
LINE
  5
11647
330
11606
100
AcDbEntity
  8
0
  6
CONTINUOUS
100
AcDbLine
 10
20.15547048348449
 20
3.475826741828186
 30
0.0
 11
19.10679437974606
 21
4.524502845566614
 31
0.0
  0
LINE
  5
11648
330
11606
100
AcDbEntity
  8
0
  6
CONTINUOUS
100
AcDbLine
 10
20.35505123425962
 20
3.94976520013324
 30
0.0
 11
19.30631888737766
 21
4.998497547015201
 31
0.0
  0
LINE
  5
11649
330
11606
100
AcDbEntity
  8
0
  6
CONTINUOUS
100
AcDbLine
 10
20.55463198503475
 20
4.423703658438292
 30
0.0
 11
19.50584339500926
 21
5.472492248463787
 31
0.0
  0
LINE
  5
1164A
330
11606
100
AcDbEntity
  8
0
  6
CONTINUOUS
100
AcDbLine
 10
18.37481191085755
 20
3.909446896294752
 30
0.0
 11
15.59302973632993
 21
6.691229070822371
 31
0.0
  0
LINE
  5
1164B
330
11606
100
AcDbEntity
  8
0
  6
CONTINUOUS
100
AcDbLine
 10
17.96904084440766
 20
4.988737171824825
 30
0.0
 11
15.77705890739338
 21
7.180719108839104
 31
0.0
  0
LINE
  5
1164C
330
11606
100
AcDbEntity
  8
0
  6
CONTINUOUS
100
AcDbLine
 10
17.56326977795777
 20
6.068027447354899
 30
0.0
 11
15.96108807845684
 21
7.670209146855838
 31
0.0
  0
LINE
  5
1164D
330
11606
100
AcDbEntity
  8
0
  6
CONTINUOUS
100
AcDbLine
 10
17.15749871150789
 20
7.147317722884972
 30
0.0
 11
16.14511724952029
 21
8.15969918487257
 31
0.0
  0
LINE
  5
1164E
330
11606
100
AcDbEntity
  8
0
  6
CONTINUOUS
100
AcDbLine
 10
16.751727645058
 20
8.226607998415046
 30
0.0
 11
16.32914642058374
 21
8.649189222889303
 31
0.0
  0
LINE
  5
1164F
330
11606
100
AcDbEntity
  8
0
  6
CONTINUOUS
100
AcDbLine
 10
20.75421273580989
 20
4.897642116743345
 30
0.0
 11
19.70536790264086
 21
5.946486949912374
 31
0.0
  0
LINE
  5
11650
330
11606
100
AcDbEntity
  8
0
  6
CONTINUOUS
100
AcDbLine
 10
20.95379348658502
 20
5.371580575048398
 30
0.0
 11
19.90489241027246
 21
6.42048165136096
 31
0.0
  0
LINE
  5
11651
330
11606
100
AcDbEntity
  8
0
  6
CONTINUOUS
100
AcDbLine
 10
21.15337423736015
 20
5.845519033353452
 30
0.0
 11
20.10441691790406
 21
6.894476352809547
 31
0.0
  0
LINE
  5
11652
330
11606
100
AcDbEntity
  8
0
  6
CONTINUOUS
100
AcDbLine
 10
21.35295498813529
 20
6.319457491658505
 30
0.0
 11
20.30394142553566
 21
7.368471054258134
 31
0.0
  0
LINE
  5
11653
330
11606
100
AcDbEntity
  8
0
  6
CONTINUOUS
100
AcDbLine
 10
21.55253573891042
 20
6.793395949963558
 30
0.0
 11
20.50346593316726
 21
7.842465755706721
 31
0.0
  0
LINE
  5
11654
330
11606
100
AcDbEntity
  8
0
  6
CONTINUOUS
100
AcDbLine
 10
21.75211648968556
 20
7.267334408268612
 30
0.0
 11
20.70299044079886
 21
8.316460457155308
 31
0.0
  0
LINE
  5
11655
330
11606
100
AcDbEntity
  8
0
  6
CONTINUOUS
100
AcDbLine
 10
21.95169724046069
 20
7.741272866573663
 30
0.0
 11
20.9298701070431
 21
8.763099999991256
 31
0.0
  0
LINE
  5
11656
330
11606
100
AcDbEntity
  8
0
  6
CONTINUOUS
100
AcDbLine
 10
22.15127799123582
 20
8.215211324878716
 30
0.0
 11
21.60338931612328
 21
8.763099999991256
 31
0.0
  0
LINE
  5
11657
330
11606
100
AcDbEntity
  8
0
  6
CONTINUOUS
100
AcDbLine
 10
22.35085874201096
 20
8.689149783183769
 30
0.0
 11
22.27690852520347
 21
8.763099999991255
 31
0.0
  0
ENDBLK
  5
11749
330
11606
100
AcDbEntity
  8
0
100
AcDbBlockEnd
  0
BLOCK
  5
1174A
330
11658
100
AcDbEntity
  8
0
100
AcDbBlockBegin
  2
*X88
 70
     1
 10
0.0
 20
0.0
 30
0.0
  3
*X88
  1

  0
LINE
  5
11659
330
11658
100
AcDbEntity
  8
0
  6
CONTINUOUS
100
AcDbLine
 10
23.19462913593892
 20
8.169917934846424
 30
0.0
 11
23.70775465517246
 21
8.683043454079957
 31
0.0
  0
LINE
  5
1165A
330
11658
100
AcDbEntity
  8
0
  6
CONTINUOUS
100
AcDbLine
 10
22.64923161835078
 20
6.951001208178088
 30
0.0
 11
23.9159364069932
 21
8.217705996820516
 31
0.0
  0
LINE
  5
1165B
330
11658
100
AcDbEntity
  8
0
  6
CONTINUOUS
100
AcDbLine
 10
22.10383410076263
 20
5.732084481509751
 30
0.0
 11
24.12411815881395
 21
7.752368539561078
 31
0.0
  0
LINE
  5
1165C
330
11658
100
AcDbEntity
  8
0
  6
CONTINUOUS
100
AcDbLine
 10
21.55843658317447
 20
4.513167754841414
 30
0.0
 11
24.3322999106347
 21
7.287031082301639
 31
0.0
  0
LINE
  5
1165D
330
11658
100
AcDbEntity
  8
0
  6
CONTINUOUS
100
AcDbLine
 10
21.01303906558632
 20
3.294251028173077
 30
0.0
 11
24.54048166245544
 21
6.821693625042199
 31
0.0
  0
LINE
  5
1165E
330
11658
100
AcDbEntity
  8
0
  6
CONTINUOUS
100
AcDbLine
 10
20.46764154799817
 20
2.075334301504738
 30
0.0
 11
23.28571549467848
 21
4.89340824818505
 31
0.0
  0
LINE
  5
1165F
330
11658
100
AcDbEntity
  8
0
  6
CONTINUOUS
100
AcDbLine
 10
19.92224403041002
 20
0.8564175748364002
 30
0.0
 11
22.74075865492779
 21
3.674932199354171
 31
0.0
  0
LINE
  5
11660
330
11658
100
AcDbEntity
  8
0
  6
CONTINUOUS
100
AcDbLine
 10
23.67305085490148
 20
5.280743608408048
 30
0.0
 11
24.74866341427619
 21
6.356356167782759
 31
0.0
  0
LINE
  5
11661
330
11658
100
AcDbEntity
  8
0
  6
CONTINUOUS
100
AcDbLine
 10
23.88118970842314
 20
4.815363252849522
 30
0.0
 11
24.95684516609694
 21
5.89101871052332
 31
0.0
  0
LINE
  5
11662
330
11658
100
AcDbEntity
  8
0
  6
CONTINUOUS
100
AcDbLine
 10
19.73925852647308
 20
-0.0000871381807288
 30
0.0
 11
23.4103456646501
 21
3.670999999996297
 31
0.0
  0
LINE
  5
11663
330
11658
100
AcDbEntity
  8
0
  6
CONTINUOUS
100
AcDbLine
 10
24.0893285619448
 20
4.349982897290997
 30
0.0
 11
25.16502691791769
 21
5.42568125326388
 31
0.0
  0
LINE
  5
11664
330
11658
100
AcDbEntity
  8
0
  6
CONTINUOUS
100
AcDbLine
 10
20.41282099582748
 20
-0.0000438779065108
 30
0.0
 11
21.64944178675636
 21
1.236576913022366
 31
0.0
  0
LINE
  5
11665
330
11658
100
AcDbEntity
  8
0
  6
CONTINUOUS
100
AcDbLine
 10
22.78126487373161
 20
2.36839999999762
 30
0.0
 11
24.08386487373029
 21
3.670999999996297
 31
0.0
  0
LINE
  5
11666
330
11658
100
AcDbEntity
  8
0
  6
CONTINUOUS
100
AcDbLine
 10
24.29746741546646
 20
3.884602541732471
 30
0.0
 11
25.37320866973843
 21
4.960343796004441
 31
0.0
  0
LINE
  5
11667
330
11658
100
AcDbEntity
  8
0
  6
CONTINUOUS
100
AcDbLine
 10
21.08638346518189
 20
-0.0000006176322938
 30
0.0
 11
21.10379033335899
 21
0.0174062505448083
 31
0.0
  0
LINE
  5
11668
330
11658
100
AcDbEntity
  8
0
  6
CONTINUOUS
100
AcDbLine
 10
23.4547840828118
 20
2.36839999999762
 30
0.0
 11
25.58139042155918
 21
4.495006338745002
 31
0.0
  0
LINE
  5
11669
330
11658
100
AcDbEntity
  8
0
  6
CONTINUOUS
100
AcDbLine
 10
29.30199999996933
 20
8.215615917155148
 30
0.0
 11
29.84948408280543
 21
8.763099999991255
 31
0.0
  0
LINE
  5
1166A
330
11658
100
AcDbEntity
  8
0
  6
CONTINUOUS
100
AcDbLine
 10
24.12830329189199
 20
2.36839999999762
 30
0.0
 11
25.78957217337993
 21
4.029668881485562
 31
0.0
  0
LINE
  5
1166B
330
11658
100
AcDbEntity
  8
0
  6
CONTINUOUS
100
AcDbLine
 10
29.30199999996933
 20
7.54209670807496
 30
0.0
 11
30.52300329188562
 21
8.763099999991255
 31
0.0
  0
LINE
  5
1166C
330
11658
100
AcDbEntity
  8
0
  6
CONTINUOUS
100
AcDbLine
 10
24.80182250097217
 20
2.36839999999762
 30
0.0
 11
25.99775392520067
 21
3.564331424226122
 31
0.0
  0
LINE
  5
1166D
330
11658
100
AcDbEntity
  8
0
  6
CONTINUOUS
100
AcDbLine
 10
29.30199999996933
 20
6.868577498994774
 30
0.0
 11
30.74199999996926
 21
8.308577498994712
 31
0.0
  0
LINE
  5
1166E
330
11658
100
AcDbEntity
  8
0
  6
CONTINUOUS
100
AcDbLine
 10
25.13028238392013
 20
2.023340673865392
 30
0.0
 11
26.20593567702142
 21
3.098993966966683
 31
0.0
  0
LINE
  5
1166F
330
11658
100
AcDbEntity
  8
0
  6
CONTINUOUS
100
AcDbLine
 10
25.33838066033617
 20
1.557919741201244
 30
0.0
 11
26.41411742884217
 21
2.633656509707244
 31
0.0
  0
LINE
  5
11670
330
11658
100
AcDbEntity
  8
0
  6
CONTINUOUS
100
AcDbLine
 10
25.54647893675221
 20
1.092498808537098
 30
0.0
 11
26.62229918066291
 21
2.168319052447804
 31
0.0
  0
LINE
  5
11671
330
11658
100
AcDbEntity
  8
0
  6
CONTINUOUS
100
AcDbLine
 10
25.75457721316825
 20
0.62707787587295
 30
0.0
 11
26.83048093248366
 21
1.702981595188365
 31
0.0
  0
LINE
  5
11672
330
11658
100
AcDbEntity
  8
0
  6
CONTINUOUS
100
AcDbLine
 10
29.30199999996933
 20
6.195058289914587
 30
0.0
 11
30.74199999996926
 21
7.635058289914522
 31
0.0
  0
LINE
  5
11673
330
11658
100
AcDbEntity
  8
0
  6
CONTINUOUS
100
AcDbLine
 10
29.30199999996933
 20
5.521539080834401
 30
0.0
 11
30.74199999996926
 21
6.961539080834331
 31
0.0
  0
LINE
  5
11674
330
11658
100
AcDbEntity
  8
0
  6
CONTINUOUS
100
AcDbLine
 10
29.30199999996933
 20
4.848019871754214
 30
0.0
 11
30.74199999996925
 21
6.288019871754143
 31
0.0
  0
LINE
  5
11675
330
11658
100
AcDbEntity
  8
0
  6
CONTINUOUS
100
AcDbLine
 10
29.30199999996933
 20
4.174500662674028
 30
0.0
 11
30.74199999996925
 21
5.614500662673953
 31
0.0
  0
LINE
  5
11676
330
11658
100
AcDbEntity
  8
0
  6
CONTINUOUS
100
AcDbLine
 10
25.96267548958429
 20
0.1616569432088024
 30
0.0
 11
27.18411854636669
 21
1.383099999991207
 31
0.0
  0
LINE
  5
11677
330
11658
100
AcDbEntity
  8
0
  6
CONTINUOUS
100
AcDbLine
 10
29.30199999996933
 20
3.500981453593841
 30
0.0
 11
30.74199999996925
 21
4.940981453593762
 31
0.0
  0
LINE
  5
11678
330
11658
100
AcDbEntity
  8
0
  6
CONTINUOUS
100
AcDbLine
 10
26.50763775544691
 20
0.0330999999912356
 30
0.0
 11
27.85763775544689
 21
1.383099999991223
 31
0.0
  0
LINE
  5
11679
330
11658
100
AcDbEntity
  8
0
  6
CONTINUOUS
100
AcDbLine
 10
29.30199999996933
 20
2.827462244513656
 30
0.0
 11
30.74199999996925
 21
4.267462244513574
 31
0.0
  0
LINE
  5
1167A
330
11658
100
AcDbEntity
  8
0
  6
CONTINUOUS
100
AcDbLine
 10
27.18115696452709
 20
0.0330999999912356
 30
0.0
 11
28.55073879889363
 21
1.402681834357775
 31
0.0
  0
LINE
  5
1167B
330
11658
100
AcDbEntity
  8
0
  6
CONTINUOUS
100
AcDbLine
 10
29.28241816560272
 20
2.134361201066866
 30
0.0
 11
30.74199999996924
 21
3.593943035433383
 31
0.0
  0
LINE
  5
1167C
330
11658
100
AcDbEntity
  8
0
  6
CONTINUOUS
100
AcDbLine
 10
27.85467617360728
 20
0.0330999999912356
 30
0.0
 11
30.74199999996924
 21
2.920423826353195
 31
0.0
  0
LINE
  5
1167D
330
11658
100
AcDbEntity
  8
0
  6
CONTINUOUS
100
AcDbLine
 10
28.53897559587887
 20
0.0438802131826428
 30
0.0
 11
30.73121978677781
 21
2.236124404081585
 31
0.0
  0
LINE
  5
1167E
330
11658
100
AcDbEntity
  8
0
  6
CONTINUOUS
100
AcDbLine
 10
29.45140055588722
 20
0.2827859641107988
 30
0.0
 11
30.49231403584965
 21
1.323699444073236
 31
0.0
  0
LINE
  5
1167F
330
11658
100
AcDbEntity
  8
0
  6
CONTINUOUS
100
AcDbLine
 10
19.59027867740337
 20
-0.0000967065718083
 30
0.0
 11
19.55485265190471
 21
0.035329318926844
 31
0.0
  0
LINE
  5
11680
330
11658
100
AcDbEntity
  8
0
  6
CONTINUOUS
100
AcDbLine
 10
20.26375463176586
 20
-0.0000534518541091
 30
0.0
 11
19.76305575737534
 21
0.5006454225364014
 31
0.0
  0
LINE
  5
11681
330
11658
100
AcDbEntity
  8
0
  6
CONTINUOUS
100
AcDbLine
 10
20.93723058612834
 20
-0.0000101971364099
 30
0.0
 11
19.97125886284597
 21
0.965961526145958
 31
0.0
  0
LINE
  5
11682
330
11658
100
AcDbEntity
  8
0
  6
CONTINUOUS
100
AcDbLine
 10
21.25514828313686
 20
0.355591314935257
 30
0.0
 11
20.1794619683166
 21
1.431277629755512
 31
0.0
  0
LINE
  5
11683
330
11658
100
AcDbEntity
  8
0
  6
CONTINUOUS
100
AcDbLine
 10
21.46338838394921
 20
0.8208704232030986
 30
0.0
 11
20.38766507378723
 21
1.896593733365069
 31
0.0
  0
LINE
  5
11684
330
11658
100
AcDbEntity
  8
0
  6
CONTINUOUS
100
AcDbLine
 10
21.67162848476155
 20
1.28614953147094
 30
0.0
 11
20.59586817925786
 21
2.361909836974626
 31
0.0
  0
LINE
  5
11685
330
11658
100
AcDbEntity
  8
0
  6
CONTINUOUS
100
AcDbLine
 10
21.8798685855739
 20
1.751428639738782
 30
0.0
 11
20.80407128472849
 21
2.827225940584183
 31
0.0
  0
LINE
  5
11686
330
11658
100
AcDbEntity
  8
0
  6
CONTINUOUS
100
AcDbLine
 10
22.08810868638624
 20
2.216707748006623
 30
0.0
 11
21.01227439019912
 21
3.292542044193739
 31
0.0
  0
LINE
  5
11687
330
11658
100
AcDbEntity
  8
0
  6
CONTINUOUS
100
AcDbLine
 10
22.60993564347543
 20
2.36839999999762
 30
0.0
 11
21.22047749566975
 21
3.757858147803296
 31
0.0
  0
LINE
  5
11688
330
11658
100
AcDbEntity
  8
0
  6
CONTINUOUS
100
AcDbLine
 10
23.28345485255561
 20
2.36839999999762
 30
0.0
 11
21.42868060114038
 21
4.223174251412853
 31
0.0
  0
LINE
  5
11689
330
11658
100
AcDbEntity
  8
0
  6
CONTINUOUS
100
AcDbLine
 10
26.29227406164219
 20
0.0330999999912356
 30
0.0
 11
25.80009199592872
 21
0.5252820657046957
 31
0.0
  0
LINE
  5
1168A
330
11658
100
AcDbEntity
  8
0
  6
CONTINUOUS
100
AcDbLine
 10
23.9569740616358
 20
2.36839999999762
 30
0.0
 11
21.63688370661101
 21
4.688490355022409
 31
0.0
  0
LINE
  5
1168B
330
11658
100
AcDbEntity
  8
0
  6
CONTINUOUS
100
AcDbLine
 10
26.96579327072237
 20
0.0330999999912356
 30
0.0
 11
25.2554132311971
 21
1.743480039516508
 31
0.0
  0
LINE
  5
1168C
330
11658
100
AcDbEntity
  8
0
  6
CONTINUOUS
100
AcDbLine
 10
24.63049327071599
 20
2.36839999999762
 30
0.0
 11
23.32789327071731
 21
3.670999999996297
 31
0.0
  0
LINE
  5
1168D
330
11658
100
AcDbEntity
  8
0
  6
CONTINUOUS
100
AcDbLine
 10
22.92098674744635
 20
4.077906523267254
 30
0.0
 11
21.84508681208164
 21
5.153806458631966
 31
0.0
  0
LINE
  5
1168E
330
11658
100
AcDbEntity
  8
0
  6
CONTINUOUS
100
AcDbLine
 10
27.63931247980256
 20
0.0330999999912356
 30
0.0
 11
24.0014124797975
 21
3.670999999996297
 31
0.0
  0
LINE
  5
1168F
330
11658
100
AcDbEntity
  8
0
  6
CONTINUOUS
100
AcDbLine
 10
23.129125600968
 20
4.5432868788258
 30
0.0
 11
22.05328991755227
 21
5.619122562241522
 31
0.0
  0
LINE
  5
11690
330
11658
100
AcDbEntity
  8
0
  6
CONTINUOUS
100
AcDbLine
 10
28.31283168888275
 20
0.0330999999912356
 30
0.0
 11
24.16488385994816
 21
4.181047828925828
 31
0.0
  0
LINE
  5
11691
330
11658
100
AcDbEntity
  8
0
  6
CONTINUOUS
100
AcDbLine
 10
23.33726445448964
 20
5.008667234384345
 30
0.0
 11
22.2614930230229
 21
6.084438665851079
 31
0.0
  0
LINE
  5
11692
330
11658
100
AcDbEntity
  8
0
  6
CONTINUOUS
100
AcDbLine
 10
28.92085740005492
 20
0.0985934978992438
 30
0.0
 11
27.63635089796295
 21
1.383099999991217
 31
0.0
  0
LINE
  5
11693
330
11658
100
AcDbEntity
  8
0
  6
CONTINUOUS
100
AcDbLine
 10
26.43704649509776
 20
2.582404402856405
 30
0.0
 11
23.61992702019732
 21
5.399523877756844
 31
0.0
  0
LINE
  5
11694
330
11658
100
AcDbEntity
  8
0
  6
CONTINUOUS
100
AcDbLine
 10
23.54540330801128
 20
5.47404758994289
 30
0.0
 11
22.46969612849353
 21
6.549754769460635
 31
0.0
  0
LINE
  5
11695
330
11658
100
AcDbEntity
  8
0
  6
CONTINUOUS
100
AcDbLine
 10
29.42225615078443
 20
0.2707139562499279
 30
0.0
 11
28.30987010704312
 21
1.383099999991234
 31
0.0
  0
LINE
  5
11696
330
11658
100
AcDbEntity
  8
0
  6
CONTINUOUS
100
AcDbLine
 10
25.89179548232307
 20
3.801174624711282
 30
0.0
 11
22.67789923396416
 21
7.015070873070191
 31
0.0
  0
LINE
  5
11697
330
11658
100
AcDbEntity
  8
0
  6
CONTINUOUS
100
AcDbLine
 10
29.83624534690007
 20
0.5302439692144705
 30
0.0
 11
28.85811781497101
 21
1.508371501143527
 31
0.0
  0
LINE
  5
11698
330
11658
100
AcDbEntity
  8
0
  6
CONTINUOUS
100
AcDbLine
 10
25.34654446954838
 20
5.01994484656616
 30
0.0
 11
22.88610233943479
 21
7.480386976679748
 31
0.0
  0
LINE
  5
11699
330
11658
100
AcDbEntity
  8
0
  6
CONTINUOUS
100
AcDbLine
 10
30.17865975401872
 20
0.8613487711760022
 30
0.0
 11
29.18888744090175
 21
1.851121084292977
 31
0.0
  0
LINE
  5
1169A
330
11658
100
AcDbEntity
  8
0
  6
CONTINUOUS
100
AcDbLine
 10
24.80129345677369
 20
6.238715068421037
 30
0.0
 11
23.09430544490542
 21
7.945703080289305
 31
0.0
  0
LINE
  5
1169B
330
11658
100
AcDbEntity
  8
0
  6
CONTINUOUS
100
AcDbLine
 10
30.45496647202376
 20
1.258561262251155
 30
0.0
 11
29.30199999996933
 21
2.411527734305588
 31
0.0
  0
LINE
  5
1169C
330
11658
100
AcDbEntity
  8
0
  6
CONTINUOUS
100
AcDbLine
 10
24.256042443999
 20
7.457485290275915
 30
0.0
 11
23.30250855037605
 21
8.411019183898862
 31
0.0
  0
LINE
  5
1169D
330
11658
100
AcDbEntity
  8
0
  6
CONTINUOUS
100
AcDbLine
 10
30.64868582078271
 20
1.738361122572387
 30
0.0
 11
29.30199999996933
 21
3.085046943385775
 31
0.0
  0
LINE
  5
1169E
330
11658
100
AcDbEntity
  8
0
  6
CONTINUOUS
100
AcDbLine
 10
23.71079143122431
 20
8.676255512130794
 30
0.0
 11
23.51071165584668
 21
8.876335287508416
 31
0.0
  0
LINE
  5
1169F
330
11658
100
AcDbEntity
  8
0
  6
CONTINUOUS
100
AcDbLine
 10
30.73802122914428
 20
2.322544923291007
 30
0.0
 11
29.30199999996933
 21
3.758566152465961
 31
0.0
  0
LINE
  5
116A0
330
11658
100
AcDbEntity
  8
0
  6
CONTINUOUS
100
AcDbLine
 10
30.74199999996924
 20
2.992085361546236
 30
0.0
 11
29.30199999996933
 21
4.432085361546148
 31
0.0
  0
LINE
  5
116A1
330
11658
100
AcDbEntity
  8
0
  6
CONTINUOUS
100
AcDbLine
 10
30.74199999996924
 20
3.665604570626419
 30
0.0
 11
29.30199999996933
 21
5.105604570626333
 31
0.0
  0
LINE
  5
116A2
330
11658
100
AcDbEntity
  8
0
  6
CONTINUOUS
100
AcDbLine
 10
30.74199999996925
 20
4.339123779706602
 30
0.0
 11
29.30199999996933
 21
5.77912377970652
 31
0.0
  0
LINE
  5
116A3
330
11658
100
AcDbEntity
  8
0
  6
CONTINUOUS
100
AcDbLine
 10
30.74199999996925
 20
5.012642988786785
 30
0.0
 11
29.30199999996933
 21
6.452642988786707
 31
0.0
  0
LINE
  5
116A4
330
11658
100
AcDbEntity
  8
0
  6
CONTINUOUS
100
AcDbLine
 10
30.74199999996925
 20
5.68616219786697
 30
0.0
 11
29.30199999996933
 21
7.126162197866894
 31
0.0
  0
LINE
  5
116A5
330
11658
100
AcDbEntity
  8
0
  6
CONTINUOUS
100
AcDbLine
 10
30.74199999996925
 20
6.359681406947153
 30
0.0
 11
29.30199999996933
 21
7.799681406947081
 31
0.0
  0
LINE
  5
116A6
330
11658
100
AcDbEntity
  8
0
  6
CONTINUOUS
100
AcDbLine
 10
30.74199999996926
 20
7.033200616027337
 30
0.0
 11
29.30199999996933
 21
8.473200616027269
 31
0.0
  0
LINE
  5
116A7
330
11658
100
AcDbEntity
  8
0
  6
CONTINUOUS
100
AcDbLine
 10
30.74199999996926
 20
7.706719825107518
 30
0.0
 11
29.68561982508552
 21
8.763099999991255
 31
0.0
  0
LINE
  5
116A8
330
11658
100
AcDbEntity
  8
0
  6
CONTINUOUS
100
AcDbLine
 10
30.74199999996926
 20
8.380239034187703
 30
0.0
 11
30.35913903416571
 21
8.763099999991255
 31
0.0
  0
ENDBLK
  5
1174B
330
11658
100
AcDbEntity
  8
0
100
AcDbBlockEnd
  0
BLOCK
  5
1174C
330
116A9
100
AcDbEntity
  8
0
100
AcDbBlockBegin
  2
*X89
 70
     1
 10
0.0
 20
0.0
 30
0.0
  3
*X89
  1

  0
LINE
  5
116AA
330
116A9
100
AcDbEntity
  8
0
  6
CONTINUOUS
100
AcDbLine
 10
31.64199999996833
 20
8.535058289913598
 30
0.0
 11
31.87004171004599
 21
8.763099999991255
 31
0.0
  0
LINE
  5
116AB
330
116A9
100
AcDbEntity
  8
0
  6
CONTINUOUS
100
AcDbLine
 10
31.64199999996833
 20
7.861539080833412
 30
0.0
 11
32.54356091912618
 21
8.763099999991255
 31
0.0
  0
LINE
  5
116AC
330
116A9
100
AcDbEntity
  8
0
  6
CONTINUOUS
100
AcDbLine
 10
31.64199999996833
 20
7.188019871753226
 30
0.0
 11
33.08199999996839
 21
8.628019871753281
 31
0.0
  0
LINE
  5
116AD
330
116A9
100
AcDbEntity
  8
0
  6
CONTINUOUS
100
AcDbLine
 10
31.64199999996833
 20
6.51450066267304
 30
0.0
 11
33.08199999996839
 21
7.954500662673095
 31
0.0
  0
LINE
  5
116AE
330
116A9
100
AcDbEntity
  8
0
  6
CONTINUOUS
100
AcDbLine
 10
31.64199999996833
 20
5.840981453592853
 30
0.0
 11
33.08199999996839
 21
7.280981453592908
 31
0.0
  0
LINE
  5
116AF
330
116A9
100
AcDbEntity
  8
0
  6
CONTINUOUS
100
AcDbLine
 10
31.64199999996833
 20
5.167462244512667
 30
0.0
 11
33.08199999996839
 21
6.607462244512721
 31
0.0
  0
LINE
  5
116B0
330
116A9
100
AcDbEntity
  8
0
  6
CONTINUOUS
100
AcDbLine
 10
31.64199999996833
 20
4.493943035432481
 30
0.0
 11
33.08199999996839
 21
5.933943035432535
 31
0.0
  0
LINE
  5
116B1
330
116A9
100
AcDbEntity
  8
0
  6
CONTINUOUS
100
AcDbLine
 10
31.64199999996833
 20
3.820423826352293
 30
0.0
 11
33.08199999996839
 21
5.260423826352348
 31
0.0
  0
LINE
  5
116B2
330
116A9
100
AcDbEntity
  8
0
  6
CONTINUOUS
100
AcDbLine
 10
31.64199999996833
 20
3.146904617272106
 30
0.0
 11
33.08199999996839
 21
4.586904617272161
 31
0.0
  0
LINE
  5
116B3
330
116A9
100
AcDbEntity
  8
0
  6
CONTINUOUS
100
AcDbLine
 10
36.23199999996837
 20
8.410423826352325
 30
0.0
 11
36.5846761736073
 21
8.763099999991255
 31
0.0
  0
LINE
  5
116B4
330
116A9
100
AcDbEntity
  8
0
  6
CONTINUOUS
100
AcDbLine
 10
36.23199999996837
 20
7.73690461727214
 30
0.0
 11
37.25819538268748
 21
8.763099999991255
 31
0.0
  0
LINE
  5
116B5
330
116A9
100
AcDbEntity
  8
0
  6
CONTINUOUS
100
AcDbLine
 10
31.64257403601376
 20
2.473959444237348
 30
0.0
 11
33.08199999996839
 21
3.913385408191974
 31
0.0
  0
LINE
  5
116B6
330
116A9
100
AcDbEntity
  8
0
  6
CONTINUOUS
100
AcDbLine
 10
36.23199999996837
 20
7.063385408191953
 30
0.0
 11
37.67199999996831
 21
8.503385408191894
 31
0.0
  0
LINE
  5
116B7
330
116A9
100
AcDbEntity
  8
0
  6
CONTINUOUS
100
AcDbLine
 10
31.72013636841932
 20
1.87800256756272
 30
0.0
 11
33.08199999996839
 21
3.239866199111788
 31
0.0
  0
LINE
  5
116B8
330
116A9
100
AcDbEntity
  8
0
  6
CONTINUOUS
100
AcDbLine
 10
36.23199999996837
 20
6.389866199111767
 30
0.0
 11
37.67199999996831
 21
7.829866199111708
 31
0.0
  0
LINE
  5
116B9
330
116A9
100
AcDbEntity
  8
0
  6
CONTINUOUS
100
AcDbLine
 10
31.89042734314753
 20
1.374774333210744
 30
0.0
 11
33.08199999996839
 21
2.566346990031601
 31
0.0
  0
LINE
  5
116BA
330
116A9
100
AcDbEntity
  8
0
  6
CONTINUOUS
100
AcDbLine
 10
36.23199999996837
 20
5.71634699003158
 30
0.0
 11
37.67199999996831
 21
7.156346990031521
 31
0.0
  0
LINE
  5
116BB
330
116A9
100
AcDbEntity
  8
0
  6
CONTINUOUS
100
AcDbLine
 10
32.14210568064475
 20
0.952933461627778
 30
0.0
 11
33.18745552475986
 21
1.998283305742888
 31
0.0
  0
LINE
  5
116BC
330
116A9
100
AcDbEntity
  8
0
  6
CONTINUOUS
100
AcDbLine
 10
36.23199999996837
 20
5.042827780951393
 30
0.0
 11
37.67199999996831
 21
6.482827780951334
 31
0.0
  0
LINE
  5
116BD
330
116A9
100
AcDbEntity
  8
0
  6
CONTINUOUS
100
AcDbLine
 10
32.45820639400955
 20
0.5955149659123915
 30
0.0
 11
33.47242681921943
 21
1.60973539112227
 31
0.0
  0
LINE
  5
116BE
330
116A9
100
AcDbEntity
  8
0
  6
CONTINUOUS
100
AcDbLine
 10
36.23199999996837
 20
4.369308571871207
 30
0.0
 11
37.67199999996831
 21
5.809308571871147
 31
0.0
  0
LINE
  5
116BF
330
116A9
100
AcDbEntity
  8
0
  6
CONTINUOUS
100
AcDbLine
 10
32.83432456621412
 20
0.2981139290367771
 30
0.0
 11
33.89722476612215
 21
1.361014128944803
 31
0.0
  0
LINE
  5
116C0
330
116A9
100
AcDbEntity
  8
0
  6
CONTINUOUS
100
AcDbLine
 10
36.23199999996837
 20
3.69578936279102
 30
0.0
 11
37.67199999996831
 21
5.135789362790962
 31
0.0
  0
LINE
  5
116C1
330
116A9
100
AcDbEntity
  8
0
  6
CONTINUOUS
100
AcDbLine
 10
33.2711633111245
 20
0.0614334648669672
 30
0.0
 11
34.43247338014423
 21
1.222743533886696
 31
0.0
  0
LINE
  5
116C2
330
116A9
100
AcDbEntity
  8
0
  6
CONTINUOUS
100
AcDbLine
 10
36.23199999996837
 20
3.022270153710834
 30
0.0
 11
37.67199999996831
 21
4.462270153710775
 31
0.0
  0
LINE
  5
116C3
330
116A9
100
AcDbEntity
  8
0
  6
CONTINUOUS
100
AcDbLine
 10
33.76515245874577
 20
-0.1180965965919523
 30
0.0
 11
35.1587445516215
 21
1.27549549628378
 31
0.0
  0
LINE
  5
116C4
330
116A9
100
AcDbEntity
  8
0
  6
CONTINUOUS
100
AcDbLine
 10
36.21639478609585
 20
2.333145730758136
 30
0.0
 11
37.67199999996831
 21
3.788750944630588
 31
0.0
  0
LINE
  5
116C5
330
116A9
100
AcDbEntity
  8
0
  6
CONTINUOUS
100
AcDbLine
 10
34.34060583368432
 20
-0.2161624307335863
 30
0.0
 11
37.67199999996831
 21
3.115231735550401
 31
0.0
  0
LINE
  5
116C6
330
116A9
100
AcDbEntity
  8
0
  6
CONTINUOUS
100
AcDbLine
 10
35.01698193613905
 20
-0.2133055373590427
 30
0.0
 11
37.66876712070525
 21
2.438479647207154
 31
0.0
  0
LINE
  5
116C7
330
116A9
100
AcDbEntity
  8
0
  6
CONTINUOUS
100
AcDbLine
 10
35.90743367693304
 20
0.0036269943547609
 30
0.0
 11
37.51723902192366
 21
1.613432339345381
 31
0.0
  0
LINE
  5
116C8
330
116A9
100
AcDbEntity
  8
0
  6
CONTINUOUS
100
AcDbLine
 10
32.55309425579761
 20
0.5074718966376706
 30
0.0
 11
32.27784730925847
 21
0.7827188431768102
 31
0.0
  0
LINE
  5
116C9
330
116A9
100
AcDbEntity
  8
0
  6
CONTINUOUS
100
AcDbLine
 10
33.87496468909684
 20
-0.1408793275813673
 30
0.0
 11
31.67993083278052
 21
2.054154528734943
 31
0.0
  0
LINE
  5
116CA
330
116A9
100
AcDbEntity
  8
0
  6
CONTINUOUS
100
AcDbLine
 10
34.64362813207632
 20
-0.2360235614806649
 30
0.0
 11
31.64199999996833
 21
2.765604570627322
 31
0.0
  0
LINE
  5
116CB
330
116A9
100
AcDbEntity
  8
0
  6
CONTINUOUS
100
AcDbLine
 10
35.25801106796118
 20
-0.1768872882853429
 30
0.0
 11
31.64199999996833
 21
3.439123779707508
 31
0.0
  0
LINE
  5
116CC
330
116A9
100
AcDbEntity
  8
0
  6
CONTINUOUS
100
AcDbLine
 10
35.79065650332146
 20
-0.0360135145654361
 30
0.0
 11
34.54143210838231
 21
1.213210880373721
 31
0.0
  0
LINE
  5
116CD
330
116A9
100
AcDbEntity
  8
0
  6
CONTINUOUS
100
AcDbLine
 10
33.08199999996839
 20
2.67264298878764
 30
0.0
 11
31.64199999996833
 21
4.112642988787695
 31
0.0
  0
LINE
  5
116CE
330
116A9
100
AcDbEntity
  8
0
  6
CONTINUOUS
100
AcDbLine
 10
36.25975597779143
 20
0.1684062200447833
 30
0.0
 11
35.15395110240023
 21
1.274211095435983
 31
0.0
  0
LINE
  5
116CF
330
116A9
100
AcDbEntity
  8
0
  6
CONTINUOUS
100
AcDbLine
 10
33.08199999996839
 20
3.346162197867826
 30
0.0
 11
31.64199999996833
 21
4.786162197867881
 31
0.0
  0
LINE
  5
116D0
330
116A9
100
AcDbEntity
  8
0
  6
CONTINUOUS
100
AcDbLine
 10
36.67226329638774
 20
0.4294181105286579
 30
0.0
 11
35.63766478748767
 21
1.464016619428737
 31
0.0
  0
LINE
  5
116D1
330
116A9
100
AcDbEntity
  8
0
  6
CONTINUOUS
100
AcDbLine
 10
33.08199999996839
 20
4.019681406948012
 30
0.0
 11
31.64199999996833
 21
5.459681406948068
 31
0.0
  0
LINE
  5
116D2
330
116A9
100
AcDbEntity
  8
0
  6
CONTINUOUS
100
AcDbLine
 10
37.01677749710036
 20
0.7584231188962329
 30
0.0
 11
35.99563422741351
 21
1.779566388583076
 31
0.0
  0
LINE
  5
116D3
330
116A9
100
AcDbEntity
  8
0
  6
CONTINUOUS
100
AcDbLine
 10
33.08199999996839
 20
4.693200616028199
 30
0.0
 11
31.64199999996833
 21
6.133200616028255
 31
0.0
  0
LINE
  5
116D4
330
116A9
100
AcDbEntity
  8
0
  6
CONTINUOUS
100
AcDbLine
 10
37.29859977568887
 20
1.1501200493879
 30
0.0
 11
36.20680593341555
 21
2.241913891661226
 31
0.0
  0
LINE
  5
116D5
330
116A9
100
AcDbEntity
  8
0
  6
CONTINUOUS
100
AcDbLine
 10
33.08199999996839
 20
5.366719825108386
 30
0.0
 11
31.64199999996833
 21
6.80671982510844
 31
0.0
  0
LINE
  5
116D6
330
116A9
100
AcDbEntity
  8
0
  6
CONTINUOUS
100
AcDbLine
 10
37.5148623517228
 20
1.607376682434161
 30
0.0
 11
36.23199999996837
 21
2.890239034188594
 31
0.0
  0
LINE
  5
116D7
330
116A9
100
AcDbEntity
  8
0
  6
CONTINUOUS
100
AcDbLine
 10
33.08199999996839
 20
6.040239034188573
 30
0.0
 11
31.64199999996833
 21
7.480239034188627
 31
0.0
  0
LINE
  5
116D8
330
116A9
100
AcDbEntity
  8
0
  6
CONTINUOUS
100
AcDbLine
 10
37.64705163358367
 20
2.148706609653477
 30
0.0
 11
36.23199999996837
 21
3.56375824326878
 31
0.0
  0
LINE
  5
116D9
330
116A9
100
AcDbEntity
  8
0
  6
CONTINUOUS
100
AcDbLine
 10
33.08199999996839
 20
6.713758243268758
 30
0.0
 11
31.64199999996833
 21
8.153758243268815
 31
0.0
  0
LINE
  5
116DA
330
116A9
100
AcDbEntity
  8
0
  6
CONTINUOUS
100
AcDbLine
 10
37.67199999996831
 20
2.797277452349026
 30
0.0
 11
36.23199999996837
 21
4.237277452348967
 31
0.0
  0
LINE
  5
116DB
330
116A9
100
AcDbEntity
  8
0
  6
CONTINUOUS
100
AcDbLine
 10
37.67199999996831
 20
3.470796661429213
 30
0.0
 11
36.23199999996837
 21
4.910796661429154
 31
0.0
  0
LINE
  5
116DC
330
116A9
100
AcDbEntity
  8
0
  6
CONTINUOUS
100
AcDbLine
 10
37.67199999996831
 20
4.144315870509399
 30
0.0
 11
36.23199999996837
 21
5.58431587050934
 31
0.0
  0
LINE
  5
116DD
330
116A9
100
AcDbEntity
  8
0
  6
CONTINUOUS
100
AcDbLine
 10
33.08199999996839
 20
7.387277452348945
 30
0.0
 11
31.70617745232608
 21
8.763099999991255
 31
0.0
  0
LINE
  5
116DE
330
116A9
100
AcDbEntity
  8
0
  6
CONTINUOUS
100
AcDbLine
 10
33.08199999996839
 20
8.060796661429132
 30
0.0
 11
32.37969666140626
 21
8.763099999991255
 31
0.0
  0
LINE
  5
116DF
330
116A9
100
AcDbEntity
  8
0
  6
CONTINUOUS
100
AcDbLine
 10
33.08199999996839
 20
8.734315870509318
 30
0.0
 11
33.05321587048645
 21
8.763099999991255
 31
0.0
  0
LINE
  5
116E0
330
116A9
100
AcDbEntity
  8
0
  6
CONTINUOUS
100
AcDbLine
 10
37.67199999996831
 20
4.817835079589585
 30
0.0
 11
36.23199999996837
 21
6.257835079589526
 31
0.0
  0
LINE
  5
116E1
330
116A9
100
AcDbEntity
  8
0
  6
CONTINUOUS
100
AcDbLine
 10
37.67199999996831
 20
5.491354288669771
 30
0.0
 11
36.23199999996837
 21
6.931354288669713
 31
0.0
  0
LINE
  5
116E2
330
116A9
100
AcDbEntity
  8
0
  6
CONTINUOUS
100
AcDbLine
 10
37.67199999996831
 20
6.164873497749958
 30
0.0
 11
36.23199999996837
 21
7.6048734977499
 31
0.0
  0
LINE
  5
116E3
330
116A9
100
AcDbEntity
  8
0
  6
CONTINUOUS
100
AcDbLine
 10
37.67199999996831
 20
6.838392706830144
 30
0.0
 11
36.23199999996837
 21
8.278392706830086
 31
0.0
  0
LINE
  5
116E4
330
116A9
100
AcDbEntity
  8
0
  6
CONTINUOUS
100
AcDbLine
 10
37.67199999996831
 20
7.511911915910332
 30
0.0
 11
36.42081191588738
 21
8.763099999991255
 31
0.0
  0
LINE
  5
116E5
330
116A9
100
AcDbEntity
  8
0
  6
CONTINUOUS
100
AcDbLine
 10
37.67199999996831
 20
8.185431124990519
 30
0.0
 11
37.09433112496757
 21
8.763099999991255
 31
0.0
  0
ENDBLK
  5
1174D
330
116A9
100
AcDbEntity
  8
0
100
AcDbBlockEnd
  0
BLOCK
  5
1174E
330
116E6
100
AcDbEntity
  8
0
100
AcDbBlockBegin
  2
*X90
 70
     1
 10
0.0
 20
0.0
 30
0.0
  3
*X90
  1

  0
LINE
  5
116E7
330
116E6
100
AcDbEntity
  8
0
  6
CONTINUOUS
100
AcDbLine
 10
38.60499999996136
 20
8.762866199104765
 30
0.0
 11
38.71672554182345
 21
8.874591740966855
 31
0.0
  0
LINE
  5
116E8
330
116E6
100
AcDbEntity
  8
0
  6
CONTINUOUS
100
AcDbLine
 10
38.60499999996136
 20
8.089346990024577
 30
0.0
 11
39.03418785440363
 21
8.518534844466847
 31
0.0
  0
LINE
  5
116E9
330
116E6
100
AcDbEntity
  8
0
  6
CONTINUOUS
100
AcDbLine
 10
38.60499999996136
 20
7.41582778094439
 30
0.0
 11
39.35165016698382
 21
8.16247794796684
 31
0.0
  0
LINE
  5
116EA
330
116E6
100
AcDbEntity
  8
0
  6
CONTINUOUS
100
AcDbLine
 10
38.60499999996136
 20
6.742308571864204
 30
0.0
 11
39.66911247956399
 21
7.806421051466834
 31
0.0
  0
LINE
  5
116EB
330
116E6
100
AcDbEntity
  8
0
  6
CONTINUOUS
100
AcDbLine
 10
38.60499999996136
 20
6.068789362784018
 30
0.0
 11
39.98657479214418
 21
7.450364154966827
 31
0.0
  0
LINE
  5
116EC
330
116E6
100
AcDbEntity
  8
0
  6
CONTINUOUS
100
AcDbLine
 10
38.60499999996136
 20
5.395270153703832
 30
0.0
 11
40.30403710472435
 21
7.09430725846682
 31
0.0
  0
LINE
  5
116ED
330
116E6
100
AcDbEntity
  8
0
  6
CONTINUOUS
100
AcDbLine
 10
38.60499999996136
 20
4.721750944623645
 30
0.0
 11
40.62149941730453
 21
6.738250361966813
 31
0.0
  0
LINE
  5
116EE
330
116E6
100
AcDbEntity
  8
0
  6
CONTINUOUS
100
AcDbLine
 10
38.60499999996136
 20
4.048231735543458
 30
0.0
 11
40.93896172988471
 21
6.382193465466806
 31
0.0
  0
LINE
  5
116EF
330
116E6
100
AcDbEntity
  8
0
  6
CONTINUOUS
100
AcDbLine
 10
38.60499999996136
 20
3.374712526463272
 30
0.0
 11
40.02599999995994
 21
4.795712526461843
 31
0.0
  0
LINE
  5
116F0
330
116E6
100
AcDbEntity
  8
0
  6
CONTINUOUS
100
AcDbLine
 10
38.60499999996136
 20
2.701193317383085
 30
0.0
 11
40.02599999995994
 21
4.122193317381657
 31
0.0
  0
LINE
  5
116F1
330
116E6
100
AcDbEntity
  8
0
  6
CONTINUOUS
100
AcDbLine
 10
40.28339754687704
 20
5.053110073378947
 30
0.0
 11
41.25642404246489
 21
6.026136568966799
 31
0.0
  0
LINE
  5
116F2
330
116E6
100
AcDbEntity
  8
0
  6
CONTINUOUS
100
AcDbLine
 10
40.60085985945722
 20
4.697053176878939
 30
0.0
 11
41.57388635504507
 21
5.670079672466793
 31
0.0
  0
LINE
  5
116F3
330
116E6
100
AcDbEntity
  8
0
  6
CONTINUOUS
100
AcDbLine
 10
43.57899999995641
 20
8.348712526458318
 30
0.0
 11
43.99338747348935
 21
8.763099999991255
 31
0.0
  0
LINE
  5
116F4
330
116E6
100
AcDbEntity
  8
0
  6
CONTINUOUS
100
AcDbLine
 10
43.57899999995641
 20
7.675193317378131
 30
0.0
 11
44.66690668256953
 21
8.763099999991255
 31
0.0
  0
LINE
  5
116F5
330
116E6
100
AcDbEntity
  8
0
  6
CONTINUOUS
100
AcDbLine
 10
38.60499999996136
 20
2.027674108302898
 30
0.0
 11
40.02599999995994
 21
3.44867410830147
 31
0.0
  0
LINE
  5
116F6
330
116E6
100
AcDbEntity
  8
0
  6
CONTINUOUS
100
AcDbLine
 10
38.60499999996136
 20
1.354154899222712
 30
0.0
 11
40.02599999995994
 21
2.775154899221284
 31
0.0
  0
LINE
  5
116F7
330
116E6
100
AcDbEntity
  8
0
  6
CONTINUOUS
100
AcDbLine
 10
38.60499999996136
 20
0.6806356901425255
 30
0.0
 11
40.02599999995994
 21
2.101635690141098
 31
0.0
  0
LINE
  5
116F8
330
116E6
100
AcDbEntity
  8
0
  6
CONTINUOUS
100
AcDbLine
 10
38.60499999996136
 20
0.0071164810623383
 30
0.0
 11
40.02599999995994
 21
1.428116481060911
 31
0.0
  0
LINE
  5
116F9
330
116E6
100
AcDbEntity
  8
0
  6
CONTINUOUS
100
AcDbLine
 10
40.9183221720374
 20
4.340996280378933
 30
0.0
 11
41.89134866762525
 21
5.314022775966786
 31
0.0
  0
LINE
  5
116FA
330
116E6
100
AcDbEntity
  8
0
  6
CONTINUOUS
100
AcDbLine
 10
41.23578448461758
 20
3.984939383878926
 30
0.0
 11
42.20881098020543
 21
4.957965879466778
 31
0.0
  0
LINE
  5
116FB
330
116E6
100
AcDbEntity
  8
0
  6
CONTINUOUS
100
AcDbLine
 10
41.55324679719776
 20
3.628882487378919
 30
0.0
 11
42.52627329278561
 21
4.601908982966772
 31
0.0
  0
LINE
  5
116FC
330
116E6
100
AcDbEntity
  8
0
  6
CONTINUOUS
100
AcDbLine
 10
41.87070910977793
 20
3.272825590878912
 30
0.0
 11
42.84373560536579
 21
4.245852086466765
 31
0.0
  0
LINE
  5
116FD
330
116E6
100
AcDbEntity
  8
0
  6
CONTINUOUS
100
AcDbLine
 10
43.57899999995641
 20
7.001674108297943
 30
0.0
 11
44.99999999995498
 21
8.422674108296516
 31
0.0
  0
LINE
  5
116FE
330
116E6
100
AcDbEntity
  8
0
  6
CONTINUOUS
100
AcDbLine
 10
43.57899999995641
 20
6.328154899217758
 30
0.0
 11
44.99999999995498
 21
7.749154899216329
 31
0.0
  0
LINE
  5
116FF
330
116E6
100
AcDbEntity
  8
0
  6
CONTINUOUS
100
AcDbLine
 10
43.57899999995641
 20
5.654635690137571
 30
0.0
 11
44.99999999995498
 21
7.075635690136142
 31
0.0
  0
LINE
  5
11700
330
116E6
100
AcDbEntity
  8
0
  6
CONTINUOUS
100
AcDbLine
 10
43.57899999995641
 20
4.981116481057384
 30
0.0
 11
44.99999999995498
 21
6.402116481055955
 31
0.0
  0
LINE
  5
11701
330
116E6
100
AcDbEntity
  8
0
  6
CONTINUOUS
100
AcDbLine
 10
39.27140272797921
 20
-0.0000000000000009
 30
0.0
 11
40.02599999995994
 21
0.7545972719807246
 31
0.0
  0
LINE
  5
11702
330
116E6
100
AcDbEntity
  8
0
  6
CONTINUOUS
100
AcDbLine
 10
39.9449219370594
 20
-0.0000000000000009
 30
0.0
 11
40.02599999995994
 21
0.0810780629005379
 31
0.0
  0
LINE
  5
11703
330
116E6
100
AcDbEntity
  8
0
  6
CONTINUOUS
100
AcDbLine
 10
42.18817142235812
 20
2.916768694378905
 30
0.0
 11
43.16119791794597
 21
3.889795189966758
 31
0.0
  0
LINE
  5
11704
330
116E6
100
AcDbEntity
  8
0
  6
CONTINUOUS
100
AcDbLine
 10
42.50563373493829
 20
2.560711797878898
 30
0.0
 11
43.47866023052615
 21
3.533738293466751
 31
0.0
  0
LINE
  5
11705
330
116E6
100
AcDbEntity
  8
0
  6
CONTINUOUS
100
AcDbLine
 10
43.57899999995641
 20
4.307597271977198
 30
0.0
 11
44.99999999995498
 21
5.728597271975769
 31
0.0
  0
LINE
  5
11706
330
116E6
100
AcDbEntity
  8
0
  6
CONTINUOUS
100
AcDbLine
 10
43.57899999995641
 20
3.634078062897011
 30
0.0
 11
44.99999999995498
 21
5.055078062895582
 31
0.0
  0
LINE
  5
11707
330
116E6
100
AcDbEntity
  8
0
  6
CONTINUOUS
100
AcDbLine
 10
42.82309604751848
 20
2.204654901378891
 30
0.0
 11
44.99999999995498
 21
4.381558853815395
 31
0.0
  0
LINE
  5
11708
330
116E6
100
AcDbEntity
  8
0
  6
CONTINUOUS
100
AcDbLine
 10
43.14055836009865
 20
1.848598004878885
 30
0.0
 11
44.99999999995498
 21
3.70803964473521
 31
0.0
  0
LINE
  5
11709
330
116E6
100
AcDbEntity
  8
0
  6
CONTINUOUS
100
AcDbLine
 10
43.45802067267883
 20
1.492541108378878
 30
0.0
 11
44.99999999995498
 21
3.034520435655023
 31
0.0
  0
LINE
  5
1170A
330
116E6
100
AcDbEntity
  8
0
  6
CONTINUOUS
100
AcDbLine
 10
43.77548298525902
 20
1.136484211878871
 30
0.0
 11
44.99999999995498
 21
2.361001226574837
 31
0.0
  0
LINE
  5
1170B
330
116E6
100
AcDbEntity
  8
0
  6
CONTINUOUS
100
AcDbLine
 10
44.09294529783919
 20
0.7804273153788639
 30
0.0
 11
44.99999999995498
 21
1.687482017494649
 31
0.0
  0
LINE
  5
1170C
330
116E6
100
AcDbEntity
  8
0
  6
CONTINUOUS
100
AcDbLine
 10
44.41040761041938
 20
0.4243704188788566
 30
0.0
 11
44.99999999995498
 21
1.013962808414463
 31
0.0
  0
LINE
  5
1170D
330
116E6
100
AcDbEntity
  8
0
  6
CONTINUOUS
100
AcDbLine
 10
44.72786992299955
 20
0.0683135223788494
 30
0.0
 11
44.99999999995498
 21
0.340443599334276
 31
0.0
  0
LINE
  5
1170E
330
116E6
100
AcDbEntity
  8
0
  6
CONTINUOUS
100
AcDbLine
 10
39.12223903415696
 20
-0.0000000000000009
 30
0.0
 11
38.60499999996136
 21
0.5172390341955961
 31
0.0
  0
LINE
  5
1170F
330
116E6
100
AcDbEntity
  8
0
  6
CONTINUOUS
100
AcDbLine
 10
39.79575824323715
 20
-0.0000000000000009
 30
0.0
 11
38.60499999996136
 21
1.190758243275783
 31
0.0
  0
LINE
  5
11710
330
116E6
100
AcDbEntity
  8
0
  6
CONTINUOUS
100
AcDbLine
 10
40.02599999995994
 20
0.443277452357397
 30
0.0
 11
38.60499999996136
 21
1.864277452355969
 31
0.0
  0
LINE
  5
11711
330
116E6
100
AcDbEntity
  8
0
  6
CONTINUOUS
100
AcDbLine
 10
40.02599999995994
 20
1.116796661437583
 30
0.0
 11
38.60499999996136
 21
2.537796661436155
 31
0.0
  0
LINE
  5
11712
330
116E6
100
AcDbEntity
  8
0
  6
CONTINUOUS
100
AcDbLine
 10
40.02599999995994
 20
1.79031587051777
 30
0.0
 11
38.60499999996136
 21
3.211315870516341
 31
0.0
  0
LINE
  5
11713
330
116E6
100
AcDbEntity
  8
0
  6
CONTINUOUS
100
AcDbLine
 10
40.02599999995994
 20
2.463835079597956
 30
0.0
 11
38.60499999996136
 21
3.884835079596527
 31
0.0
  0
LINE
  5
11714
330
116E6
100
AcDbEntity
  8
0
  6
CONTINUOUS
100
AcDbLine
 10
40.02599999995994
 20
3.137354288678143
 30
0.0
 11
38.60499999996136
 21
4.558354288676714
 31
0.0
  0
LINE
  5
11715
330
116E6
100
AcDbEntity
  8
0
  6
CONTINUOUS
100
AcDbLine
 10
40.02599999995994
 20
3.810873497758329
 30
0.0
 11
38.60499999996136
 21
5.2318734977569
 31
0.0
  0
LINE
  5
11716
330
116E6
100
AcDbEntity
  8
0
  6
CONTINUOUS
100
AcDbLine
 10
40.02599999995994
 20
4.484392706838515
 30
0.0
 11
38.60499999996136
 21
5.905392706837086
 31
0.0
  0
LINE
  5
11717
330
116E6
100
AcDbEntity
  8
0
  6
CONTINUOUS
100
AcDbLine
 10
44.99999999995498
 20
0.183911915923658
 30
0.0
 11
41.53858364506288
 21
3.64532827081576
 31
0.0
  0
LINE
  5
11718
330
116E6
100
AcDbEntity
  8
0
  6
CONTINUOUS
100
AcDbLine
 10
40.02599999995994
 20
5.157911915918703
 30
0.0
 11
38.60499999996136
 21
6.578911915917274
 31
0.0
  0
LINE
  5
11719
330
116E6
100
AcDbEntity
  8
0
  6
CONTINUOUS
100
AcDbLine
 10
44.99999999995498
 20
0.8574311250038447
 30
0.0
 11
38.60499999996136
 21
7.25243112499746
 31
0.0
  0
LINE
  5
1171A
330
116E6
100
AcDbEntity
  8
0
  6
CONTINUOUS
100
AcDbLine
 10
44.99999999995498
 20
1.530950334084031
 30
0.0
 11
38.60499999996136
 21
7.925950334077647
 31
0.0
  0
LINE
  5
1171B
330
116E6
100
AcDbEntity
  8
0
  6
CONTINUOUS
100
AcDbLine
 10
44.99999999995498
 20
2.204469543164218
 30
0.0
 11
43.57899999995641
 21
3.625469543162789
 31
0.0
  0
LINE
  5
1171C
330
116E6
100
AcDbEntity
  8
0
  6
CONTINUOUS
100
AcDbLine
 10
41.89876730984767
 20
5.305702233271528
 30
0.0
 11
38.60499999996136
 21
8.599469543157834
 31
0.0
  0
LINE
  5
1171D
330
116E6
100
AcDbEntity
  8
0
  6
CONTINUOUS
100
AcDbLine
 10
44.99999999995498
 20
2.877988752244405
 30
0.0
 11
43.57899999995641
 21
4.298988752242975
 31
0.0
  0
LINE
  5
1171E
330
116E6
100
AcDbEntity
  8
0
  6
CONTINUOUS
100
AcDbLine
 10
44.99999999995498
 20
3.551507961324591
 30
0.0
 11
43.57899999995641
 21
4.972507961323163
 31
0.0
  0
LINE
  5
1171F
330
116E6
100
AcDbEntity
  8
0
  6
CONTINUOUS
100
AcDbLine
 10
44.99999999995498
 20
4.225027170404777
 30
0.0
 11
43.57899999995641
 21
5.646027170403348
 31
0.0
  0
LINE
  5
11720
330
116E6
100
AcDbEntity
  8
0
  6
CONTINUOUS
100
AcDbLine
 10
44.99999999995498
 20
4.898546379484964
 30
0.0
 11
43.57899999995641
 21
6.319546379483535
 31
0.0
  0
LINE
  5
11721
330
116E6
100
AcDbEntity
  8
0
  6
CONTINUOUS
100
AcDbLine
 10
44.99999999995498
 20
5.572065588565151
 30
0.0
 11
43.57899999995641
 21
6.993065588563722
 31
0.0
  0
LINE
  5
11722
330
116E6
100
AcDbEntity
  8
0
  6
CONTINUOUS
100
AcDbLine
 10
44.99999999995498
 20
6.245584797645336
 30
0.0
 11
43.57899999995641
 21
7.666584797643908
 31
0.0
  0
LINE
  5
11723
330
116E6
100
AcDbEntity
  8
0
  6
CONTINUOUS
100
AcDbLine
 10
44.99999999995498
 20
6.919104006725522
 30
0.0
 11
43.57899999995641
 21
8.340104006724093
 31
0.0
  0
LINE
  5
11724
330
116E6
100
AcDbEntity
  8
0
  6
CONTINUOUS
100
AcDbLine
 10
44.99999999995498
 20
7.592623215805709
 30
0.0
 11
43.82952321576943
 21
8.763099999991255
 31
0.0
  0
LINE
  5
11725
330
116E6
100
AcDbEntity
  8
0
  6
CONTINUOUS
100
AcDbLine
 10
44.99999999995498
 20
8.266142424885896
 30
0.0
 11
44.50304242484962
 21
8.763099999991255
 31
0.0
  0
ENDBLK
  5
1174F
330
116E6
100
AcDbEntity
  8
0
100
AcDbBlockEnd
  0
BLOCK
  5
11750
330
11726
100
AcDbEntity
  8
0
100
AcDbBlockBegin
  2
*X91
 70
     1
 10
0.0
 20
0.0
 30
0.0
  3
*X91
  1

  0
LINE
  5
11727
330
11726
100
AcDbEntity
  8
0
  6
CONTINUOUS
100
AcDbLine
 10
0.0
 20
8.548461116714023
 30
0.0
 11
0.2146388832772324
 21
8.763099999991255
 31
0.0
  0
LINE
  5
11728
330
11726
100
AcDbEntity
  8
0
  6
CONTINUOUS
100
AcDbLine
 10
-0.0000000000000002
 20
7.874941907633837
 30
0.0
 11
0.8881580923574184
 21
8.763099999991255
 31
0.0
  0
LINE
  5
11729
330
11726
100
AcDbEntity
  8
0
  6
CONTINUOUS
100
AcDbLine
 10
0.0
 20
7.20142269855365
 30
0.0
 11
1.420999999998572
 21
8.622422698552223
 31
0.0
  0
LINE
  5
1172A
330
11726
100
AcDbEntity
  8
0
  6
CONTINUOUS
100
AcDbLine
 10
-0.0000000000000001
 20
6.527903489473465
 30
0.0
 11
1.420999999998571
 21
7.948903489472036
 31
0.0
  0
LINE
  5
1172B
330
11726
100
AcDbEntity
  8
0
  6
CONTINUOUS
100
AcDbLine
 10
-0.0000000000000002
 20
5.854384280393278
 30
0.0
 11
1.420999999998571
 21
7.275384280391849
 31
0.0
  0
LINE
  5
1172C
330
11726
100
AcDbEntity
  8
0
  6
CONTINUOUS
100
AcDbLine
 10
-0.0000000000000002
 20
5.180865071313091
 30
0.0
 11
1.420999999998571
 21
6.601865071311663
 31
0.0
  0
LINE
  5
1172D
330
11726
100
AcDbEntity
  8
0
  6
CONTINUOUS
100
AcDbLine
 10
0.0
 20
4.507345862232905
 30
0.0
 11
1.420999999998571
 21
5.928345862231477
 31
0.0
  0
LINE
  5
1172E
330
11726
100
AcDbEntity
  8
0
  6
CONTINUOUS
100
AcDbLine
 10
-0.0000000000000003
 20
3.833826653152718
 30
0.0
 11
1.420999999998571
 21
5.25482665315129
 31
0.0
  0
LINE
  5
1172F
330
11726
100
AcDbEntity
  8
0
  6
CONTINUOUS
100
AcDbLine
 10
-0.0000000000000002
 20
3.160307444072532
 30
0.0
 11
1.420999999998571
 21
4.581307444071103
 31
0.0
  0
LINE
  5
11730
330
11726
100
AcDbEntity
  8
0
  6
CONTINUOUS
100
AcDbLine
 10
-0.0000000000000001
 20
2.486788234992345
 30
0.0
 11
1.420999999998571
 21
3.907788234990917
 31
0.0
  0
LINE
  5
11731
330
11726
100
AcDbEntity
  8
0
  6
CONTINUOUS
100
AcDbLine
 10
-0.0000000000000006
 20
1.813269025912159
 30
0.0
 11
1.420999999998571
 21
3.234269025910731
 31
0.0
  0
LINE
  5
11732
330
11726
100
AcDbEntity
  8
0
  6
CONTINUOUS
100
AcDbLine
 10
0.0
 20
1.139749816831973
 30
0.0
 11
1.420999999998571
 21
2.560749816830544
 31
0.0
  0
LINE
  5
11733
330
11726
100
AcDbEntity
  8
0
  6
CONTINUOUS
100
AcDbLine
 10
0.0000000000000002
 20
0.466230607751787
 30
0.0
 11
1.420999999998571
 21
1.887230607750358
 31
0.0
  0
LINE
  5
11734
330
11726
100
AcDbEntity
  8
0
  6
CONTINUOUS
100
AcDbLine
 10
0.2072886013284003
 20
-0.0000000000000009
 30
0.0
 11
1.420999999998571
 21
1.213711398670171
 31
0.0
  0
LINE
  5
11735
330
11726
100
AcDbEntity
  8
0
  6
CONTINUOUS
100
AcDbLine
 10
0.8808078104085864
 20
-0.0000000000000009
 30
0.0
 11
1.420999999998571
 21
0.5401921895899839
 31
0.0
  0
LINE
  5
11736
330
11726
100
AcDbEntity
  8
0
  6
CONTINUOUS
100
AcDbLine
 10
0.0581249075061505
 20
-0.0000000000000009
 30
0.0
 11
-0.0000000000000002
 21
0.0581249075061496
 31
0.0
  0
LINE
  5
11737
330
11726
100
AcDbEntity
  8
0
  6
CONTINUOUS
100
AcDbLine
 10
0.7316441165863372
 20
-0.0000000000000009
 30
0.0
 11
-0.0000000000000002
 21
0.7316441165863363
 31
0.0
  0
LINE
  5
11738
330
11726
100
AcDbEntity
  8
0
  6
CONTINUOUS
100
AcDbLine
 10
1.405163325666523
 20
-0.0000000000000009
 30
0.0
 11
-0.0000000000000002
 21
1.405163325666523
 31
0.0
  0
LINE
  5
11739
330
11726
100
AcDbEntity
  8
0
  6
CONTINUOUS
100
AcDbLine
 10
1.420999999998572
 20
0.6576825347481381
 30
0.0
 11
-0.0000000000000001
 21
2.07868253474671
 31
0.0
  0
LINE
  5
1173A
330
11726
100
AcDbEntity
  8
0
  6
CONTINUOUS
100
AcDbLine
 10
1.420999999998571
 20
1.331201743828324
 30
0.0
 11
-0.0000000000000001
 21
2.752201743826896
 31
0.0
  0
LINE
  5
1173B
330
11726
100
AcDbEntity
  8
0
  6
CONTINUOUS
100
AcDbLine
 10
1.420999999998571
 20
2.004720952908511
 30
0.0
 11
-0.0000000000000002
 21
3.425720952907082
 31
0.0
  0
LINE
  5
1173C
330
11726
100
AcDbEntity
  8
0
  6
CONTINUOUS
100
AcDbLine
 10
1.420999999998571
 20
2.678240161988697
 30
0.0
 11
-0.0000000000000001
 21
4.099240161987269
 31
0.0
  0
LINE
  5
1173D
330
11726
100
AcDbEntity
  8
0
  6
CONTINUOUS
100
AcDbLine
 10
1.420999999998572
 20
3.351759371068884
 30
0.0
 11
0.0
 21
4.772759371067455
 31
0.0
  0
LINE
  5
1173E
330
11726
100
AcDbEntity
  8
0
  6
CONTINUOUS
100
AcDbLine
 10
1.420999999998571
 20
4.02527858014907
 30
0.0
 11
-0.0000000000000003
 21
5.446278580147642
 31
0.0
  0
LINE
  5
1173F
330
11726
100
AcDbEntity
  8
0
  6
CONTINUOUS
100
AcDbLine
 10
1.420999999998571
 20
4.698797789229257
 30
0.0
 11
0.0
 21
6.119797789227828
 31
0.0
  0
LINE
  5
11740
330
11726
100
AcDbEntity
  8
0
  6
CONTINUOUS
100
AcDbLine
 10
1.420999999998571
 20
5.372316998309444
 30
0.0
 11
-0.0000000000000001
 21
6.793316998308015
 31
0.0
  0
LINE
  5
11741
330
11726
100
AcDbEntity
  8
0
  6
CONTINUOUS
100
AcDbLine
 10
1.420999999998572
 20
6.045836207389629
 30
0.0
 11
-0.0000000000000004
 21
7.466836207388202
 31
0.0
  0
LINE
  5
11742
330
11726
100
AcDbEntity
  8
0
  6
CONTINUOUS
100
AcDbLine
 10
1.420999999998571
 20
6.719355416469816
 30
0.0
 11
0.0
 21
8.140355416468388
 31
0.0
  0
LINE
  5
11743
330
11726
100
AcDbEntity
  8
0
  6
CONTINUOUS
100
AcDbLine
 10
1.420999999998571
 20
7.392874625550003
 30
0.0
 11
0.0507746255573185
 21
8.763099999991255
 31
0.0
  0
LINE
  5
11744
330
11726
100
AcDbEntity
  8
0
  6
CONTINUOUS
100
AcDbLine
 10
1.420999999998571
 20
8.06639383463019
 30
0.0
 11
0.7242938346375052
 21
8.763099999991255
 31
0.0
  0
LINE
  5
11745
330
11726
100
AcDbEntity
  8
0
  6
CONTINUOUS
100
AcDbLine
 10
1.420999999998571
 20
8.739913043710375
 30
0.0
 11
1.397813043717691
 21
8.763099999991255
 31
0.0
  0
ENDBLK
  5
11751
330
11726
100
AcDbEntity
  8
0
100
AcDbBlockEnd
  0
ENDSEC
  0
SECTION
  2
ENTITIES
  0
LINE
  5
10931
330
18
100
AcDbEntity
  8
01
100
AcDbLine
 10
393.2611772496732
 20
74.42504801522728
 30
0.0
 11
393.2611772496732
 21
74.42495511238673
 31
0.0
  0
LINE
  5
10932
330
18
100
AcDbEntity
  8
01
100
AcDbLine
 10
393.2611772496732
 20
74.42495511238673
 30
0.0
 11
393.2611772496732
 21
74.42495512224713
 31
0.0
  0
LINE
  5
10933
330
18
100
AcDbEntity
  8
01
100
AcDbLine
 10
393.2611772496732
 20
74.42495512224713
 30
0.0
 11
393.2611772496731
 21
74.43293196149011
 31
0.0
  0
LINE
  5
10934
330
18
100
AcDbEntity
  8
01
100
AcDbLine
 10
366.3635574101647
 20
75.11431289187135
 30
0.0
 11
360.5195553960361
 21
75.33881680359269
 31
0.0
  0
LINE
  5
10938
330
18
100
AcDbEntity
  8
01
100
AcDbLine
 10
360.5184353757359
 20
88.83309065480364
 30
0.0
 11
392.7900855040712
 21
90.07284239982619
 31
0.0
  0
LINE
  5
1093B
330
18
100
AcDbEntity
  8
01
100
AcDbLine
 10
360.1020633330147
 20
75.62219519017344
 30
0.0
 11
359.8857095785237
 21
76.0965437179729
 31
0.0
  0
LINE
  5
1093C
330
18
100
AcDbEntity
  8
01
100
AcDbLine
 10
359.8857095785237
 20
76.0965437179729
 30
0.0
 11
359.6887948398491
 21
76.57068940313849
 31
0.0
  0
LINE
  5
1093D
330
18
100
AcDbEntity
  8
01
100
AcDbLine
 10
359.6887948398491
 20
76.57068940313849
 30
0.0
 11
359.5082214165704
 21
77.05129608627334
 31
0.0
  0
LINE
  5
1093E
330
18
100
AcDbEntity
  8
01
100
AcDbLine
 10
359.5082214165704
 20
77.05129608627334
 30
0.0
 11
359.3442008421858
 21
77.53780075865274
 31
0.0
  0
LINE
  5
1093F
330
18
100
AcDbEntity
  8
01
100
AcDbLine
 10
359.3442008421858
 20
77.53780075865274
 30
0.0
 11
359.1969252592883
 21
78.02963350232739
 31
0.0
  0
LINE
  5
10940
330
18
100
AcDbEntity
  8
01
100
AcDbLine
 10
359.1969252592883
 20
78.02963350232739
 30
0.0
 11
359.0665671944803
 21
78.52621815775683
 31
0.0
  0
LINE
  5
10941
330
18
100
AcDbEntity
  8
01
100
AcDbLine
 10
359.0665671944803
 20
78.52621815775683
 30
0.0
 11
358.9532793562664
 21
79.02697299875314
 31
0.0
  0
LINE
  5
10942
330
18
100
AcDbEntity
  8
01
100
AcDbLine
 10
358.9532793562664
 20
79.02697299875314
 30
0.0
 11
358.857194456162
 21
79.5313114139471
 31
0.0
  0
LINE
  5
10943
330
18
100
AcDbEntity
  8
01
100
AcDbLine
 10
358.857194456162
 20
79.5313114139471
 30
0.0
 11
358.7784250532285
 21
80.03864259397648
 31
0.0
  0
LINE
  5
10944
330
18
100
AcDbEntity
  8
01
100
AcDbLine
 10
358.7784250532285
 20
80.03864259397648
 30
0.0
 11
358.717063422215
 21
80.5483722235918
 31
0.0
  0
LINE
  5
10945
330
18
100
AcDbEntity
  8
01
100
AcDbLine
 10
358.717063422215
 20
80.5483722235918
 30
0.0
 11
358.6731814454627
 21
81.05990317786996
 31
0.0
  0
LINE
  5
10946
330
18
100
AcDbEntity
  8
01
100
AcDbLine
 10
358.6731814454627
 20
81.05990317786996
 30
0.0
 11
358.6468305286983
 21
81.57263622171843
 31
0.0
  0
LINE
  5
10947
330
18
100
AcDbEntity
  8
01
100
AcDbLine
 10
358.6468305286983
 20
81.57263622171843
 30
0.0
 11
358.6380415408142
 21
82.0859707118517
 31
0.0
  0
LINE
  5
109BB
330
18
100
AcDbEntity
  8
01
100
AcDbLine
 10
392.7911821594069
 20
74.09906595674443
 30
0.0
 11
385.6800792779287
 21
74.37224697374137
 31
0.0
  0
LINE
  5
109BC
330
18
100
AcDbEntity
  8
01
100
AcDbLine
 10
381.8241321332904
 20
62.08597525122468
 30
0.0
 11
381.0741321340782
 21
60.0859752505408
 31
0.0
  0
LINE
  5
109BD
330
18
100
AcDbEntity
  8
01
100
AcDbLine
 10
381.0741321333085
 20
60.08597525028659
 30
0.0
 11
380.3241321323577
 21
62.08597525003773
 31
0.0
  0
LINE
  5
109BE
330
18
100
AcDbEntity
  8
01
100
AcDbLine
 10
394.6380415408127
 20
82.08596876661272
 30
0.0
 11
394.6265763005981
 21
81.37562585616553
 31
0.0
  0
LINE
  5
109BF
330
18
100
AcDbEntity
  8
01
100
AcDbLine
 10
394.6265763005981
 20
81.37562585616553
 30
0.0
 11
394.5921801121565
 21
80.66602357010919
 31
0.0
  0
LINE
  5
109C0
330
18
100
AcDbEntity
  8
01
100
AcDbLine
 10
394.5921801121565
 20
80.66602357010919
 30
0.0
 11
394.5348888476806
 21
79.95790196108254
 31
0.0
  0
LINE
  5
109C1
330
18
100
AcDbEntity
  8
01
100
AcDbLine
 10
394.5348888476806
 20
79.95790196108254
 30
0.0
 11
394.4547622569096
 21
79.25199953750888
 31
0.0
  0
LINE
  5
109C2
330
18
100
AcDbEntity
  8
01
100
AcDbLine
 10
394.4547622569096
 20
79.25199953750888
 30
0.0
 11
394.3518839048152
 21
78.54905249339674
 31
0.0
  0
LINE
  5
109C3
330
18
100
AcDbEntity
  8
01
100
AcDbLine
 10
394.3518839048152
 20
78.54905249339674
 30
0.0
 11
394.2263610844506
 21
77.8497939405542
 31
0.0
  0
LINE
  5
109C4
330
18
100
AcDbEntity
  8
01
100
AcDbLine
 10
394.2263610844506
 20
77.8497939405542
 30
0.0
 11
394.0783247050539
 21
77.15495314401812
 31
0.0
  0
LINE
  5
109C5
330
18
100
AcDbEntity
  8
01
100
AcDbLine
 10
394.0783247050539
 20
77.15495314401812
 30
0.0
 11
393.9079291555205
 21
76.46525476149509
 31
0.0
  0
LINE
  5
109C6
330
18
100
AcDbEntity
  8
01
100
AcDbLine
 10
393.9079291555205
 20
76.46525476149509
 30
0.0
 11
393.7153521433897
 21
75.78141808760688
 31
0.0
  0
LINE
  5
109C7
330
18
100
AcDbEntity
  8
01
100
AcDbLine
 10
393.7153521433897
 20
75.78141808760688
 30
0.0
 11
393.5007945095111
 21
75.10415630372995
 31
0.0
  0
LINE
  5
109C8
330
18
100
AcDbEntity
  8
01
100
AcDbLine
 10
393.5007945095111
 20
75.10415630372995
 30
0.0
 11
393.2611772496732
 21
74.42495499426292
 31
0.0
  0
LINE
  5
109CB
330
18
100
AcDbEntity
  8
01
100
AcDbLine
 10
393.261177249534
 20
89.74696140529085
 30
0.0
 11
393.5007933670059
 21
89.06777118860447
 31
0.0
  0
LINE
  5
109CC
330
18
100
AcDbEntity
  8
01
100
AcDbLine
 10
393.5007933670059
 20
89.06777118860447
 30
0.0
 11
393.7153431581295
 21
88.39050977994754
 31
0.0
  0
LINE
  5
109CD
330
18
100
AcDbEntity
  8
01
100
AcDbLine
 10
393.7153431581295
 20
88.39050977994754
 30
0.0
 11
393.9079140223615
 21
87.70667420703819
 31
0.0
  0
LINE
  5
109CE
330
18
100
AcDbEntity
  8
01
100
AcDbLine
 10
393.9079140223615
 20
87.70667420703819
 30
0.0
 11
394.0783051557906
 21
87.0169775417018
 31
0.0
  0
LINE
  5
109CF
330
18
100
AcDbEntity
  8
01
100
AcDbLine
 10
394.0783051557906
 20
87.0169775417018
 30
0.0
 11
394.226338882494
 21
86.32213896743764
 31
0.0
  0
LINE
  5
109D0
330
18
100
AcDbEntity
  8
01
100
AcDbLine
 10
394.226338882494
 20
86.32213896743764
 30
0.0
 11
394.351860839809
 21
85.62288302948713
 31
0.0
  0
LINE
  5
109D1
330
18
100
AcDbEntity
  8
01
100
AcDbLine
 10
394.351860839809
 20
85.62288302948713
 30
0.0
 11
394.4547401392961
 21
84.91993887931272
 31
0.0
  0
LINE
  5
109D2
330
18
100
AcDbEntity
  8
01
100
AcDbLine
 10
394.4547401392961
 20
84.91993887931272
 30
0.0
 11
394.5348695032222
 21
84.2140395142726
 31
0.0
  0
LINE
  5
109D3
330
18
100
AcDbEntity
  8
01
100
AcDbLine
 10
394.5348695032222
 20
84.2140395142726
 30
0.0
 11
394.592165376426
 21
83.50592101328488
 31
0.0
  0
LINE
  5
109D4
330
18
100
AcDbEntity
  8
01
100
AcDbLine
 10
394.592165376426
 20
83.50592101328488
 30
0.0
 11
394.6265680134443
 21
82.79632176927925
 31
0.0
  0
LINE
  5
109D5
330
18
100
AcDbEntity
  8
01
100
AcDbLine
 10
394.6265680134443
 20
82.79632176927925
 30
0.0
 11
394.6380415408127
 21
82.0859817192349
 31
0.0
  0
LINE
  5
109D6
330
18
100
AcDbEntity
  8
01
100
AcDbLine
 10
393.2611772496732
 20
74.42495499426292
 30
0.0
 11
393.2548259874877
 21
74.40874711046564
 31
0.0
  0
LINE
  5
109D7
330
18
100
AcDbEntity
  8
01
100
AcDbLine
 10
393.2548259874877
 20
74.40874711046564
 30
0.0
 11
393.2479147068892
 21
74.39276999467387
 31
0.0
  0
LINE
  5
109D8
330
18
100
AcDbEntity
  8
01
100
AcDbLine
 10
393.2479147068892
 20
74.39276999467387
 30
0.0
 11
393.2404517751643
 21
74.37704298991753
 31
0.0
  0
LINE
  5
109D9
330
18
100
AcDbEntity
  8
01
100
AcDbLine
 10
393.2404517751643
 20
74.37704298991753
 30
0.0
 11
393.2324462274678
 21
74.36158513642437
 31
0.0
  0
LINE
  5
109DA
330
18
100
AcDbEntity
  8
01
100
AcDbLine
 10
393.2324462274678
 20
74.36158513642437
 30
0.0
 11
393.2239077558837
 21
74.34641514856867
 31
0.0
  0
LINE
  5
109DB
330
18
100
AcDbEntity
  8
01
100
AcDbLine
 10
393.2239077558837
 20
74.34641514856867
 30
0.0
 11
393.2148466976914
 21
74.33155139221401
 31
0.0
  0
LINE
  5
109DC
330
18
100
AcDbEntity
  8
01
100
AcDbLine
 10
393.2148466976914
 20
74.33155139221401
 30
0.0
 11
393.2052740228509
 21
74.31701186247835
 31
0.0
  0
LINE
  5
109DD
330
18
100
AcDbEntity
  8
01
100
AcDbLine
 10
393.2052740228509
 20
74.31701186247835
 30
0.0
 11
393.1952013207215
 21
74.3028141619481
 31
0.0
  0
LINE
  5
109DE
330
18
100
AcDbEntity
  8
01
100
AcDbLine
 10
393.1952013207215
 20
74.3028141619481
 30
0.0
 11
393.1846407860311
 21
74.28897547936668
 31
0.0
  0
LINE
  5
109DF
330
18
100
AcDbEntity
  8
01
100
AcDbLine
 10
393.1846407860311
 20
74.28897547936668
 30
0.0
 11
393.1736052041122
 21
74.27551256882515
 31
0.0
  0
LINE
  5
109E0
330
18
100
AcDbEntity
  8
01
100
AcDbLine
 10
393.1736052041122
 20
74.27551256882515
 30
0.0
 11
393.1621079354234
 21
74.26244172947833
 31
0.0
  0
LINE
  5
109E1
330
18
100
AcDbEntity
  8
01
100
AcDbLine
 10
393.1621079354234
 20
74.26244172947833
 30
0.0
 11
393.1501628993738
 21
74.24977878581154
 31
0.0
  0
LINE
  5
109E2
330
18
100
AcDbEntity
  8
01
100
AcDbLine
 10
393.1501628993738
 20
74.24977878581154
 30
0.0
 11
393.1377845574714
 21
74.23753906848293
 31
0.0
  0
LINE
  5
109E3
330
18
100
AcDbEntity
  8
01
100
AcDbLine
 10
393.1377845574714
 20
74.23753906848293
 30
0.0
 11
393.1249878958154
 21
74.22573739576256
 31
0.0
  0
LINE
  5
109E4
330
18
100
AcDbEntity
  8
01
100
AcDbLine
 10
393.1249878958154
 20
74.22573739576256
 30
0.0
 11
393.1117884069523
 21
74.2143880555929
 31
0.0
  0
LINE
  5
109E5
330
18
100
AcDbEntity
  8
01
100
AcDbLine
 10
393.1117884069523
 20
74.2143880555929
 30
0.0
 11
393.0982020711197
 21
74.20350478829039
 31
0.0
  0
LINE
  5
109E6
330
18
100
AcDbEntity
  8
01
100
AcDbLine
 10
393.0982020711197
 20
74.20350478829039
 30
0.0
 11
393.0842453368996
 21
74.19310076991053
 31
0.0
  0
LINE
  5
109E7
330
18
100
AcDbEntity
  8
01
100
AcDbLine
 10
393.0842453368996
 20
74.19310076991053
 30
0.0
 11
393.069935101305
 21
74.18318859629619
 31
0.0
  0
LINE
  5
109E8
330
18
100
AcDbEntity
  8
01
100
AcDbLine
 10
393.069935101305
 20
74.18318859629619
 30
0.0
 11
393.0552886893222
 21
74.17378026782791
 31
0.0
  0
LINE
  5
109E9
330
18
100
AcDbEntity
  8
01
100
AcDbLine
 10
393.0552886893222
 20
74.17378026782791
 30
0.0
 11
393.0403238329368
 21
74.1648871748958
 31
0.0
  0
LINE
  5
109EA
330
18
100
AcDbEntity
  8
01
100
AcDbLine
 10
393.0403238329368
 20
74.1648871748958
 30
0.0
 11
393.0250586496657
 21
74.15652008410905
 31
0.0
  0
LINE
  5
109EB
330
18
100
AcDbEntity
  8
01
100
AcDbLine
 10
393.0250586496657
 20
74.15652008410905
 30
0.0
 11
393.0095116206227
 21
74.14868912526146
 31
0.0
  0
LINE
  5
109EC
330
18
100
AcDbEntity
  8
01
100
AcDbLine
 10
393.0095116206227
 20
74.14868912526146
 30
0.0
 11
392.9937015681444
 21
74.14140377906733
 31
0.0
  0
LINE
  5
109ED
330
18
100
AcDbEntity
  8
01
100
AcDbLine
 10
392.9937015681444
 20
74.14140377906733
 30
0.0
 11
392.9776476330019
 21
74.13467286568368
 31
0.0
  0
LINE
  5
109EE
330
18
100
AcDbEntity
  8
01
100
AcDbLine
 10
392.9776476330019
 20
74.13467286568368
 30
0.0
 11
392.9613692512283
 21
74.12850453403189
 31
0.0
  0
LINE
  5
109EF
330
18
100
AcDbEntity
  8
01
100
AcDbLine
 10
392.9613692512283
 20
74.12850453403189
 30
0.0
 11
392.9448861305873
 21
74.12290625193191
 31
0.0
  0
LINE
  5
109F0
330
18
100
AcDbEntity
  8
01
100
AcDbLine
 10
392.9448861305873
 20
74.12290625193191
 30
0.0
 11
392.9282182267144
 21
74.1178847970611
 31
0.0
  0
LINE
  5
109F1
330
18
100
AcDbEntity
  8
01
100
AcDbLine
 10
392.9282182267144
 20
74.1178847970611
 30
0.0
 11
392.9113857189566
 21
74.11344624874909
 31
0.0
  0
LINE
  5
109F2
330
18
100
AcDbEntity
  8
01
100
AcDbLine
 10
392.9113857189566
 20
74.11344624874909
 30
0.0
 11
392.8944089859419
 21
74.10959598061748
 31
0.0
  0
LINE
  5
109F3
330
18
100
AcDbEntity
  8
01
100
AcDbLine
 10
392.8944089859419
 20
74.10959598061748
 30
0.0
 11
392.877308580908
 21
74.10633865407385
 31
0.0
  0
LINE
  5
109F4
330
18
100
AcDbEntity
  8
01
100
AcDbLine
 10
392.877308580908
 20
74.10633865407385
 30
0.0
 11
392.8601052068184
 21
74.10367821266897
 31
0.0
  0
LINE
  5
109F5
330
18
100
AcDbEntity
  8
01
100
AcDbLine
 10
392.8601052068184
 20
74.10367821266897
 30
0.0
 11
392.8428196912984
 21
74.10161787732193
 31
0.0
  0
LINE
  5
109F6
330
18
100
AcDbEntity
  8
01
100
AcDbLine
 10
392.8428196912984
 20
74.10161787732193
 30
0.0
 11
392.8254729614195
 21
74.10016014242092
 31
0.0
  0
LINE
  5
109F7
330
18
100
AcDbEntity
  8
01
100
AcDbLine
 10
392.8254729614195
 20
74.10016014242092
 30
0.0
 11
392.8080860183635
 21
74.09930677280306
 31
0.0
  0
LINE
  5
109FA
330
18
100
AcDbEntity
  8
01
100
AcDbLine
 10
392.7732757152436
 20
90.07249852990196
 30
0.0
 11
392.7906795409481
 21
90.07285455175844
 31
0.0
  0
LINE
  5
109FB
330
18
100
AcDbEntity
  8
01
100
AcDbLine
 10
392.7906795409481
 20
90.07285455175844
 30
0.0
 11
392.8080852187176
 21
90.07260498794028
 31
0.0
  0
LINE
  5
109FC
330
18
100
AcDbEntity
  8
01
100
AcDbLine
 10
392.8080852187176
 20
90.07260498794028
 30
0.0
 11
392.8254716828936
 21
90.07175014048823
 31
0.0
  0
LINE
  5
109FD
330
18
100
AcDbEntity
  8
01
100
AcDbLine
 10
392.8254716828936
 20
90.07175014048823
 30
0.0
 11
392.8428178910718
 21
90.07029104400294
 31
0.0
  0
LINE
  5
109FE
330
18
100
AcDbEntity
  8
01
100
AcDbLine
 10
392.8428178910718
 20
90.07029104400294
 30
0.0
 11
392.8601028495682
 21
90.06822946439263
 31
0.0
  0
LINE
  5
109FF
330
18
100
AcDbEntity
  8
01
100
AcDbLine
 10
392.8601028495682
 20
90.06822946439263
 30
0.0
 11
392.8773056388281
 21
90.06556789673573
 31
0.0
  0
LINE
  5
10A00
330
18
100
AcDbEntity
  8
01
100
AcDbLine
 10
392.8773056388281
 20
90.06556789673573
 30
0.0
 11
392.894405438744
 21
90.06230956226113
 31
0.0
  0
LINE
  5
10A01
330
18
100
AcDbEntity
  8
01
100
AcDbLine
 10
392.894405438744
 20
90.06230956226113
 30
0.0
 11
392.911381553854
 21
90.05845840445005
 31
0.0
  0
LINE
  5
10A02
330
18
100
AcDbEntity
  8
01
100
AcDbLine
 10
392.911381553854
 20
90.05845840445005
 30
0.0
 11
392.9282134383886
 21
90.0540190842629
 31
0.0
  0
LINE
  5
10A03
330
18
100
AcDbEntity
  8
01
100
AcDbLine
 10
392.9282134383886
 20
90.0540190842629
 30
0.0
 11
392.9448807211374
 21
90.04899697449827
 31
0.0
  0
LINE
  5
10A04
330
18
100
AcDbEntity
  8
01
100
AcDbLine
 10
392.9448807211374
 20
90.04899697449827
 30
0.0
 11
392.9613632301028
 21
90.04339815329052
 31
0.0
  0
LINE
  5
10A05
330
18
100
AcDbEntity
  8
01
100
AcDbLine
 10
392.9613632301028
 20
90.04339815329052
 30
0.0
 11
392.977641016915
 21
90.03722939675367
 31
0.0
  0
LINE
  5
10A06
330
18
100
AcDbEntity
  8
01
100
AcDbLine
 10
392.977641016915
 20
90.03722939675367
 30
0.0
 11
392.9936943809738
 21
90.03049817078005
 31
0.0
  0
LINE
  5
10A07
330
18
100
AcDbEntity
  8
01
100
AcDbLine
 10
392.9936943809738
 20
90.03049817078005
 30
0.0
 11
393.0095038932925
 21
90.02321262200468
 31
0.0
  0
LINE
  5
10A08
330
18
100
AcDbEntity
  8
01
100
AcDbLine
 10
393.0095038932925
 20
90.02321262200468
 30
0.0
 11
393.0250504200121
 21
90.01538156794606
 31
0.0
  0
LINE
  5
10A09
330
18
100
AcDbEntity
  8
01
100
AcDbLine
 10
393.0250504200121
 20
90.01538156794606
 30
0.0
 11
393.0403151455585
 21
90.00701448633367
 31
0.0
  0
LINE
  5
10A0A
330
18
100
AcDbEntity
  8
01
100
AcDbLine
 10
393.0403151455585
 20
90.00701448633367
 30
0.0
 11
393.0552795954144
 21
89.99812150363817
 31
0.0
  0
LINE
  5
10A0B
330
18
100
AcDbEntity
  8
01
100
AcDbLine
 10
393.0552795954144
 20
89.99812150363817
 30
0.0
 11
393.0699256584789
 21
89.98871338281504
 31
0.0
  0
LINE
  5
10A0C
330
18
100
AcDbEntity
  8
01
100
AcDbLine
 10
393.0699256584789
 20
89.98871338281504
 30
0.0
 11
393.0842356089866
 21
89.97880151027852
 31
0.0
  0
LINE
  5
10A0D
330
18
100
AcDbEntity
  8
01
100
AcDbLine
 10
393.0842356089866
 20
89.97880151027852
 30
0.0
 11
393.0981921279608
 21
89.96839788212117
 31
0.0
  0
LINE
  5
10A0E
330
18
100
AcDbEntity
  8
01
100
AcDbLine
 10
393.0981921279608
 20
89.96839788212117
 30
0.0
 11
393.1117783241741
 21
89.957515089595
 31
0.0
  0
LINE
  5
10A0F
330
18
100
AcDbEntity
  8
01
100
AcDbLine
 10
393.1117783241741
 20
89.957515089595
 30
0.0
 11
393.1249777545916
 21
89.94616630387287
 31
0.0
  0
LINE
  5
10A10
330
18
100
AcDbEntity
  8
01
100
AcDbLine
 10
393.1249777545916
 20
89.94616630387287
 30
0.0
 11
393.1377744442713
 21
89.93436526010754
 31
0.0
  0
LINE
  5
10A11
330
18
100
AcDbEntity
  8
01
100
AcDbLine
 10
393.1377744442713
 20
89.93436526010754
 30
0.0
 11
393.1501529056985
 21
89.92212624080815
 31
0.0
  0
LINE
  5
10A12
330
18
100
AcDbEntity
  8
01
100
AcDbLine
 10
393.1501529056985
 20
89.92212624080815
 30
0.0
 11
393.1620981575295
 21
89.90946405855522
 31
0.0
  0
LINE
  5
10A13
330
18
100
AcDbEntity
  8
01
100
AcDbLine
 10
393.1620981575295
 20
89.90946405855522
 30
0.0
 11
393.1735957427236
 21
89.89639403807251
 31
0.0
  0
LINE
  5
10A14
330
18
100
AcDbEntity
  8
01
100
AcDbLine
 10
393.1735957427236
 20
89.89639403807251
 30
0.0
 11
393.1846317460396
 21
89.88293199768037
 31
0.0
  0
LINE
  5
10A15
330
18
100
AcDbEntity
  8
01
100
AcDbLine
 10
393.1846317460396
 20
89.88293199768037
 30
0.0
 11
393.1951928108777
 21
89.86909423015089
 31
0.0
  0
LINE
  5
10A16
330
18
100
AcDbEntity
  8
01
100
AcDbLine
 10
393.1951928108777
 20
89.86909423015089
 30
0.0
 11
393.205266155444
 21
89.8548974829896
 31
0.0
  0
LINE
  5
10A17
330
18
100
AcDbEntity
  8
01
100
AcDbLine
 10
393.205266155444
 20
89.8548974829896
 30
0.0
 11
393.2148395882205
 21
89.8403589381661
 31
0.0
  0
LINE
  5
10A18
330
18
100
AcDbEntity
  8
01
100
AcDbLine
 10
393.2148395882205
 20
89.8403589381661
 30
0.0
 11
393.22390152272
 21
89.82549619131896
 31
0.0
  0
LINE
  5
10A19
330
18
100
AcDbEntity
  8
01
100
AcDbLine
 10
393.22390152272
 20
89.82549619131896
 30
0.0
 11
393.2324409915087
 21
89.8103272304607
 31
0.0
  0
LINE
  5
10A1A
330
18
100
AcDbEntity
  8
01
100
AcDbLine
 10
393.2324409915087
 20
89.8103272304607
 30
0.0
 11
393.2404476594802
 21
89.7948704142068
 31
0.0
  0
LINE
  5
10A1B
330
18
100
AcDbEntity
  8
01
100
AcDbLine
 10
393.2404476594802
 20
89.7948704142068
 30
0.0
 11
393.2479118363638
 21
89.77914444955712
 31
0.0
  0
LINE
  5
10A1C
330
18
100
AcDbEntity
  8
01
100
AcDbLine
 10
393.2479118363638
 20
89.77914444955712
 30
0.0
 11
393.2548244884519
 21
89.76316836925491
 31
0.0
  0
LINE
  5
10A1D
330
18
100
AcDbEntity
  8
01
100
AcDbLine
 10
393.2548244884519
 20
89.76316836925491
 30
0.0
 11
393.261177249534
 21
89.74696150875246
 31
0.0
  0
LINE
  5
10A1E
330
18
100
AcDbEntity
  8
01
100
AcDbLine
 10
358.6380415408142
 20
82.08597977334352
 30
0.0
 11
358.6468279684248
 21
82.59931601874217
 31
0.0
  0
LINE
  5
10A1F
330
18
100
AcDbEntity
  8
01
100
AcDbLine
 10
358.6468279684248
 20
82.59931601874217
 30
0.0
 11
358.6731768731843
 21
83.11205087943335
 31
0.0
  0
LINE
  5
10A20
330
18
100
AcDbEntity
  8
01
100
AcDbLine
 10
358.6731768731843
 20
83.11205087943335
 30
0.0
 11
358.7170573868454
 21
83.62358367669168
 31
0.0
  0
LINE
  5
10A21
330
18
100
AcDbEntity
  8
01
100
AcDbLine
 10
358.7170573868454
 20
83.62358367669168
 30
0.0
 11
358.7784181025444
 21
84.13331514003198
 31
0.0
  0
LINE
  5
10A22
330
18
100
AcDbEntity
  8
01
100
AcDbLine
 10
358.7784181025444
 20
84.13331514003198
 30
0.0
 11
358.8571871350259
 21
84.64064810926618
 31
0.0
  0
LINE
  5
10A23
330
18
100
AcDbEntity
  8
01
100
AcDbLine
 10
358.8571871350259
 20
84.64064810926618
 30
0.0
 11
358.9532722048571
 21
85.14498823408826
 31
0.0
  0
LINE
  5
10A24
330
18
100
AcDbEntity
  8
01
100
AcDbLine
 10
358.9532722048571
 20
85.14498823408826
 30
0.0
 11
359.0665607465354
 21
85.64574467036692
 31
0.0
  0
LINE
  5
10A25
330
18
100
AcDbEntity
  8
01
100
AcDbLine
 10
359.0665607465354
 20
85.64574467036692
 30
0.0
 11
359.1969200403611
 21
86.14233077233052
 31
0.0
  0
LINE
  5
10A26
330
18
100
AcDbEntity
  8
01
100
AcDbLine
 10
359.1969200403611
 20
86.14233077233052
 30
0.0
 11
359.3441973679205
 21
86.63416477983412
 31
0.0
  0
LINE
  5
10A27
330
18
100
AcDbEntity
  8
01
100
AcDbLine
 10
359.3441973679205
 20
86.63416477983412
 30
0.0
 11
359.5082201909991
 21
87.1206704999027
 31
0.0
  0
LINE
  5
10A28
330
18
100
AcDbEntity
  8
01
100
AcDbLine
 10
359.5082201909991
 20
87.1206704999027
 30
0.0
 11
359.688796353713
 21
87.60127798175205
 31
0.0
  0
LINE
  5
10A29
330
18
100
AcDbEntity
  8
01
100
AcDbLine
 10
359.688796353713
 20
87.60127798175205
 30
0.0
 11
359.8857143076235
 21
88.07542418449731
 31
0.0
  0
LINE
  5
10A2A
330
18
100
AcDbEntity
  8
01
100
AcDbLine
 10
359.8857143076235
 20
88.07542418449731
 30
0.0
 11
360.1020633328977
 21
88.54978396725596
 31
0.0
  0
LINE
  5
10A2C
330
18
100
AcDbEntity
  8
01
100
AcDbLine
 10
360.1020633328977
 20
88.54978396725596
 30
0.0
 11
360.1096470928009
 21
88.56496307263802
 31
0.0
  0
LINE
  5
10A2D
330
18
100
AcDbEntity
  8
01
100
AcDbLine
 10
360.1096470928009
 20
88.56496307263802
 30
0.0
 11
360.1177407511855
 21
88.57987653462453
 31
0.0
  0
LINE
  5
10A2E
330
18
100
AcDbEntity
  8
01
100
AcDbLine
 10
360.1177407511855
 20
88.57987653462453
 30
0.0
 11
360.1263350156247
 21
88.59450723089014
 31
0.0
  0
LINE
  5
10A2F
330
18
100
AcDbEntity
  8
01
100
AcDbLine
 10
360.1263350156247
 20
88.59450723089014
 30
0.0
 11
360.1354200189401
 21
88.60883836375643
 31
0.0
  0
LINE
  5
10A30
330
18
100
AcDbEntity
  8
01
100
AcDbLine
 10
360.1354200189401
 20
88.60883836375643
 30
0.0
 11
360.1449853305299
 21
88.62285347947693
 31
0.0
  0
LINE
  5
10A31
330
18
100
AcDbEntity
  8
01
100
AcDbLine
 10
360.1449853305299
 20
88.62285347947693
 30
0.0
 11
360.1550199683447
 21
88.63653648712864
 31
0.0
  0
LINE
  5
10A32
330
18
100
AcDbEntity
  8
01
100
AcDbLine
 10
360.1550199683447
 20
88.63653648712864
 30
0.0
 11
360.1655124114959
 21
88.64987167708563
 31
0.0
  0
LINE
  5
10A33
330
18
100
AcDbEntity
  8
01
100
AcDbLine
 10
360.1655124114959
 20
88.64987167708563
 30
0.0
 11
360.1764506134832
 21
88.66284373905563
 31
0.0
  0
LINE
  5
10A34
330
18
100
AcDbEntity
  8
01
100
AcDbLine
 10
360.1764506134832
 20
88.66284373905563
 30
0.0
 11
360.1878220160252
 21
88.67543777965813
 31
0.0
  0
LINE
  5
10A35
330
18
100
AcDbEntity
  8
01
100
AcDbLine
 10
360.1878220160252
 20
88.67543777965813
 30
0.0
 11
360.1996135634776
 21
88.68763933952351
 31
0.0
  0
LINE
  5
10A36
330
18
100
AcDbEntity
  8
01
100
AcDbLine
 10
360.1996135634776
 20
88.68763933952351
 30
0.0
 11
360.2118117178228
 21
88.6994344098938
 31
0.0
  0
LINE
  5
10A37
330
18
100
AcDbEntity
  8
01
100
AcDbLine
 10
360.2118117178228
 20
88.6994344098938
 30
0.0
 11
360.2244024742129
 21
88.7108094487067
 31
0.0
  0
LINE
  5
10A38
330
18
100
AcDbEntity
  8
01
100
AcDbLine
 10
360.2244024742129
 20
88.7108094487067
 30
0.0
 11
360.2373713770488
 21
88.72175139614313
 31
0.0
  0
LINE
  5
10A39
330
18
100
AcDbEntity
  8
01
100
AcDbLine
 10
360.2373713770488
 20
88.72175139614313
 30
0.0
 11
360.250703536577
 21
88.73224768962149
 31
0.0
  0
LINE
  5
10A3A
330
18
100
AcDbEntity
  8
01
100
AcDbLine
 10
360.250703536577
 20
88.73224768962149
 30
0.0
 11
360.2643836459847
 21
88.74228627822077
 31
0.0
  0
LINE
  5
10A3B
330
18
100
AcDbEntity
  8
01
100
AcDbLine
 10
360.2643836459847
 20
88.74228627822077
 30
0.0
 11
360.2783959989732
 21
88.75185563651667
 31
0.0
  0
LINE
  5
10A3C
330
18
100
AcDbEntity
  8
01
100
AcDbLine
 10
360.2783959989732
 20
88.75185563651667
 30
0.0
 11
360.2927245077915
 21
88.76094477781345
 31
0.0
  0
LINE
  5
10A3D
330
18
100
AcDbEntity
  8
01
100
AcDbLine
 10
360.2927245077915
 20
88.76094477781345
 30
0.0
 11
360.3073527217061
 21
88.7695432667586
 31
0.0
  0
LINE
  5
10A3E
330
18
100
AcDbEntity
  8
01
100
AcDbLine
 10
360.3073527217061
 20
88.7695432667586
 30
0.0
 11
360.3222638458882
 21
88.77764123132346
 31
0.0
  0
LINE
  5
10A3F
330
18
100
AcDbEntity
  8
01
100
AcDbLine
 10
360.3222638458882
 20
88.77764123132346
 30
0.0
 11
360.3374407606968
 21
88.78522937413726
 31
0.0
  0
LINE
  5
10A40
330
18
100
AcDbEntity
  8
01
100
AcDbLine
 10
360.3374407606968
 20
88.78522937413726
 30
0.0
 11
360.3528660413331
 21
88.79229898316197
 31
0.0
  0
LINE
  5
10A41
330
18
100
AcDbEntity
  8
01
100
AcDbLine
 10
360.3528660413331
 20
88.79229898316197
 30
0.0
 11
360.3685219778466
 21
88.79884194169438
 31
0.0
  0
LINE
  5
10A42
330
18
100
AcDbEntity
  8
01
100
AcDbLine
 10
360.3685219778466
 20
88.79884194169438
 30
0.0
 11
360.384390595468
 21
88.80485073768483
 31
0.0
  0
LINE
  5
10A43
330
18
100
AcDbEntity
  8
01
100
AcDbLine
 10
360.384390595468
 20
88.80485073768483
 30
0.0
 11
360.4004536752464
 21
88.81031847236221
 31
0.0
  0
LINE
  5
10A44
330
18
100
AcDbEntity
  8
01
100
AcDbLine
 10
360.4004536752464
 20
88.81031847236221
 30
0.0
 11
360.4166927749664
 21
88.81523886815478
 31
0.0
  0
LINE
  5
10A45
330
18
100
AcDbEntity
  8
01
100
AcDbLine
 10
360.4166927749664
 20
88.81523886815478
 30
0.0
 11
360.4330892503219
 21
88.81960627589655
 31
0.0
  0
LINE
  5
10A46
330
18
100
AcDbEntity
  8
01
100
AcDbLine
 10
360.4330892503219
 20
88.81960627589655
 30
0.0
 11
360.4496242763223
 21
88.82341568131432
 31
0.0
  0
LINE
  5
10A47
330
18
100
AcDbEntity
  8
01
100
AcDbLine
 10
360.4496242763223
 20
88.82341568131432
 30
0.0
 11
360.466278868905
 21
88.82666271078381
 31
0.0
  0
LINE
  5
10A48
330
18
100
AcDbEntity
  8
01
100
AcDbLine
 10
360.466278868905
 20
88.82666271078381
 30
0.0
 11
360.4830339067316
 21
88.82934363635127
 31
0.0
  0
LINE
  5
10A49
330
18
100
AcDbEntity
  8
01
100
AcDbLine
 10
360.4830339067316
 20
88.82934363635127
 30
0.0
 11
360.4998701531414
 21
88.83145538001389
 31
0.0
  0
LINE
  5
10A4A
330
18
100
AcDbEntity
  8
01
100
AcDbLine
 10
360.4998701531414
 20
88.83145538001389
 30
0.0
 11
360.5167682782372
 21
88.83299551725327
 31
0.0
  0
LINE
  5
10A4B
330
18
100
AcDbEntity
  8
01
100
AcDbLine
 10
360.5167682782372
 20
88.83299551725327
 30
0.0
 11
360.533708881078
 21
88.83396227981927
 31
0.0
  0
LINE
  5
10A4C
330
18
100
AcDbEntity
  8
01
100
AcDbLine
 10
360.5337092331501
 20
75.3380181230375
 30
0.0
 11
360.5167659844833
 21
75.33897420605183
 31
0.0
  0
LINE
  5
10A4D
330
18
100
AcDbEntity
  8
01
100
AcDbLine
 10
360.5167659844833
 20
75.33897420605183
 30
0.0
 11
360.4998649159238
 21
75.3405044516739
 31
0.0
  0
LINE
  5
10A4E
330
18
100
AcDbEntity
  8
01
100
AcDbLine
 10
360.4998649159238
 20
75.3405044516739
 30
0.0
 11
360.48302547872
 21
75.34260709876116
 31
0.0
  0
LINE
  5
10A4F
330
18
100
AcDbEntity
  8
01
100
AcDbLine
 10
360.48302547872
 20
75.34260709876116
 30
0.0
 11
360.4662670531893
 21
75.34527972740125
 31
0.0
  0
LINE
  5
10A50
330
18
100
AcDbEntity
  8
01
100
AcDbLine
 10
360.4662670531893
 20
75.34527972740125
 30
0.0
 11
360.4496089264137
 21
75.3485192616958
 31
0.0
  0
LINE
  5
10A51
330
18
100
AcDbEntity
  8
01
100
AcDbLine
 10
360.4496089264137
 20
75.3485192616958
 30
0.0
 11
360.4330702700427
 21
75.35232197330174
 31
0.0
  0
LINE
  5
10A52
330
18
100
AcDbEntity
  8
01
100
AcDbLine
 10
360.4330702700427
 20
75.35232197330174
 30
0.0
 11
360.4166701182284
 21
75.3566834857213
 31
0.0
  0
LINE
  5
10A53
330
18
100
AcDbEntity
  8
01
100
AcDbLine
 10
360.4166701182284
 20
75.3566834857213
 30
0.0
 11
360.4004273457198
 21
75.36159877933915
 31
0.0
  0
LINE
  5
10A54
330
18
100
AcDbEntity
  8
01
100
AcDbLine
 10
360.4004273457198
 20
75.36159877933915
 30
0.0
 11
360.3843606461397
 21
75.36706219719969
 31
0.0
  0
LINE
  5
10A55
330
18
100
AcDbEntity
  8
01
100
AcDbLine
 10
360.3843606461397
 20
75.36706219719969
 30
0.0
 11
360.3684885104706
 21
75.37306745151716
 31
0.0
  0
LINE
  5
10A56
330
18
100
AcDbEntity
  8
01
100
AcDbLine
 10
360.3684885104706
 20
75.37306745151716
 30
0.0
 11
360.3528292057736
 21
75.37960763091235
 31
0.0
  0
LINE
  5
10A57
330
18
100
AcDbEntity
  8
01
100
AcDbLine
 10
360.3528292057736
 20
75.37960763091235
 30
0.0
 11
360.337400754165
 21
75.38667520836702
 31
0.0
  0
LINE
  5
10A58
330
18
100
AcDbEntity
  8
01
100
AcDbLine
 10
360.337400754165
 20
75.38667520836702
 30
0.0
 11
360.322220912075
 21
75.39426204988632
 31
0.0
  0
LINE
  5
10A59
330
18
100
AcDbEntity
  8
01
100
AcDbLine
 10
360.322220912075
 20
75.39426204988632
 30
0.0
 11
360.3073071498118
 21
75.40235942386028
 31
0.0
  0
LINE
  5
10A5A
330
18
100
AcDbEntity
  8
01
100
AcDbLine
 10
360.3073071498118
 20
75.40235942386028
 30
0.0
 11
360.2926766314555
 21
75.41095801111294
 31
0.0
  0
LINE
  5
10A5B
330
18
100
AcDbEntity
  8
01
100
AcDbLine
 10
360.2926766314555
 20
75.41095801111294
 30
0.0
 11
360.2783461951038
 21
75.42004791562772
 31
0.0
  0
LINE
  5
10A5C
330
18
100
AcDbEntity
  8
01
100
AcDbLine
 10
360.2783461951038
 20
75.42004791562772
 30
0.0
 11
360.2643323334936
 21
75.4296186759363
 31
0.0
  0
LINE
  5
10A5D
330
18
100
AcDbEntity
  8
01
100
AcDbLine
 10
360.2643323334936
 20
75.4296186759363
 30
0.0
 11
360.2506511750194
 21
75.43965927715936
 31
0.0
  0
LINE
  5
10A5E
330
18
100
AcDbEntity
  8
01
100
AcDbLine
 10
360.2506511750194
 20
75.43965927715936
 30
0.0
 11
360.2373184651715
 21
75.4501581636826
 31
0.0
  0
LINE
  5
10A5F
330
18
100
AcDbEntity
  8
01
100
AcDbLine
 10
360.2373184651715
 20
75.4501581636826
 30
0.0
 11
360.2243495484146
 21
75.4611032524565
 31
0.0
  0
LINE
  5
10A60
330
18
100
AcDbEntity
  8
01
100
AcDbLine
 10
360.2243495484146
 20
75.4611032524565
 30
0.0
 11
360.211759350528
 21
75.4724819469024
 31
0.0
  0
LINE
  5
10A61
330
18
100
AcDbEntity
  8
01
100
AcDbLine
 10
360.211759350528
 20
75.4724819469024
 30
0.0
 11
360.1995623614278
 21
75.48428115140973
 31
0.0
  0
LINE
  5
10A62
330
18
100
AcDbEntity
  8
01
100
AcDbLine
 10
360.1995623614278
 20
75.48428115140973
 30
0.0
 11
360.1877726184906
 21
75.49648728640778
 31
0.0
  0
LINE
  5
10A63
330
18
100
AcDbEntity
  8
01
100
AcDbLine
 10
360.1877726184906
 20
75.49648728640778
 30
0.0
 11
360.1764036903979
 21
75.50908630399402
 31
0.0
  0
LINE
  5
10A64
330
18
100
AcDbEntity
  8
01
100
AcDbLine
 10
360.1764036903979
 20
75.50908630399402
 30
0.0
 11
360.1654686615203
 21
75.52206370410204
 31
0.0
  0
LINE
  5
10A65
330
18
100
AcDbEntity
  8
01
100
AcDbLine
 10
360.1654686615203
 20
75.52206370410204
 30
0.0
 11
360.1549801168586
 21
75.53540455118889
 31
0.0
  0
LINE
  5
10A66
330
18
100
AcDbEntity
  8
01
100
AcDbLine
 10
360.1549801168586
 20
75.53540455118889
 30
0.0
 11
360.14495012756
 21
75.54909349142497
 31
0.0
  0
LINE
  5
10A67
330
18
100
AcDbEntity
  8
01
100
AcDbLine
 10
360.14495012756
 20
75.54909349142497
 30
0.0
 11
360.1353902370255
 21
75.56311477036394
 31
0.0
  0
LINE
  5
10A68
330
18
100
AcDbEntity
  8
01
100
AcDbLine
 10
360.1353902370255
 20
75.56311477036394
 30
0.0
 11
360.1263114476249
 21
75.57745225107482
 31
0.0
  0
LINE
  5
10A69
330
18
100
AcDbEntity
  8
01
100
AcDbLine
 10
360.1263114476249
 20
75.57745225107482
 30
0.0
 11
360.1177242080338
 21
75.59208943271346
 31
0.0
  0
LINE
  5
10A6A
330
18
100
AcDbEntity
  8
01
100
AcDbLine
 10
360.1177242080338
 20
75.59208943271346
 30
0.0
 11
360.1096384012093
 21
75.60700946951346
 31
0.0
  0
LINE
  5
10A6B
330
18
100
AcDbEntity
  8
01
100
AcDbLine
 10
360.1096384012093
 20
75.60700946951346
 30
0.0
 11
360.1020633330147
 21
75.62219519017344
 31
0.0
  0
LINE
  5
10A6C
330
18
100
AcDbEntity
  8
01
100
AcDbLine
 10
419.9531485397328
 20
62.0859752510099
 30
0.0
 11
427.6039053941108
 21
62.08597525107908
 31
0.0
  0
LINE
  5
10A6D
330
18
100
AcDbEntity
  8
01
100
AcDbLine
 10
427.6039053941108
 20
62.08597525107908
 30
0.0
 11
435.260385115092
 21
62.0859752511486
 31
0.0
  0
LINE
  5
10A6E
330
18
100
AcDbEntity
  8
01
100
AcDbLine
 10
422.6039053947791
 20
60.08597525103394
 30
0.0
 11
423.353905394761
 21
62.08597525104071
 31
0.0
  0
LINE
  5
10A70
330
18
100
AcDbEntity
  8
01
100
AcDbLine
 10
421.5212333185435
 20
76.27552399915706
 30
0.0
 11
421.5587546566559
 21
76.86650374883683
 31
0.0
  0
LINE
  5
10A72
330
18
100
AcDbEntity
  8
01
100
AcDbLine
 10
433.6491145233464
 20
76.86638019004684
 30
0.0
 11
433.6872694177832
 21
76.27040310367104
 31
0.0
  0
LINE
  5
10A74
330
18
100
AcDbEntity
  8
01
100
AcDbLine
 10
360.5340687015872
 20
114.1328478322206
 30
0.0
 11
392.7732757150413
 21
112.8943424265321
 31
0.0
  0
LINE
  5
10A76
330
18
100
AcDbEntity
  8
01
100
AcDbLine
 10
419.946886417539
 20
62.08597525101183
 30
0.0
 11
419.93650033724
 21
62.08616426244626
 31
0.0
  0
LINE
  5
10A77
330
18
100
AcDbEntity
  8
01
100
AcDbLine
 10
419.93650033724
 20
62.08616426244626
 30
0.0
 11
419.926127010861
 21
62.08671243133713
 31
0.0
  0
LINE
  5
10A78
330
18
100
AcDbEntity
  8
01
100
AcDbLine
 10
419.926127010861
 20
62.08671243133713
 30
0.0
 11
419.9157788545808
 21
62.08761910156292
 31
0.0
  0
LINE
  5
10A79
330
18
100
AcDbEntity
  8
01
100
AcDbLine
 10
419.9157788545808
 20
62.08761910156292
 30
0.0
 11
419.9054682544513
 21
62.08888318789982
 31
0.0
  0
LINE
  5
10A7A
330
18
100
AcDbEntity
  8
01
100
AcDbLine
 10
419.9054682544513
 20
62.08888318789982
 30
0.0
 11
419.8952075515722
 21
62.09050317732104
 31
0.0
  0
LINE
  5
10A7B
330
18
100
AcDbEntity
  8
01
100
AcDbLine
 10
419.8952075515722
 20
62.09050317732104
 30
0.0
 11
419.8850090273196
 21
62.0924771308074
 31
0.0
  0
LINE
  5
10A7C
330
18
100
AcDbEntity
  8
01
100
AcDbLine
 10
419.8850090273196
 20
62.0924771308074
 30
0.0
 11
419.8748848886457
 21
62.09480268566838
 31
0.0
  0
LINE
  5
10A7D
330
18
100
AcDbEntity
  8
01
100
AcDbLine
 10
419.8748848886457
 20
62.09480268566838
 30
0.0
 11
419.8648472534686
 21
62.09747705837023
 31
0.0
  0
LINE
  5
10A7E
330
18
100
AcDbEntity
  8
01
100
AcDbLine
 10
419.8648472534686
 20
62.09747705837023
 30
0.0
 11
419.854908136167
 21
62.10049704786744
 31
0.0
  0
LINE
  5
10A7F
330
18
100
AcDbEntity
  8
01
100
AcDbLine
 10
419.854908136167
 20
62.10049704786744
 30
0.0
 11
419.8450794332005
 21
62.10385903943407
 31
0.0
  0
LINE
  5
10A80
330
18
100
AcDbEntity
  8
01
100
AcDbLine
 10
419.8450794332005
 20
62.10385903943407
 30
0.0
 11
419.8353729088701
 21
62.10755900899093
 31
0.0
  0
LINE
  5
10A81
330
18
100
AcDbEntity
  8
01
100
AcDbLine
 10
419.8353729088701
 20
62.10755900899093
 30
0.0
 11
419.8258001812372
 21
62.11159252792166
 31
0.0
  0
LINE
  5
10A82
330
18
100
AcDbEntity
  8
01
100
AcDbLine
 10
419.8258001812372
 20
62.11159252792166
 30
0.0
 11
419.8163727082174
 21
62.11595476837331
 31
0.0
  0
LINE
  5
10A83
330
18
100
AcDbEntity
  8
01
100
AcDbLine
 10
419.8163727082174
 20
62.11595476837331
 30
0.0
 11
419.8071017738662
 21
62.12064050903555
 31
0.0
  0
LINE
  5
10A84
330
18
100
AcDbEntity
  8
01
100
AcDbLine
 10
419.8071017738662
 20
62.12064050903555
 30
0.0
 11
419.7979984748728
 21
62.1256441413897
 31
0.0
  0
LINE
  5
10A85
330
18
100
AcDbEntity
  8
01
100
AcDbLine
 10
419.7979984748728
 20
62.1256441413897
 30
0.0
 11
419.7890737072782
 21
62.13095967642207
 31
0.0
  0
LINE
  5
10A86
330
18
100
AcDbEntity
  8
01
100
AcDbLine
 10
419.7890737072782
 20
62.13095967642207
 30
0.0
 11
419.780338153433
 21
62.1365807517922
 31
0.0
  0
LINE
  5
10A87
330
18
100
AcDbEntity
  8
01
100
AcDbLine
 10
419.780338153433
 20
62.1365807517922
 30
0.0
 11
419.7718022692119
 21
62.14250063944823
 31
0.0
  0
LINE
  5
10A88
330
18
100
AcDbEntity
  8
01
100
AcDbLine
 10
419.7718022692119
 20
62.14250063944823
 30
0.0
 11
419.763476271498
 21
62.14871225368009
 31
0.0
  0
LINE
  5
10A89
330
18
100
AcDbEntity
  8
01
100
AcDbLine
 10
419.763476271498
 20
62.14871225368009
 30
0.0
 11
419.7553701259545
 21
62.15520815960056
 31
0.0
  0
LINE
  5
10A8A
330
18
100
AcDbEntity
  8
01
100
AcDbLine
 10
419.7553701259545
 20
62.15520815960056
 30
0.0
 11
419.7474935350964
 21
62.16198058204392
 31
0.0
  0
LINE
  5
10A8B
330
18
100
AcDbEntity
  8
01
100
AcDbLine
 10
419.7474935350964
 20
62.16198058204392
 30
0.0
 11
419.7398559266767
 21
62.1690214148729
 31
0.0
  0
LINE
  5
10A8C
330
18
100
AcDbEntity
  8
01
100
AcDbLine
 10
419.7398559266767
 20
62.1690214148729
 30
0.0
 11
419.7324664424026
 21
62.17632223068088
 31
0.0
  0
LINE
  5
10A8D
330
18
100
AcDbEntity
  8
01
100
AcDbLine
 10
419.7324664424026
 20
62.17632223068088
 30
0.0
 11
419.7253339269934
 21
62.18387429087878
 31
0.0
  0
LINE
  5
10A8E
330
18
100
AcDbEntity
  8
01
100
AcDbLine
 10
419.7253339269934
 20
62.18387429087878
 30
0.0
 11
419.7184669175933
 21
62.19166855615529
 31
0.0
  0
LINE
  5
10A8F
330
18
100
AcDbEntity
  8
01
100
AcDbLine
 10
419.7184669175933
 20
62.19166855615529
 30
0.0
 11
419.7118736335543
 21
62.19969569729508
 31
0.0
  0
LINE
  5
10A90
330
18
100
AcDbEntity
  8
01
100
AcDbLine
 10
419.7118736335543
 20
62.19969569729508
 30
0.0
 11
419.705561966597
 21
62.20794610634655
 31
0.0
  0
LINE
  5
10A91
330
18
100
AcDbEntity
  8
01
100
AcDbLine
 10
419.705561966597
 20
62.20794610634655
 30
0.0
 11
419.6995394713648
 21
62.21640990812094
 31
0.0
  0
LINE
  5
10A92
330
18
100
AcDbEntity
  8
01
100
AcDbLine
 10
419.6995394713648
 20
62.21640990812094
 30
0.0
 11
419.6938133563827
 21
62.22507697201311
 31
0.0
  0
LINE
  5
10A93
330
18
100
AcDbEntity
  8
01
100
AcDbLine
 10
419.6938133563827
 20
62.22507697201311
 30
0.0
 11
419.6883904754277
 21
62.23393692412608
 31
0.0
  0
LINE
  5
10A94
330
18
100
AcDbEntity
  8
01
100
AcDbLine
 10
419.6883904754277
 20
62.23393692412608
 30
0.0
 11
419.6832773193261
 21
62.24297915968921
 31
0.0
  0
LINE
  5
10A95
330
18
100
AcDbEntity
  8
01
100
AcDbLine
 10
419.6832773193261
 20
62.24297915968921
 30
0.0
 11
419.6784800081842
 21
62.25219285575034
 31
0.0
  0
LINE
  5
10A96
330
18
100
AcDbEntity
  8
01
100
AcDbLine
 10
419.6784800081842
 20
62.25219285575034
 30
0.0
 11
419.6740042840632
 21
62.26156698413061
 31
0.0
  0
LINE
  5
10A97
330
18
100
AcDbEntity
  8
01
100
AcDbLine
 10
419.6740042840632
 20
62.26156698413061
 30
0.0
 11
419.6698555041058
 21
62.27109032462457
 31
0.0
  0
LINE
  5
10A98
330
18
100
AcDbEntity
  8
01
100
AcDbLine
 10
419.6698555041058
 20
62.27109032462457
 30
0.0
 11
419.6660386341247
 21
62.28075147842961
 31
0.0
  0
LINE
  5
10A99
330
18
100
AcDbEntity
  8
01
100
AcDbLine
 10
419.6660386341247
 20
62.28075147842961
 30
0.0
 11
419.6625582426581
 21
62.2905388817899
 31
0.0
  0
LINE
  5
10A9A
330
18
100
AcDbEntity
  8
01
100
AcDbLine
 10
419.6625582426581
 20
62.2905388817899
 30
0.0
 11
419.6594184955021
 21
62.30044081983735
 31
0.0
  0
LINE
  5
10A9B
330
18
100
AcDbEntity
  8
01
100
AcDbLine
 10
419.6594184955021
 20
62.30044081983735
 30
0.0
 11
419.6566231507247
 21
62.31044544061345
 31
0.0
  0
LINE
  5
10A9C
330
18
100
AcDbEntity
  8
01
100
AcDbLine
 10
419.6566231507247
 20
62.31044544061345
 30
0.0
 11
419.6541755541666
 21
62.32054076925525
 31
0.0
  0
LINE
  5
10A9D
330
18
100
AcDbEntity
  8
01
100
AcDbLine
 10
419.6541755541666
 20
62.32054076925525
 30
0.0
 11
419.6520786354374
 21
62.33071472232879
 31
0.0
  0
LINE
  5
10A9E
330
18
100
AcDbEntity
  8
01
100
AcDbLine
 10
419.6520786354374
 20
62.33071472232879
 30
0.0
 11
419.6503349044091
 21
62.3409551222916
 31
0.0
  0
LINE
  5
10A9F
330
18
100
AcDbEntity
  8
01
100
AcDbLine
 10
419.6503349044091
 20
62.3409551222916
 30
0.0
 11
419.6489464482108
 21
62.35124971206895
 31
0.0
  0
LINE
  5
10AA0
330
18
100
AcDbEntity
  8
01
100
AcDbLine
 10
419.6489464482108
 20
62.35124971206895
 30
0.0
 11
419.6479149287321
 21
62.36158616972435
 31
0.0
  0
LINE
  5
10AA1
330
18
100
AcDbEntity
  8
01
100
AcDbLine
 10
419.6479149287321
 20
62.36158616972435
 30
0.0
 11
419.647241580633
 21
62.3719521232085
 31
0.0
  0
LINE
  5
10AA2
330
18
100
AcDbEntity
  8
01
100
AcDbLine
 10
419.647241580633
 20
62.3719521232085
 30
0.0
 11
419.646927209866
 21
62.38233516516735
 31
0.0
  0
LINE
  5
10AA3
330
18
100
AcDbEntity
  8
01
100
AcDbLine
 10
419.646927209866
 20
62.38233516516735
 30
0.0
 11
419.6469721927119
 21
62.39272286779314
 31
0.0
  0
LINE
  5
10AA4
330
18
100
AcDbEntity
  8
01
100
AcDbLine
 10
419.6469721927119
 20
62.39272286779314
 30
0.0
 11
419.6473764753296
 21
62.40310279769957
 31
0.0
  0
LINE
  5
10AA5
330
18
100
AcDbEntity
  8
01
100
AcDbLine
 10
419.6473764753296
 20
62.40310279769957
 30
0.0
 11
419.6481395738193
 21
62.41346253080397
 31
0.0
  0
LINE
  5
10AA6
330
18
100
AcDbEntity
  8
01
100
AcDbLine
 10
419.6481395738193
 20
62.41346253080397
 30
0.0
 11
419.6492605748035
 21
62.42378966719744
 31
0.0
  0
LINE
  5
10AA7
330
18
100
AcDbEntity
  8
01
100
AcDbLine
 10
435.5582665208025
 20
62.42614781942532
 30
0.0
 11
435.5594617102222
 21
62.41578398985499
 31
0.0
  0
LINE
  5
10AA8
330
18
100
AcDbEntity
  8
01
100
AcDbLine
 10
435.5594617102222
 20
62.41578398985499
 30
0.0
 11
435.5602965059639
 21
62.4053849246479
 31
0.0
  0
LINE
  5
10AA9
330
18
100
AcDbEntity
  8
01
100
AcDbLine
 10
435.5602965059639
 20
62.4053849246479
 30
0.0
 11
435.5607699022826
 21
62.39496315238804
 31
0.0
  0
LINE
  5
10AAA
330
18
100
AcDbEntity
  8
01
100
AcDbLine
 10
435.5607699022826
 20
62.39496315238804
 30
0.0
 11
435.5608813288399
 21
62.38453122901623
 31
0.0
  0
LINE
  5
10AAB
330
18
100
AcDbEntity
  8
01
100
AcDbLine
 10
435.5608813288399
 20
62.38453122901623
 30
0.0
 11
435.5606306513912
 21
62.3741017227035
 31
0.0
  0
LINE
  5
10AAC
330
18
100
AcDbEntity
  8
01
100
AcDbLine
 10
435.5606306513912
 20
62.3741017227035
 30
0.0
 11
435.5600181719478
 21
62.36368719870839
 31
0.0
  0
LINE
  5
10AAD
330
18
100
AcDbEntity
  8
01
100
AcDbLine
 10
435.5600181719478
 20
62.36368719870839
 30
0.0
 11
435.5590446284126
 21
62.35330020423956
 31
0.0
  0
LINE
  5
10AAE
330
18
100
AcDbEntity
  8
01
100
AcDbLine
 10
435.5590446284126
 20
62.35330020423956
 30
0.0
 11
435.557711193691
 21
62.34295325333815
 31
0.0
  0
LINE
  5
10AAF
330
18
100
AcDbEntity
  8
01
100
AcDbLine
 10
435.557711193691
 20
62.34295325333815
 30
0.0
 11
435.5560194742786
 21
62.33265881180208
 31
0.0
  0
LINE
  5
10AB0
330
18
100
AcDbEntity
  8
01
100
AcDbLine
 10
435.5560194742786
 20
62.33265881180208
 30
0.0
 11
435.5539715083245
 21
62.32242928216661
 31
0.0
  0
LINE
  5
10AB1
330
18
100
AcDbEntity
  8
01
100
AcDbLine
 10
435.5539715083245
 20
62.32242928216661
 30
0.0
 11
435.5515697631769
 21
62.31227698876287
 31
0.0
  0
LINE
  5
10AB2
330
18
100
AcDbEntity
  8
01
100
AcDbLine
 10
435.5515697631769
 20
62.31227698876287
 30
0.0
 11
435.5488171324099
 21
62.30221416286886
 31
0.0
  0
LINE
  5
10AB3
330
18
100
AcDbEntity
  8
01
100
AcDbLine
 10
435.5488171324099
 20
62.30221416286886
 30
0.0
 11
435.5457169323373
 21
62.29225292797437
 31
0.0
  0
LINE
  5
10AB4
330
18
100
AcDbEntity
  8
01
100
AcDbLine
 10
435.5457169323373
 20
62.29225292797437
 30
0.0
 11
435.542272898018
 21
62.28240528517429
 31
0.0
  0
LINE
  5
10AB5
330
18
100
AcDbEntity
  8
01
100
AcDbLine
 10
435.542272898018
 20
62.28240528517429
 30
0.0
 11
435.5384891787547
 21
62.2726830987099
 31
0.0
  0
LINE
  5
10AB6
330
18
100
AcDbEntity
  8
01
100
AcDbLine
 10
435.5384891787547
 20
62.2726830987099
 30
0.0
 11
435.5343703330964
 21
62.26309808167528
 31
0.0
  0
LINE
  5
10AB7
330
18
100
AcDbEntity
  8
01
100
AcDbLine
 10
435.5343703330964
 20
62.26309808167528
 30
0.0
 11
435.5299213233448
 21
62.25366178190566
 31
0.0
  0
LINE
  5
10AB8
330
18
100
AcDbEntity
  8
01
100
AcDbLine
 10
435.5299213233448
 20
62.25366178190566
 30
0.0
 11
435.5251475095774
 21
62.24438556806453
 31
0.0
  0
LINE
  5
10AB9
330
18
100
AcDbEntity
  8
01
100
AcDbLine
 10
435.5251475095774
 20
62.24438556806453
 30
0.0
 11
435.5200546431887
 21
62.23528061594723
 31
0.0
  0
LINE
  5
10ABA
330
18
100
AcDbEntity
  8
01
100
AcDbLine
 10
435.5200546431887
 20
62.23528061594723
 30
0.0
 11
435.5146488599613
 21
62.22635789501649
 31
0.0
  0
LINE
  5
10ABB
330
18
100
AcDbEntity
  8
01
100
AcDbLine
 10
435.5146488599613
 20
62.22635789501649
 30
0.0
 11
435.5089366726737
 21
62.21762815518619
 31
0.0
  0
LINE
  5
10ABC
330
18
100
AcDbEntity
  8
01
100
AcDbLine
 10
435.5089366726737
 20
62.21762815518619
 30
0.0
 11
435.502924963254
 21
62.20910191387102
 31
0.0
  0
LINE
  5
10ABD
330
18
100
AcDbEntity
  8
01
100
AcDbLine
 10
435.502924963254
 20
62.20910191387102
 30
0.0
 11
435.4966209744886
 21
62.20078944331433
 31
0.0
  0
LINE
  5
10ABE
330
18
100
AcDbEntity
  8
01
100
AcDbLine
 10
435.4966209744886
 20
62.20078944331433
 30
0.0
 11
435.4900323012955
 21
62.19270075821308
 31
0.0
  0
LINE
  5
10ABF
330
18
100
AcDbEntity
  8
01
100
AcDbLine
 10
435.4900323012955
 20
62.19270075821308
 30
0.0
 11
435.4831668815757
 21
62.18484560365178
 31
0.0
  0
LINE
  5
10AC0
330
18
100
AcDbEntity
  8
01
100
AcDbLine
 10
435.4831668815757
 20
62.18484560365178
 30
0.0
 11
435.4760329866482
 21
62.17723344336221
 31
0.0
  0
LINE
  5
10AC1
330
18
100
AcDbEntity
  8
01
100
AcDbLine
 10
435.4760329866482
 20
62.17723344336221
 30
0.0
 11
435.4686392112856
 21
62.16987344832151
 31
0.0
  0
LINE
  5
10AC2
330
18
100
AcDbEntity
  8
01
100
AcDbLine
 10
435.4686392112856
 20
62.16987344832151
 30
0.0
 11
435.4609944633593
 21
62.16277448570318
 31
0.0
  0
LINE
  5
10AC3
330
18
100
AcDbEntity
  8
01
100
AcDbLine
 10
435.4609944633593
 20
62.16277448570318
 30
0.0
 11
435.4531079531075
 21
62.15594510819417
 31
0.0
  0
LINE
  5
10AC4
330
18
100
AcDbEntity
  8
01
100
AcDbLine
 10
435.4531079531075
 20
62.15594510819417
 30
0.0
 11
435.4449891820386
 21
62.14939354369088
 31
0.0
  0
LINE
  5
10AC5
330
18
100
AcDbEntity
  8
01
100
AcDbLine
 10
435.4449891820386
 20
62.14939354369088
 30
0.0
 11
435.4366479314841
 21
62.14312768538579
 31
0.0
  0
LINE
  5
10AC6
330
18
100
AcDbEntity
  8
01
100
AcDbLine
 10
435.4366479314841
 20
62.14312768538579
 30
0.0
 11
435.4280942508145
 21
62.13715508225872
 31
0.0
  0
LINE
  5
10AC7
330
18
100
AcDbEntity
  8
01
100
AcDbLine
 10
435.4280942508145
 20
62.13715508225872
 30
0.0
 11
435.4193384453316
 21
62.13148292998133
 31
0.0
  0
LINE
  5
10AC8
330
18
100
AcDbEntity
  8
01
100
AcDbLine
 10
435.4193384453316
 20
62.13148292998133
 30
0.0
 11
435.4103910638532
 21
62.12611806224842
 31
0.0
  0
LINE
  5
10AC9
330
18
100
AcDbEntity
  8
01
100
AcDbLine
 10
435.4103910638532
 20
62.12611806224842
 30
0.0
 11
435.4012628860041
 21
62.12106694254422
 31
0.0
  0
LINE
  5
10ACA
330
18
100
AcDbEntity
  8
01
100
AcDbLine
 10
435.4012628860041
 20
62.12106694254422
 30
0.0
 11
435.3919649092287
 21
62.11633565635591
 31
0.0
  0
LINE
  5
10ACB
330
18
100
AcDbEntity
  8
01
100
AcDbLine
 10
435.3919649092287
 20
62.11633565635591
 30
0.0
 11
435.3825083355418
 21
62.11192990384168
 31
0.0
  0
LINE
  5
10ACC
330
18
100
AcDbEntity
  8
01
100
AcDbLine
 10
435.3825083355418
 20
62.11192990384168
 30
0.0
 11
435.3729045580328
 21
62.10785499296318
 31
0.0
  0
LINE
  5
10ACD
330
18
100
AcDbEntity
  8
01
100
AcDbLine
 10
435.3729045580328
 20
62.10785499296318
 30
0.0
 11
435.3631651471388
 21
62.1041158330909
 31
0.0
  0
LINE
  5
10ACE
330
18
100
AcDbEntity
  8
01
100
AcDbLine
 10
435.3631651471388
 20
62.1041158330909
 30
0.0
 11
435.3533018367058
 21
62.10071692908915
 31
0.0
  0
LINE
  5
10ACF
330
18
100
AcDbEntity
  8
01
100
AcDbLine
 10
435.3533018367058
 20
62.10071692908915
 30
0.0
 11
435.3433265098511
 21
62.09766237588886
 31
0.0
  0
LINE
  5
10AD0
330
18
100
AcDbEntity
  8
01
100
AcDbLine
 10
435.3433265098511
 20
62.09766237588886
 30
0.0
 11
435.3332511846472
 21
62.09495585355424
 31
0.0
  0
LINE
  5
10AD1
330
18
100
AcDbEntity
  8
01
100
AcDbLine
 10
435.3332511846472
 20
62.09495585355424
 30
0.0
 11
435.3230879996427
 21
62.09260062284883
 31
0.0
  0
LINE
  5
10AD2
330
18
100
AcDbEntity
  8
01
100
AcDbLine
 10
435.3230879996427
 20
62.09260062284883
 30
0.0
 11
435.3128491992378
 21
62.09059952130693
 31
0.0
  0
LINE
  5
10AD3
330
18
100
AcDbEntity
  8
01
100
AcDbLine
 10
435.3128491992378
 20
62.09059952130693
 30
0.0
 11
435.3025471189328
 21
62.08895495981531
 31
0.0
  0
LINE
  5
10AD4
330
18
100
AcDbEntity
  8
01
100
AcDbLine
 10
435.3025471189328
 20
62.08895495981531
 30
0.0
 11
435.292194170466
 21
62.08766891970848
 31
0.0
  0
LINE
  5
10AD5
330
18
100
AcDbEntity
  8
01
100
AcDbLine
 10
435.292194170466
 20
62.08766891970848
 30
0.0
 11
435.2818028268611
 21
62.08674295038159
 31
0.0
  0
LINE
  5
10AD6
330
18
100
AcDbEntity
  8
01
100
AcDbLine
 10
435.2818028268611
 20
62.08674295038159
 30
0.0
 11
435.2713856073989
 21
62.08617816742392
 31
0.0
  0
LINE
  5
10AD7
330
18
100
AcDbEntity
  8
01
100
AcDbLine
 10
435.2713856073989
 20
62.08617816742392
 30
0.0
 11
435.2609550625355
 21
62.08597525127456
 31
0.0
  0
LINE
  5
10AD8
330
18
100
AcDbEntity
  8
01
100
AcDbLine
 10
422.6039053935975
 20
60.08597525071733
 30
0.0
 11
421.854930892546
 21
62.08324058363442
 31
0.0
  0
LINE
  5
10AD9
330
18
100
AcDbEntity
  8
01
100
AcDbLine
 10
419.6504420574822
 20
62.43037864992962
 30
0.0
 11
421.5212333185435
 21
76.27552399915706
 31
0.0
  0
LINE
  5
10ADA
330
18
100
AcDbEntity
  8
01
100
AcDbLine
 10
433.6872694177832
 20
76.27040310367104
 30
0.0
 11
435.5578071489339
 21
62.42713405249677
 31
0.0
  0
LINE
  5
10ADD
330
18
100
AcDbEntity
  8
01
100
AcDbLine
 10
360.5340687015955
 20
127.6282798002114
 30
0.0
 11
392.7732780867477
 21
128.8667852975909
 31
0.0
  0
LINE
  5
10B60
330
18
100
AcDbEntity
  8
01
100
AcDbLine
 10
373.1380415409944
 20
62.08597525096451
 30
0.0
 11
389.1378431696661
 21
62.08597525110952
 31
0.0
  0
LINE
  5
10B65
330
18
100
AcDbEntity
  8
01
100
AcDbLine
 10
372.0791950733653
 20
69.92216924542635
 30
0.0
 11
373.1380415409944
 21
62.08597525096451
 31
0.0
  0
ARC
  5
10B66
330
18
100
AcDbEntity
  8
01
100
AcDbCircle
 10
366.1332305556941
 20
69.11873539340553
 30
0.0
 40
6.0
100
AcDbArc
 50
7.69534323855619
 51
87.80000000052152
  0
LINE
  5
10B67
330
18
100
AcDbEntity
  8
01
100
AcDbLine
 10
389.1378431696661
 20
62.08597525110952
 30
0.0
 11
384.7149402886054
 21
72.99730833291517
 31
0.0
  0
ARC
  5
10B69
330
18
100
AcDbEntity
  8
01
100
AcDbCircle
 10
385.6416914688501
 20
73.37298405733043
 30
0.0
 40
1.0
100
AcDbArc
 50
87.80000000050897
 51
202.0660779989679
  0
LINE
  5
10B6A
330
18
100
AcDbEntity
  8
01
100
AcDbLine
 10
383.3018055325654
 20
128.5029280282791
 30
0.0
 11
383.0379980600639
 21
128.5769135940546
 31
0.0
  0
LINE
  5
10B6B
330
18
100
AcDbEntity
  8
01
100
AcDbLine
 10
383.0379980600639
 20
128.5769135940546
 30
0.0
 11
382.7717860252649
 21
128.641716364203
 31
0.0
  0
LINE
  5
10B6C
330
18
100
AcDbEntity
  8
01
100
AcDbLine
 10
382.7717860252649
 20
128.641716364203
 30
0.0
 11
382.5034889668678
 21
128.6972585548894
 31
0.0
  0
LINE
  5
10B6D
330
18
100
AcDbEntity
  8
01
100
AcDbLine
 10
382.5034889668678
 20
128.6972585548894
 30
0.0
 11
382.2334289262607
 21
128.7434734979057
 31
0.0
  0
LINE
  5
10B6E
330
18
100
AcDbEntity
  8
01
100
AcDbLine
 10
382.2334289262607
 20
128.7434734979057
 30
0.0
 11
381.9619300609679
 21
128.7803057206929
 31
0.0
  0
LINE
  5
10B6F
330
18
100
AcDbEntity
  8
01
100
AcDbLine
 10
381.9619300609679
 20
128.7803057206929
 30
0.0
 11
381.6893182555589
 21
128.8077110129262
 31
0.0
  0
LINE
  5
10B70
330
18
100
AcDbEntity
  8
01
100
AcDbLine
 10
381.6893182555589
 20
128.8077110129262
 30
0.0
 11
381.4159207304837
 21
128.8256564795806
 31
0.0
  0
LINE
  5
10B71
330
18
100
AcDbEntity
  8
01
100
AcDbLine
 10
381.4159207304837
 20
128.8256564795806
 30
0.0
 11
381.1420656493042
 21
128.8341205804164
 31
0.0
  0
LINE
  5
10B72
330
18
100
AcDbEntity
  8
01
100
AcDbLine
 10
381.1420656493042
 20
128.8341205804164
 30
0.0
 11
380.868081724795
 21
128.8330931558339
 31
0.0
  0
LINE
  5
10B73
330
18
100
AcDbEntity
  8
01
100
AcDbLine
 10
380.868081724795
 20
128.8330931558339
 30
0.0
 11
380.5942978243831
 21
128.8225754390675
 31
0.0
  0
LINE
  5
10B74
330
18
100
AcDbEntity
  8
01
100
AcDbLine
 10
380.5942978243831
 20
128.8225754390675
 30
0.0
 11
380.3210425754034
 21
128.8025800547063
 31
0.0
  0
LINE
  5
10B75
330
18
100
AcDbEntity
  8
01
100
AcDbLine
 10
380.3210425754034
 20
128.8025800547063
 30
0.0
 11
380.0486439706416
 21
128.7731310035402
 31
0.0
  0
LINE
  5
10B76
330
18
100
AcDbEntity
  8
01
100
AcDbLine
 10
380.0486439706416
 20
128.7731310035402
 30
0.0
 11
379.7774289746395
 21
128.7342636337516
 31
0.0
  0
LINE
  5
10B77
330
18
100
AcDbEntity
  8
01
100
AcDbLine
 10
379.7774289746395
 20
128.7342636337516
 30
0.0
 11
379.5077231312335
 21
128.6860245984857
 31
0.0
  0
LINE
  5
10B78
330
18
100
AcDbEntity
  8
01
100
AcDbLine
 10
379.5077231312335
 20
128.6860245984857
 30
0.0
 11
379.2398501727993
 21
128.6284717998531
 31
0.0
  0
LINE
  5
10B79
330
18
100
AcDbEntity
  8
01
100
AcDbLine
 10
379.2398501727993
 20
128.6284717998531
 30
0.0
 11
378.9741316316706
 21
128.5616743194279
 31
0.0
  0
LINE
  5
10B7A
330
18
100
AcDbEntity
  8
01
100
AcDbLine
 10
378.9741316316706
 20
128.5616743194279
 30
0.0
 11
378.7108864541984
 21
128.4857123353282
 31
0.0
  0
LINE
  5
10B7B
330
18
100
AcDbEntity
  8
01
100
AcDbLine
 10
378.7108864541984
 20
128.4857123353282
 30
0.0
 11
378.4504306179144
 21
128.4006770259776
 31
0.0
  0
LINE
  5
10B7C
330
18
100
AcDbEntity
  8
01
100
AcDbLine
 10
378.4504306179144
 20
128.4006770259776
 30
0.0
 11
378.1930767522581
 21
128.3066704606617
 31
0.0
  0
LINE
  5
10B7E
330
18
100
AcDbEntity
  8
01
100
AcDbLine
 10
378.192703561125
 20
113.4544715087066
 30
0.0
 11
378.4501312821274
 21
113.3604854552948
 31
0.0
  0
LINE
  5
10B7F
330
18
100
AcDbEntity
  8
01
100
AcDbLine
 10
378.4501312821274
 20
113.3604854552948
 30
0.0
 11
378.7106586813556
 21
113.2754684921183
 31
0.0
  0
LINE
  5
10B80
330
18
100
AcDbEntity
  8
01
100
AcDbLine
 10
378.7106586813556
 20
113.2754684921183
 30
0.0
 11
378.9739733698229
 21
113.1995225599443
 31
0.0
  0
LINE
  5
10B81
330
18
100
AcDbEntity
  8
01
100
AcDbLine
 10
378.9739733698229
 20
113.1995225599443
 30
0.0
 11
379.2397596164046
 21
113.1327387227949
 31
0.0
  0
LINE
  5
10B82
330
18
100
AcDbEntity
  8
01
100
AcDbLine
 10
379.2397596164046
 20
113.1327387227949
 30
0.0
 11
379.5076987264201
 21
113.075197058755
 31
0.0
  0
LINE
  5
10B83
330
18
100
AcDbEntity
  8
01
100
AcDbLine
 10
379.5076987264201
 20
113.075197058755
 30
0.0
 11
379.7774694237681
 21
113.0269665639539
 31
0.0
  0
LINE
  5
10B84
330
18
100
AcDbEntity
  8
01
100
AcDbLine
 10
379.7774694237681
 20
113.0269665639539
 30
0.0
 11
380.0487482361571
 21
112.9881050698346
 31
0.0
  0
LINE
  5
10B85
330
18
100
AcDbEntity
  8
01
100
AcDbLine
 10
380.0487482361571
 20
112.9881050698346
 30
0.0
 11
380.3212098829695
 21
112.95865917381
 31
0.0
  0
LINE
  5
10B86
330
18
100
AcDbEntity
  8
01
100
AcDbLine
 10
380.3212098829695
 20
112.95865917381
 30
0.0
 11
380.5945276652934
 21
112.9386641833893
 31
0.0
  0
LINE
  5
10B87
330
18
100
AcDbEntity
  8
01
100
AcDbLine
 10
380.5945276652934
 20
112.9386641833893
 30
0.0
 11
380.868373857656
 21
112.928144073843
 31
0.0
  0
LINE
  5
10B88
330
18
100
AcDbEntity
  8
01
100
AcDbLine
 10
380.868373857656
 20
112.928144073843
 30
0.0
 11
381.1424201009872
 21
112.927111459454
 31
0.0
  0
LINE
  5
10B89
330
18
100
AcDbEntity
  8
01
100
AcDbLine
 10
381.1424201009872
 20
112.927111459454
 30
0.0
 11
381.4163377963427
 21
112.935567578393
 31
0.0
  0
LINE
  5
10B8A
330
18
100
AcDbEntity
  8
01
100
AcDbLine
 10
381.4163377963427
 20
112.935567578393
 30
0.0
 11
381.6897984989157
 21
112.9535022912335
 31
0.0
  0
LINE
  5
10B8B
330
18
100
AcDbEntity
  8
01
100
AcDbLine
 10
381.6897984989157
 20
112.9535022912335
 30
0.0
 11
381.9624743118628
 21
112.9808940931096
 31
0.0
  0
LINE
  5
10B8C
330
18
100
AcDbEntity
  8
01
100
AcDbLine
 10
381.9624743118628
 20
112.9808940931096
 30
0.0
 11
382.2340382794735
 21
113.0177101395017
 31
0.0
  0
LINE
  5
10B8D
330
18
100
AcDbEntity
  8
01
100
AcDbLine
 10
382.2340382794735
 20
113.0177101395017
 30
0.0
 11
382.5041647792106
 21
113.0639062856195
 31
0.0
  0
LINE
  5
10B8E
330
18
100
AcDbEntity
  8
01
100
AcDbLine
 10
382.5041647792106
 20
113.0639062856195
 30
0.0
 11
382.772529912153
 21
113.1194271393342
 31
0.0
  0
LINE
  5
10B8F
330
18
100
AcDbEntity
  8
01
100
AcDbLine
 10
382.772529912153
 20
113.1194271393342
 30
0.0
 11
383.0388118913706
 21
113.1842061275969
 31
0.0
  0
LINE
  5
10B90
330
18
100
AcDbEntity
  8
01
100
AcDbLine
 10
383.0388118913706
 20
113.1842061275969
 30
0.0
 11
383.3026914277677
 21
113.2581655762645
 31
0.0
  0
LINE
  5
10ECE
330
18
100
AcDbEntity
  8
1CENTER
100
AcDbLine
 10
381.0741321333214
 20
58.66331578736714
 30
0.0
 11
381.0741321332331
 21
68.40617831482774
 31
0.0
  0
LINE
  5
10ECF
330
18
100
AcDbEntity
  8
1CENTER
100
AcDbLine
 10
396.9794302059689
 20
120.8805638165446
 30
0.0
 11
356.142519314223
 21
120.8805638161745
 31
0.0
  0
LINE
  5
10ED1
330
18
100
AcDbEntity
  8
1CENTER
100
AcDbLine
 10
437.1159653753296
 20
82.08596876661906
 30
0.0
 11
418.0918454125297
 21
82.08596876644665
 31
0.0
  0
LINE
  5
10ED2
330
18
100
AcDbEntity
  8
1CENTER
100
AcDbLine
 10
427.6039053941364
 20
59.26653944779937
 30
0.0
 11
427.6039053938283
 21
93.27538441601283
 31
0.0
  0
CIRCLE
  5
10ED3
330
18
100
AcDbEntity
  8
01
100
AcDbCircle
 10
427.6268004027236
 20
82.08596876653306
 30
0.0
 40
8.00948482803419
  0
CIRCLE
  5
10ED4
330
18
100
AcDbEntity
  8
01
100
AcDbCircle
 10
427.6039053939296
 20
82.08596876653283
 30
0.0
 40
7.660696674406191
  0
LINE
  5
10ED5
330
18
100
AcDbEntity
  8
1CENTER
100
AcDbLine
 10
381.0741321328504
 20
110.6407611497472
 30
0.0
 11
381.0741321326648
 21
131.1203664830538
 31
0.0
  0
ARC
  5
10EDC
330
18
100
AcDbEntity
  8
01
100
AcDbCircle
 10
372.6380415404619
 20
120.8805702926351
 30
0.0
 40
22.0
100
AcDbArc
 50
339.6218990898802
 51
20.37806460700159
  0
ARC
  5
10EDE
330
18
100
AcDbEntity
  8
01
100
AcDbCircle
 10
392.7924672477255
 20
113.3939739758574
 30
0.0
 40
0.5
100
AcDbArc
 50
267.8000000005188
 51
339.621899089883
  0
ARC
  5
10EDF
330
18
100
AcDbEntity
  8
01
100
AcDbCircle
 10
392.7924719912959
 20
128.3671538393868
 30
0.0
 40
0.5
100
AcDbArc
 50
20.37806460701009
 51
92.20000000051758
  0
ARC
  5
10EE1
330
18
100
AcDbEntity
  8
01
100
AcDbCircle
 10
373.6380415404634
 20
120.8805638163331
 30
0.0
 40
15.0
100
AcDbArc
 50
154.475158849984
 51
205.5248411510608
  0
ARC
  5
10EE3
330
18
100
AcDbEntity
  8
01
100
AcDbCircle
 10
360.5532626061437
 20
127.1286483420083
 30
0.0
 40
0.5
100
AcDbArc
 50
92.20000000051758
 51
154.4751588499752
  0
ARC
  5
10EE4
330
18
100
AcDbEntity
  8
01
100
AcDbCircle
 10
360.5532626062577
 20
114.6324792904191
 30
0.0
 40
0.5
100
AcDbArc
 50
205.5248411510476
 51
267.8000000005123
  0
LINE
  5
10F04
330
18
100
AcDbEntity
  8
1CENTER
100
AcDbLine
 10
422.6039053941344
 20
59.49047529814621
 30
0.0
 11
422.6039053941049
 21
62.74579424118625
 31
0.0
  0
LINE
  5
10F6F
330
18
100
AcDbEntity
  8
1CENTER
100
AcDbLine
 10
424.3415114271353
 20
64.58597525104952
 30
0.0
 11
430.8662993610411
 21
64.58597525110864
 31
0.0
  0
TEXT
  5
113C5
330
18
100
AcDbEntity
  8
1TEXT
100
AcDbText
 10
440.1222196391404
 20
130.8984374052368
 30
0.0
 40
4.0
  1
PC-457-X
100
AcDbText
  0
TEXT
  5
113C6
330
18
100
AcDbEntity
  8
1TEXT
100
AcDbText
 10
445.1165084716039
 20
123.0406380986238
 30
0.0
 40
2.0
  1
Finish
 72
     1
 11
449.4373418049372
 21
123.0406380986238
 31
0.0
100
AcDbText
  0
TEXT
  5
113C7
330
18
100
AcDbEntity
  8
1TEXT
100
AcDbText
 10
443.7706751382705
 20
119.6229937688616
 30
0.0
 40
2.0
  1
Chrome
 72
     1
 11
449.4373418049372
 21
119.6229937688616
 31
0.0
100
AcDbText
  0
LINE
  5
113C8
330
18
100
AcDbEntity
  8
1DIM
100
AcDbLine
 10
440.7373418049374
 20
125.7906380986238
 30
0.0
 11
475.7373418049374
 21
125.7906380986238
 31
0.0
  0
LINE
  5
113C9
330
18
100
AcDbEntity
  8
1DIM
100
AcDbLine
 10
440.7373418049374
 20
118.7906380986238
 30
0.0
 11
475.7373418049374
 21
118.7906380986238
 31
0.0
  0
LINE
  5
113CA
330
18
100
AcDbEntity
  8
1DIM
100
AcDbLine
 10
440.7373418049374
 20
122.2906380986238
 30
0.0
 11
475.7373418049374
 21
122.2906380986238
 31
0.0
  0
LINE
  5
113CB
330
18
100
AcDbEntity
  8
1DIM
100
AcDbLine
 10
440.7373418049374
 20
115.2906380986238
 30
0.0
 11
475.7373418049374
 21
115.2906380986238
 31
0.0
  0
LINE
  5
113CC
330
18
100
AcDbEntity
  8
1DIM
100
AcDbLine
 10
440.7373418049374
 20
115.2906380986238
 30
0.0
 11
475.7373418049374
 21
115.2906380986238
 31
0.0
  0
LINE
  5
113CD
330
18
100
AcDbEntity
  8
1DIM
100
AcDbLine
 10
458.2373418049374
 20
125.7906380986238
 30
0.0
 11
458.2373418049374
 21
83.79063809862384
 31
0.0
  0
TEXT
  5
113CE
330
18
100
AcDbEntity
  8
1TEXT
100
AcDbText
 10
459.9984529160488
 20
119.4334596067991
 30
0.0
 40
2.0
  1
PC-457-XC
 41
0.8
 72
     1
 11
466.9373418049377
 21
119.4334596067991
 31
0.0
100
AcDbText
  0
TEXT
  5
113CF
330
18
100
AcDbEntity
  8
1TEXT
100
AcDbText
 10
463.2706751382705
 20
123.0406380986238
 30
0.0
 40
2.0
  1
Code
 72
     1
 11
466.9373418049372
 21
123.0406380986238
 31
0.0
100
AcDbText
  0
LINE
  5
113D0
330
18
100
AcDbEntity
  8
1DIM
100
AcDbLine
 10
440.7373418049374
 20
83.79063809862384
 30
0.0
 11
440.7373418049374
 21
125.7906380986238
 31
0.0
  0
LINE
  5
113D1
330
18
100
AcDbEntity
  8
1DIM
100
AcDbLine
 10
475.7373418049374
 20
83.79063809862384
 30
0.0
 11
475.7373418049374
 21
125.7906380986238
 31
0.0
  0
TEXT
  5
113D2
330
18
100
AcDbEntity
  8
1TEXT
100
AcDbText
 10
442.0400269901224
 20
116.1229937688616
 30
0.0
 40
2.0
  1
Mirror Nickel
 41
0.7
 72
     1
 11
449.4373418049372
 21
116.1229937688616
 31
0.0
100
AcDbText
  0
TEXT
  5
113D3
330
18
100
AcDbEntity
  8
1TEXT
100
AcDbText
 10
459.9984529160488
 20
115.9334596067991
 30
0.0
 40
2.0
  1
PC-457-XD
 41
0.8
 72
     1
 11
466.9373418049377
 21
115.9334596067991
 31
0.0
100
AcDbText
  0
LINE
  5
113D4
330
18
100
AcDbEntity
  8
1DIM
100
AcDbLine
 10
440.7373418049374
 20
111.7906380986238
 30
0.0
 11
475.7373418049374
 21
111.7906380986238
 31
0.0
  0
LINE
  5
113D5
330
18
100
AcDbEntity
  8
1DIM
100
AcDbLine
 10
440.7373418049374
 20
111.7906380986238
 30
0.0
 11
475.7373418049374
 21
111.7906380986238
 31
0.0
  0
TEXT
  5
113D6
330
18
100
AcDbEntity
  8
1TEXT
100
AcDbText
 10
443.3706751382705
 20
112.6229937688616
 30
0.0
 40
2.0
  1
Champagne
 41
0.7
 72
     1
 11
449.4373418049372
 21
112.6229937688616
 31
0.0
100
AcDbText
  0
TEXT
  5
113D7
330
18
100
AcDbEntity
  8
1TEXT
100
AcDbText
 10
459.9962306938265
 20
112.4334596067991
 30
0.0
 40
2.0
  1
PC-457-RQ
 41
0.8
 72
     1
 11
466.9373418049377
 21
112.4334596067991
 31
0.0
100
AcDbText
  0
LINE
  5
113D8
330
18
100
AcDbEntity
  8
1DIM
100
AcDbLine
 10
440.7373418049374
 20
108.2906380986238
 30
0.0
 11
475.7373418049374
 21
108.2906380986238
 31
0.0
  0
LINE
  5
113D9
330
18
100
AcDbEntity
  8
1DIM
100
AcDbLine
 10
440.7373418049374
 20
108.2906380986238
 30
0.0
 11
475.7373418049374
 21
108.2906380986238
 31
0.0
  0
TEXT
  5
113DA
330
18
100
AcDbEntity
  8
1TEXT
100
AcDbText
 10
443.9945177308632
 20
109.1229937688616
 30
0.0
 40
2.0
  1
Rose Gold
 41
0.7
 72
     1
 11
449.4373418049372
 21
109.1229937688616
 31
0.0
100
AcDbText
  0
TEXT
  5
113DB
330
18
100
AcDbEntity
  8
1TEXT
100
AcDbText
 10
459.9962306938265
 20
108.9334596067991
 30
0.0
 40
2.0
  1
PC-457-JQ
 41
0.8
 72
     1
 11
466.9373418049377
 21
108.9334596067991
 31
0.0
100
AcDbText
  0
LINE
  5
113DC
330
18
100
AcDbEntity
  8
1DIM
100
AcDbLine
 10
440.7373418049374
 20
104.7906380986238
 30
0.0
 11
475.7373418049374
 21
104.7906380986238
 31
0.0
  0
LINE
  5
113DD
330
18
100
AcDbEntity
  8
1DIM
100
AcDbLine
 10
440.7373418049374
 20
104.7906380986238
 30
0.0
 11
475.7373418049374
 21
104.7906380986238
 31
0.0
  0
TEXT
  5
113DE
330
18
100
AcDbEntity
  8
1TEXT
100
AcDbText
 10
447.2148418049372
 20
105.6229937688616
 30
0.0
 40
2.0
  1
Gold
 41
0.7
 72
     1
 11
449.4373418049372
 21
105.6229937688616
 31
0.0
100
AcDbText
  0
TEXT
  5
113DF
330
18
100
AcDbEntity
  8
1TEXT
100
AcDbText
 10
459.9984529160488
 20
105.4334596067991
 30
0.0
 40
2.0
  1
PC-457-XG
 41
0.8
 72
     1
 11
466.9373418049377
 21
105.4334596067991
 31
0.0
100
AcDbText
  0
LINE
  5
113E0
330
18
100
AcDbEntity
  8
1DIM
100
AcDbLine
 10
440.7373418049374
 20
101.2906380986238
 30
0.0
 11
475.7373418049374
 21
101.2906380986238
 31
0.0
  0
LINE
  5
113E1
330
18
100
AcDbEntity
  8
1DIM
100
AcDbLine
 10
440.7373418049374
 20
101.2906380986238
 30
0.0
 11
475.7373418049374
 21
101.2906380986238
 31
0.0
  0
TEXT
  5
113E2
330
18
100
AcDbEntity
  8
1TEXT
100
AcDbText
 10
442.370906619752
 20
102.1229937688616
 30
0.0
 40
2.0
  1
Mirror Black
 41
0.7
 72
     1
 11
449.4373418049372
 21
102.1229937688616
 31
0.0
100
AcDbText
  0
TEXT
  5
113E3
330
18
100
AcDbEntity
  8
1TEXT
100
AcDbText
 10
459.9962306938265
 20
101.9334596067991
 30
0.0
 40
2.0
  1
PC-457-8Q
 41
0.8
 72
     1
 11
466.9373418049377
 21
101.9334596067991
 31
0.0
100
AcDbText
  0
LINE
  5
113E4
330
18
100
AcDbEntity
  8
1DIM
100
AcDbLine
 10
440.7373418049374
 20
97.79063809862384
 30
0.0
 11
475.7373418049374
 21
97.79063809862384
 31
0.0
  0
LINE
  5
113E5
330
18
100
AcDbEntity
  8
1DIM
100
AcDbLine
 10
440.7373418049374
 20
97.79063809862384
 30
0.0
 11
475.7373418049374
 21
97.79063809862384
 31
0.0
  0
TEXT
  5
113E6
330
18
100
AcDbEntity
  8
1TEXT
100
AcDbText
 10
442.7400269901224
 20
98.62299376886165
 30
0.0
 40
2.0
  1
Satin Nickel
 41
0.7
 72
     1
 11
449.4373418049372
 21
98.62299376886165
 31
0.0
100
AcDbText
  0
TEXT
  5
113E7
330
18
100
AcDbEntity
  8
1TEXT
100
AcDbText
 10
459.9984529160488
 20
98.43345960679915
 30
0.0
 40
2.0
  1
PC-457-XN
 41
0.8
 72
     1
 11
466.9373418049377
 21
98.43345960679915
 31
0.0
100
AcDbText
  0
LINE
  5
113E8
330
18
100
AcDbEntity
  8
1DIM
100
AcDbLine
 10
440.7373418049374
 20
94.29063809862384
 30
0.0
 11
475.7373418049374
 21
94.29063809862384
 31
0.0
  0
LINE
  5
113E9
330
18
100
AcDbEntity
  8
1DIM
100
AcDbLine
 10
440.7373418049374
 20
94.29063809862384
 30
0.0
 11
475.7373418049374
 21
94.29063809862384
 31
0.0
  0
TEXT
  5
113EA
330
18
100
AcDbEntity
  8
1TEXT
100
AcDbText
 10
441.2812306938261
 20
95.12299376886165
 30
0.0
 40
2.0
  1
Satin Champagne
 41
0.6
 72
     1
 11
449.4373418049372
 21
95.12299376886165
 31
0.0
100
AcDbText
  0
TEXT
  5
113EB
330
18
100
AcDbEntity
  8
1TEXT
100
AcDbText
 10
459.9962306938265
 20
94.93345960679915
 30
0.0
 40
2.0
  1
PC-457-UQ
 41
0.8
 72
     1
 11
466.9373418049377
 21
94.93345960679915
 31
0.0
100
AcDbText
  0
LINE
  5
113EC
330
18
100
AcDbEntity
  8
1DIM
100
AcDbLine
 10
440.7373418049374
 20
90.79063809862384
 30
0.0
 11
475.7373418049374
 21
90.79063809862384
 31
0.0
  0
LINE
  5
113ED
330
18
100
AcDbEntity
  8
1DIM
100
AcDbLine
 10
440.7373418049374
 20
90.79063809862384
 30
0.0
 11
475.7373418049374
 21
90.79063809862384
 31
0.0
  0
TEXT
  5
113EE
330
18
100
AcDbEntity
  8
1TEXT
100
AcDbText
 10
440.5457214345668
 20
91.62299376886165
 30
0.0
 40
2.0
  1
Satin Rose Gold
 41
0.7
 72
     1
 11
449.4373418049372
 21
91.62299376886165
 31
0.0
100
AcDbText
  0
TEXT
  5
113EF
330
18
100
AcDbEntity
  8
1TEXT
100
AcDbText
 10
459.9962306938265
 20
91.43345960679915
 30
0.0
 40
2.0
  1
PC-457-TQ
 41
0.8
 72
     1
 11
466.9373418049377
 21
91.43345960679915
 31
0.0
100
AcDbText
  0
LINE
  5
113F0
330
18
100
AcDbEntity
  8
1DIM
100
AcDbLine
 10
440.7373418049374
 20
87.29063809862384
 30
0.0
 11
475.7373418049374
 21
87.29063809862384
 31
0.0
  0
LINE
  5
113F1
330
18
100
AcDbEntity
  8
1DIM
100
AcDbLine
 10
440.7373418049374
 20
87.29063809862384
 30
0.0
 11
475.7373418049374
 21
87.29063809862384
 31
0.0
  0
TEXT
  5
113F2
330
18
100
AcDbEntity
  8
1TEXT
100
AcDbText
 10
443.7660455086409
 20
88.12299376886165
 30
0.0
 40
2.0
  1
Satin Gold
 41
0.7
 72
     1
 11
449.4373418049372
 21
88.12299376886165
 31
0.0
100
AcDbText
  0
TEXT
  5
113F3
330
18
100
AcDbEntity
  8
1TEXT
100
AcDbText
 10
459.9984529160488
 20
87.93345960679915
 30
0.0
 40
2.0
  1
PC-457-XH
 41
0.8
 72
     1
 11
466.9373418049377
 21
87.93345960679915
 31
0.0
100
AcDbText
  0
LINE
  5
113F4
330
18
100
AcDbEntity
  8
1DIM
100
AcDbLine
 10
440.7373418049374
 20
83.79063809862384
 30
0.0
 11
475.7373418049374
 21
83.79063809862384
 31
0.0
  0
LINE
  5
113F5
330
18
100
AcDbEntity
  8
1DIM
100
AcDbLine
 10
440.7373418049374
 20
83.79063809862384
 30
0.0
 11
475.7373418049374
 21
83.79063809862384
 31
0.0
  0
TEXT
  5
113F6
330
18
100
AcDbEntity
  8
1TEXT
100
AcDbText
 10
442.370906619752
 20
84.62299376886165
 30
0.0
 40
2.0
  1
Mirror Black
 41
0.7
 72
     1
 11
449.4373418049372
 21
84.62299376886165
 31
0.0
100
AcDbText
  0
TEXT
  5
113F7
330
18
100
AcDbEntity
  8
1TEXT
100
AcDbText
 10
459.9984529160488
 20
84.43345960679915
 30
0.0
 40
2.0
  1
PC-457-XA
 41
0.8
 72
     1
 11
466.9373418049377
 21
84.43345960679915
 31
0.0
100
AcDbText
  0
LINE
  5
1151B
330
18
100
AcDbEntity
  8
1DIM
  6
CONTINUOUS
100
AcDbLine
 10
393.1318017137843
 20
128.880932406837
 30
0.0
 11
403.8770696026214
 21
128.8809324069343
 31
0.0
1001
ACAD
1000
DSTYLE
1002
{
1070
     3
1000
\U+03C6<>
1070
    40
1040
0.5
1070
    50
1040
1.570796326794897
1070
   345
1005
14
1070
   346
1005
14
1070
   347
1005
14
1002
}
  0
LINE
  5
1151C
330
18
100
AcDbEntity
  8
1DIM
  6
CONTINUOUS
100
AcDbLine
 10
393.1319405817103
 20
112.8805639121928
 30
0.0
 11
403.8770696027664
 21
112.8805639122902
 31
0.0
1001
ACAD
1000
DSTYLE
1002
{
1070
     3
1000
\U+03C6<>
1070
    40
1040
0.5
1070
    50
1040
1.570796326794897
1070
   345
1005
14
1070
   346
1005
14
1070
   347
1005
14
1002
}
  0
LINE
  5
1151D
330
18
100
AcDbEntity
  8
1DIM
  6
CONTINUOUS
100
AcDbLine
 10
403.3770696026305
 20
127.8809324069298
 30
0.0
 11
403.3770696027574
 21
113.8805639122857
 31
0.0
1001
ACAD
1000
DSTYLE
1002
{
1070
     3
1000
\U+03C6<>
1070
    40
1040
0.5
1070
    50
1040
1.570796326794897
1070
   345
1005
14
1070
   346
1005
14
1070
   347
1005
14
1002
}
  0
LINE
  5
11521
330
18
100
AcDbEntity
  8
1DIM
100
AcDbLine
 10
358.6380415404634
 20
120.8805638161963
 30
0.0
 11
358.6380415406289
 21
102.6195147542083
 31
0.0
1001
ACAD
1000
DSTYLE
1002
{
1070
    40
1040
0.5
1002
}
  0
LINE
  5
11522
330
18
100
AcDbEntity
  8
1DIM
100
AcDbLine
 10
394.6380415404595
 20
120.880580469896
 30
0.0
 11
394.638041540625
 21
102.6195147545345
 31
0.0
1001
ACAD
1000
DSTYLE
1002
{
1070
    40
1040
0.5
1002
}
  0
LINE
  5
11523
330
18
100
AcDbEntity
  8
1DIM
100
AcDbLine
 10
359.6380415406243
 20
103.1195147542173
 30
0.0
 11
393.6380415406205
 21
103.1195147545254
 31
0.0
1001
ACAD
1000
DSTYLE
1002
{
1070
    40
1040
0.5
1002
}
  0
LINE
  5
11527
330
18
100
AcDbEntity
  8
1DIM
100
AcDbLine
 10
389.1380497955897
 20
62.08597525110952
 30
0.0
 11
389.1380497956816
 21
51.94036075582866
 31
0.0
1001
ACAD
1000
DSTYLE
1002
{
1070
     3
1000
\U+03C6<>
1070
    40
1040
0.5
1002
}
  0
LINE
  5
11528
330
18
100
AcDbEntity
  8
1DIM
100
AcDbLine
 10
373.1380415409949
 20
62.08597525096462
 30
0.0
 11
373.1380415410869
 21
51.94036075568368
 31
0.0
1001
ACAD
1000
DSTYLE
1002
{
1070
     3
1000
\U+03C6<>
1070
    40
1040
0.5
1002
}
  0
LINE
  5
11529
330
18
100
AcDbEntity
  8
1DIM
100
AcDbLine
 10
388.1380497956771
 20
52.4403607558196
 30
0.0
 11
374.1380415410824
 21
52.44036075569274
 31
0.0
1001
ACAD
1000
DSTYLE
1002
{
1070
     3
1000
\U+03C6<>
1070
    40
1040
0.5
1002
}
  0
LINE
  5
1152D
330
18
100
AcDbEntity
  8
1DIM
100
AcDbLine
 10
392.8167794898915
 20
74.09973345761199
 30
0.0
 11
402.3083154500933
 21
74.099733457698
 31
0.0
1001
ACAD
1000
DSTYLE
1002
{
1070
   271
1070
     0
1070
    40
1040
0.5
1002
}
  0
LINE
  5
1152E
330
18
100
AcDbEntity
  8
1DIM
100
AcDbLine
 10
388.69272190946
 20
62.08597525110548
 30
0.0
 11
402.3083154502021
 21
62.08597525122885
 31
0.0
1001
ACAD
1000
DSTYLE
1002
{
1070
   271
1070
     0
1070
    40
1040
0.5
1002
}
  0
LINE
  5
1152F
330
18
100
AcDbEntity
  8
1DIM
100
AcDbLine
 10
401.8083154501023
 20
73.09973345769346
 30
0.0
 11
401.8083154501931
 21
63.08597525122432
 31
0.0
1001
ACAD
1000
DSTYLE
1002
{
1070
   271
1070
     0
1070
    40
1040
0.5
1002
}
  0
LINE
  5
11533
330
18
100
AcDbEntity
  8
1DIM
  6
CONTINUOUS
100
AcDbLine
 10
388.69272190946
 20
62.08597525110548
 30
0.0
 11
407.4494461473346
 21
62.08597525127544
 31
0.0
1001
ACAD
1000
DSTYLE
1002
{
1070
   271
1070
     0
1070
    40
1040
0.5
1070
    50
1040
1.570796326794897
1070
   345
1005
14
1070
   346
1005
14
1070
   347
1005
14
1002
}
  0
LINE
  5
11534
330
18
100
AcDbEntity
  8
1DIM
  6
CONTINUOUS
100
AcDbLine
 10
392.7732757152436
 20
90.0721966328775
 30
0.0
 11
407.4494461470811
 21
90.07219663301049
 31
0.0
1001
ACAD
1000
DSTYLE
1002
{
1070
   271
1070
     0
1070
    40
1040
0.5
1070
    50
1040
1.570796326794897
1070
   345
1005
14
1070
   346
1005
14
1070
   347
1005
14
1002
}
  0
LINE
  5
11535
330
18
100
AcDbEntity
  8
1DIM
  6
CONTINUOUS
100
AcDbLine
 10
406.9494461473256
 20
63.0859752512709
 30
0.0
 11
406.9494461470901
 21
89.07219663300596
 31
0.0
1001
ACAD
1000
DSTYLE
1002
{
1070
   271
1070
     0
1070
    40
1040
0.5
1070
    50
1040
1.570796326794897
1070
   345
1005
14
1070
   346
1005
14
1070
   347
1005
14
1002
}
  0
LINE
  5
11539
330
18
100
AcDbEntity
  8
0
100
AcDbLine
 10
427.5656831718695
 20
64.36229191774547
 30
0.0
 11
427.8790165052026
 21
64.36229191774547
 31
0.0
  0
LINE
  5
1153A
330
18
100
AcDbEntity
  8
0
100
AcDbLine
 10
427.2749053940921
 20
64.09912525107907
 30
0.0
 11
427.722349838536
 21
65.09912525107816
 31
0.0
  0
LINE
  5
1153B
330
18
100
AcDbEntity
  8
0
100
AcDbLine
 10
427.6304609496473
 20
64.50702525107866
 30
0.0
 11
427.722349838536
 21
64.71248080663409
 31
0.0
  0
LINE
  5
1153C
330
18
100
AcDbEntity
  8
0
100
AcDbLine
 10
427.6304609496473
 20
64.50702525107866
 30
0.0
 11
427.8142387274248
 21
64.50702525107866
 31
0.0
  0
LINE
  5
1153D
330
18
100
AcDbEntity
  8
0
100
AcDbLine
 10
425.8557942829823
 20
64.09912525107907
 30
0.0
 11
425.97357206076
 21
64.36229191774547
 31
0.0
  0
LINE
  5
1153E
330
18
100
AcDbEntity
  8
0
100
AcDbLine
 10
425.7325720607603
 20
64.21024747330117
 30
0.0
 11
426.1302387274266
 21
65.09913636218917
 31
0.0
  0
LINE
  5
1153F
330
18
100
AcDbEntity
  8
0
100
AcDbLine
 10
425.1039053940942
 20
65.07281413996705
 30
0.0
 11
425.1039053940942
 21
64.0991363621902
 31
0.0
  0
LINE
  5
11540
330
18
100
AcDbEntity
  8
0
100
AcDbLine
 10
425.261794282983
 20
65.07281413996705
 30
0.0
 11
425.261794282983
 21
64.0991363621902
 31
0.0
  0
LINE
  5
11541
330
18
100
AcDbEntity
  8
0
100
AcDbLine
 10
425.6170165052048
 20
64.09912525107907
 30
0.0
 11
425.261794282983
 21
64.62544747330085
 31
0.0
  0
LINE
  5
11542
330
18
100
AcDbEntity
  8
0
100
AcDbLine
 10
425.7325720607603
 20
64.21024747330117
 30
0.0
 11
425.4574609496494
 21
64.61786969552307
 31
0.0
  0
LINE
  5
11543
330
18
100
AcDbEntity
  8
0
100
AcDbLine
 10
425.1039053940942
 20
64.0991363621902
 30
0.0
 11
425.261794282983
 21
64.0991363621902
 31
0.0
  0
LINE
  5
11544
330
18
100
AcDbEntity
  8
0
100
AcDbLine
 10
425.6170165052048
 20
64.0991363621902
 30
0.0
 11
425.8557942829823
 21
64.0991363621902
 31
0.0
  0
LINE
  5
11545
330
18
100
AcDbEntity
  8
0
100
AcDbLine
 10
425.6170165052048
 20
65.07281413996705
 30
0.0
 11
425.261794282983
 21
64.62544747330085
 31
0.0
  0
LINE
  5
11546
330
18
100
AcDbEntity
  8
0
100
AcDbLine
 10
425.8186831718713
 20
65.07281413996705
 30
0.0
 11
425.4574609496494
 21
64.61786969552307
 31
0.0
  0
LINE
  5
11547
330
18
100
AcDbEntity
  8
0
100
AcDbLine
 10
425.1039053940942
 20
65.07281413996705
 30
0.0
 11
425.261794282983
 21
65.07281413996705
 31
0.0
  0
LINE
  5
11548
330
18
100
AcDbEntity
  8
0
100
AcDbLine
 10
425.6170165052048
 20
65.07281413996705
 30
0.0
 11
425.8186831718713
 21
65.07281413996705
 31
0.0
  0
LINE
  5
11549
330
18
100
AcDbEntity
  8
0
100
AcDbLine
 10
427.1703498385366
 20
64.46755858441205
 30
0.0
 11
426.9329053940924
 21
65.09912525107816
 31
0.0
  0
LINE
  5
1154A
330
18
100
AcDbEntity
  8
0
100
AcDbLine
 10
427.1703498385366
 20
64.46755858441205
 30
0.0
 11
427.4251276163141
 21
65.07281413996705
 31
0.0
  0
LINE
  5
1154B
330
18
100
AcDbEntity
  8
0
100
AcDbLine
 10
426.0383498385377
 20
64.50702525107866
 30
0.0
 11
426.1302387274266
 21
64.71248080663409
 31
0.0
  0
LINE
  5
1154C
330
18
100
AcDbEntity
  8
0
100
AcDbLine
 10
426.2221276163153
 20
64.50702525107866
 30
0.0
 11
426.1302387274266
 21
64.71248080663409
 31
0.0
  0
LINE
  5
1154D
330
18
100
AcDbEntity
  8
0
100
AcDbLine
 10
426.6954609496482
 20
64.46755858441205
 30
0.0
 11
426.4405720607596
 21
65.07281413996705
 31
0.0
  0
LINE
  5
1154E
330
18
100
AcDbEntity
  8
0
100
AcDbLine
 10
426.6954609496482
 20
64.46755858441205
 30
0.0
 11
426.9329053940924
 21
65.09912525107816
 31
0.0
  0
LINE
  5
1154F
330
18
100
AcDbEntity
  8
0
100
AcDbLine
 10
426.6960165052037
 20
64.07281413996807
 30
0.0
 11
426.274905394093
 21
65.07281413996705
 31
0.0
  0
LINE
  5
11550
330
18
100
AcDbEntity
  8
0
100
AcDbLine
 10
426.6960165052037
 20
64.07281413996807
 30
0.0
 11
426.9329053940924
 21
64.70279191774515
 31
0.0
  0
LINE
  5
11551
330
18
100
AcDbEntity
  8
0
100
AcDbLine
 10
427.1696831718699
 20
64.07281413996807
 30
0.0
 11
427.5907942829806
 21
65.07281413996705
 31
0.0
  0
LINE
  5
11552
330
18
100
AcDbEntity
  8
0
100
AcDbLine
 10
427.1696831718699
 20
64.07281413996807
 30
0.0
 11
426.9329053940924
 21
64.70279191774515
 31
0.0
  0
LINE
  5
11553
330
18
100
AcDbEntity
  8
0
100
AcDbLine
 10
426.5775720607594
 20
64.09912525107907
 30
0.0
 11
426.1302387274266
 21
65.09912525107816
 31
0.0
  0
LINE
  5
11554
330
18
100
AcDbEntity
  8
0
100
AcDbLine
 10
426.4045720607596
 20
64.09912525107907
 30
0.0
 11
426.286905394093
 21
64.36229191774547
 31
0.0
  0
LINE
  5
11555
330
18
100
AcDbEntity
  8
0
100
AcDbLine
 10
426.4045720607596
 20
64.0991363621902
 30
0.0
 11
426.5775720607594
 21
64.0991363621902
 31
0.0
  0
LINE
  5
11556
330
18
100
AcDbEntity
  8
0
100
AcDbLine
 10
426.0383498385377
 20
64.50702525107866
 30
0.0
 11
426.2221276163153
 21
64.50702525107866
 31
0.0
  0
LINE
  5
11557
330
18
100
AcDbEntity
  8
0
100
AcDbLine
 10
425.97357206076
 20
64.36229191774547
 30
0.0
 11
426.286905394093
 21
64.36229191774547
 31
0.0
  0
LINE
  5
11558
330
18
100
AcDbEntity
  8
0
100
AcDbLine
 10
427.4479053940919
 20
64.09912525107907
 30
0.0
 11
427.5656831718695
 21
64.36229191774547
 31
0.0
  0
LINE
  5
11559
330
18
100
AcDbEntity
  8
0
100
AcDbLine
 10
427.2749053940921
 20
64.0991363621902
 30
0.0
 11
427.4479053940919
 21
64.0991363621902
 31
0.0
  0
LINE
  5
1155A
330
18
100
AcDbEntity
  8
0
100
AcDbLine
 10
426.274905394093
 20
65.07281413996705
 30
0.0
 11
426.4405720607596
 21
65.07281413996705
 31
0.0
  0
LINE
  5
1155B
330
18
100
AcDbEntity
  8
0
100
AcDbLine
 10
427.4251276163141
 20
65.07281413996705
 30
0.0
 11
427.5907942829806
 21
65.07281413996705
 31
0.0
  0
POINT
  5
1155C
330
18
100
AcDbEntity
  8
1CENTER
100
AcDbPoint
 10
427.6039053940892
 20
64.57281413996807
 30
0.0
  0
ARC
  5
1155D
330
18
100
AcDbEntity
  8
0
100
AcDbCircle
 10
428.9996831718685
 20
64.37487185362639
 30
0.0
 40
0.29
100
AcDbArc
 50
299.9999999999814
 51
0.0
  0
LINE
  5
1155E
330
18
100
AcDbEntity
  8
0
100
AcDbLine
 10
428.3596831718686
 20
65.07281413996705
 30
0.0
 11
428.3596831718686
 21
64.35281413996702
 31
0.0
  0
LINE
  5
1155F
330
18
100
AcDbEntity
  8
0
100
AcDbLine
 10
428.5196831718686
 20
65.07281413996705
 30
0.0
 11
428.5196831718686
 21
64.36281413996701
 31
0.0
  0
LINE
  5
11560
330
18
100
AcDbEntity
  8
0
100
AcDbLine
 10
428.7796831718685
 20
65.07281413996705
 30
0.0
 11
428.7796831718685
 21
64.37487185362639
 31
0.0
  0
LINE
  5
11561
330
18
100
AcDbEntity
  8
0
100
AcDbLine
 10
429.1296831718685
 20
65.07281413996705
 30
0.0
 11
429.1296831718685
 21
64.37487185362639
 31
0.0
  0
LINE
  5
11562
330
18
100
AcDbEntity
  8
0
100
AcDbLine
 10
429.2896831718685
 20
65.07281413996705
 30
0.0
 11
429.2896831718685
 21
64.37487185362639
 31
0.0
  0
LINE
  5
11563
330
18
100
AcDbEntity
  8
0
100
AcDbLine
 10
428.6196831718685
 20
65.07281413996705
 30
0.0
 11
428.6196831718685
 21
64.37487185362639
 31
0.0
  0
LINE
  5
11564
330
18
100
AcDbEntity
  8
0
100
AcDbLine
 10
427.8142387274248
 20
64.50702525107866
 30
0.0
 11
427.722349838536
 21
64.71248080663409
 31
0.0
  0
LINE
  5
11565
330
18
100
AcDbEntity
  8
0
100
AcDbLine
 10
428.1009708305664
 20
64.252814139967
 30
0.0
 11
427.722349838536
 21
65.09912525107816
 31
0.0
  0
ARC
  5
11566
330
18
100
AcDbEntity
  8
0
100
AcDbCircle
 10
428.2596831718686
 20
64.36281413996701
 30
0.0
 40
0.26
100
AcDbArc
 50
270.0
 51
0.0
  0
LINE
  5
11567
330
18
100
AcDbEntity
  8
0
100
AcDbLine
 10
427.9950338016633
 20
64.10281413996702
 30
0.0
 11
427.8790165052026
 21
64.36229191774547
 31
0.0
  0
LINE
  5
11568
330
18
100
AcDbEntity
  8
0
100
AcDbLine
 10
427.9950338016633
 20
64.10281413996702
 30
0.0
 11
428.2596831718686
 21
64.10281413996702
 31
0.0
  0
ARC
  5
11569
330
18
100
AcDbEntity
  8
0
100
AcDbCircle
 10
428.2596831718686
 20
64.35281413996702
 30
0.0
 40
0.1
100
AcDbArc
 50
270.0
 51
0.0
  0
LINE
  5
1156A
330
18
100
AcDbEntity
  8
0
100
AcDbLine
 10
428.1009708305664
 20
64.252814139967
 30
0.0
 11
428.2596831718686
 21
64.252814139967
 31
0.0
  0
ARC
  5
1156B
330
18
100
AcDbEntity
  8
0
100
AcDbCircle
 10
428.9096831718685
 20
64.37487185362639
 30
0.0
 40
0.29
100
AcDbArc
 50
180.0
 51
240.0000000000186
  0
ARC
  5
1156C
330
18
100
AcDbEntity
  8
0
100
AcDbCircle
 10
428.9546831718685
 20
64.45281413996705
 30
0.0
 40
0.3800000000000008
100
AcDbArc
 50
240.0000000000218
 51
299.9999999999719
  0
ARC
  5
1156D
330
18
100
AcDbEntity
  8
0
100
AcDbCircle
 10
428.9546831718685
 20
64.45281413996705
 30
0.0
 40
0.2199999999999989
100
AcDbArc
 50
240.0000000000146
 51
299.9999999999707
  0
ARC
  5
1156E
330
18
100
AcDbEntity
  8
0
100
AcDbCircle
 10
428.9096831718685
 20
64.37487185362639
 30
0.0
 40
0.13
100
AcDbArc
 50
180.0
 51
240.0000000000273
  0
ARC
  5
1156F
330
18
100
AcDbEntity
  8
0
100
AcDbCircle
 10
428.9996831718685
 20
64.37487185362639
 30
0.0
 40
0.13
100
AcDbArc
 50
299.9999999999696
 51
0.0
  0
LINE
  5
11570
330
18
100
AcDbEntity
  8
0
100
AcDbLine
 10
428.3596831718686
 20
65.07281413996705
 30
0.0
 11
428.5196831718686
 21
65.07281413996705
 31
0.0
  0
LINE
  5
11571
330
18
100
AcDbEntity
  8
0
100
AcDbLine
 10
428.7796831718685
 20
65.07281413996705
 30
0.0
 11
428.6196831718685
 21
65.07281413996705
 31
0.0
  0
LINE
  5
11572
330
18
100
AcDbEntity
  8
0
100
AcDbLine
 10
429.2896831718685
 20
65.07281413996705
 30
0.0
 11
429.1296831718685
 21
65.07281413996705
 31
0.0
  0
LINE
  5
11573
330
18
100
AcDbEntity
  8
0
100
AcDbLine
 10
429.9460165052005
 20
65.07281413996705
 30
0.0
 11
429.9460165052005
 21
64.47926969552319
 31
0.0
  0
LINE
  5
11574
330
18
100
AcDbEntity
  8
0
100
AcDbLine
 10
429.9460165052005
 20
64.47926969552319
 30
0.0
 11
429.3933498385344
 21
65.09912525107816
 31
0.0
  0
LINE
  5
11575
330
18
100
AcDbEntity
  8
0
100
AcDbLine
 10
429.3933498385344
 20
65.09913636218917
 30
0.0
 11
429.3933498385344
 21
64.0991363621902
 31
0.0
  0
LINE
  5
11576
330
18
100
AcDbEntity
  8
0
100
AcDbLine
 10
429.5512387274231
 20
64.69266969552294
 30
0.0
 11
429.5512387274231
 21
64.0991363621902
 31
0.0
  0
LINE
  5
11577
330
18
100
AcDbEntity
  8
0
100
AcDbLine
 10
429.3933498385344
 20
64.0991363621902
 30
0.0
 11
429.5512387274231
 21
64.0991363621902
 31
0.0
  0
LINE
  5
11578
330
18
100
AcDbEntity
  8
0
100
AcDbLine
 10
430.1039053940892
 20
65.07281413996705
 30
0.0
 11
430.1039053940892
 21
64.07281413996807
 31
0.0
  0
LINE
  5
11579
330
18
100
AcDbEntity
  8
0
100
AcDbLine
 10
430.1039053940892
 20
64.07281413996807
 30
0.0
 11
429.5512387274231
 21
64.69266969552294
 31
0.0
  0
LINE
  5
1157A
330
18
100
AcDbEntity
  8
0
100
AcDbLine
 10
429.9460165052005
 20
65.07281413996705
 30
0.0
 11
430.1039053940892
 21
65.07281413996705
 31
0.0
  0
LINE
  5
1157B
330
18
100
AcDbEntity
  8
1DIM
  6
CONTINUOUS
100
AcDbLine
 10
427.6039053941364
 20
59.26653944779937
 30
0.0
 11
427.6039053941364
 21
51.62369408912772
 31
0.0
1001
ACAD
1000
DSTYLE
1002
{
1070
    40
1040
0.5
1070
    50
1040
1.570796326794897
1070
   345
1005
14
1070
   346
1005
14
1070
   347
1005
14
1002
}
  0
LINE
  5
1157C
330
18
100
AcDbEntity
  8
1DIM
  6
CONTINUOUS
100
AcDbLine
 10
422.6039053947791
 20
60.08597525103394
 30
0.0
 11
422.6039053947791
 21
51.62369408912772
 31
0.0
1001
ACAD
1000
DSTYLE
1002
{
1070
    40
1040
0.5
1070
    50
1040
1.570796326794897
1070
   345
1005
14
1070
   346
1005
14
1070
   347
1005
14
1002
}
  0
LINE
  5
1157D
330
18
100
AcDbEntity
  8
1DIM
  6
CONTINUOUS
100
AcDbLine
 10
426.6039053941364
 20
52.12369408912772
 30
0.0
 11
423.6039053947791
 21
52.12369408912772
 31
0.0
1001
ACAD
1000
DSTYLE
1002
{
1070
    40
1040
0.5
1070
    50
1040
1.570796326794897
1070
   345
1005
14
1070
   346
1005
14
1070
   347
1005
14
1002
}
  0
SOLID
  5
11581
330
18
100
AcDbEntity
  8
1DIM
100
AcDbTrace
 10
428.4796230040219
 20
60.2572517129786
 30
0.0
 11
427.6039053941108
 21
62.08597525107908
 31
0.0
 12
429.0253864428701
 22
60.64011815609033
 32
0.0
 13
429.0253864428701
 23
60.64011815609033
 33
0.0
1001
ACAD
1000
DSTYLE
1002
{
1070
    45
1040
0.5
1002
}
  0
LINE
  5
11582
330
18
100
AcDbEntity
  8
1DIM
100
AcDbLine
 10
428.752504723446
 20
60.44868493453447
 30
0.0
 11
434.6124882229818
 21
52.09547246621936
 31
0.0
1001
ACAD
1000
DSTYLE
1002
{
1070
    45
1040
0.5
1002
}
  0
LINE
  5
11583
330
18
100
AcDbEntity
  8
1DIM
100
AcDbLine
 10
434.6124882229818
 20
52.09547246621936
 30
0.0
 11
443.2410596515532
 21
52.09547246621936
 31
0.0
1001
ACAD
1000
DSTYLE
1002
{
1070
    45
1040
0.5
1002
}
  0
TEXT
  5
11584
330
18
100
AcDbEntity
  8
1DIM
  6
CONTINUOUS
100
AcDbText
 10
437.3124882229818
 20
52.79547246621937
 30
0.0
 40
1.5
  1
M4-8
100
AcDbText
1001
ACADANNOTATIVE
1000
AnnotativeData
1002
{
1070
     1
1070
     0
1002
}
  0
SOLID
  5
11585
330
18
100
AcDbEntity
  8
1DIM
100
AcDbTrace
 10
393.7757276283104
 20
88.51613528770318
 30
0.0
 11
392.1087900501745
 21
87.36182587437
 31
0.0
 12
393.3112522738166
 22
88.9943685879995
 32
0.0
 13
393.3112522738166
 23
88.9943685879995
 33
0.0
1001
ACAD
1000
DSTYLE
1002
{
1070
    45
1040
0.5
1002
}
  0
LINE
  5
11586
330
18
100
AcDbEntity
  8
1DIM
100
AcDbLine
 10
393.5434899510635
 20
88.75525193785134
 30
0.0
 11
401.0319011134008
 21
96.02823444882786
 31
0.0
1001
ACAD
1000
DSTYLE
1002
{
1070
    45
1040
0.5
1002
}
  0
LINE
  5
11587
330
18
100
AcDbEntity
  8
1DIM
100
AcDbLine
 10
401.0319011134008
 20
96.02823444882786
 30
0.0
 11
421.5719011134008
 21
96.02823444882786
 31
0.0
1001
ACAD
1000
DSTYLE
1002
{
1070
    45
1040
0.5
1002
}
  0
TEXT
  5
11588
330
18
100
AcDbEntity
  8
1DIM
  6
CONTINUOUS
100
AcDbText
 10
403.7319011134008
 20
99.72823444882786
 30
0.0
 40
1.5
  1
Material：Zinc Die-cast
 41
0.7
100
AcDbText
1001
ACADANNOTATIVE
1000
AnnotativeData
1002
{
1070
     1
1070
     0
1002
}
  0
TEXT
  5
11589
330
18
100
AcDbEntity
  8
1DIM
  6
CONTINUOUS
100
AcDbText
 10
403.7319011134008
 20
97.22823444882786
 30
0.0
 40
1.5
  1
Finish：Various Platings
 41
0.7
100
AcDbText
1001
ACADANNOTATIVE
1000
AnnotativeData
1002
{
1070
     1
1070
     0
1002
}
  0
LINE
  5
1158A
330
18
100
AcDbEntity
  8
0
  6
BYBLOCK
100
AcDbLine
 10
403.1091204126305
 20
127.8809324069274
 30
0.0
 11
403.3770696026214
 21
128.8809324069298
 31
0.0
  0
LINE
  5
1158B
330
18
100
AcDbEntity
  8
0
  6
BYBLOCK
100
AcDbLine
 10
403.3770696026214
 20
128.8809324069298
 30
0.0
 11
403.6450187926305
 21
127.8809324069322
 31
0.0
  0
LINE
  5
1158C
330
18
100
AcDbEntity
  8
0
  6
BYBLOCK
100
AcDbLine
 10
403.3770696026214
 20
128.8809324069298
 30
0.0
 11
403.3770696026305
 21
127.8809324069298
 31
0.0
  0
LINE
  5
1158D
330
18
100
AcDbEntity
  8
0
  6
BYBLOCK
100
AcDbLine
 10
403.6450187927574
 20
113.8805639122881
 30
0.0
 11
403.3770696027664
 21
112.8805639122857
 31
0.0
  0
LINE
  5
1158E
330
18
100
AcDbEntity
  8
0
  6
BYBLOCK
100
AcDbLine
 10
403.3770696027664
 20
112.8805639122857
 30
0.0
 11
403.1091204127574
 21
113.8805639122832
 31
0.0
  0
LINE
  5
1158F
330
18
100
AcDbEntity
  8
0
  6
BYBLOCK
100
AcDbLine
 10
403.3770696027664
 20
112.8805639122857
 30
0.0
 11
403.3770696027574
 21
113.8805639122857
 31
0.0
  0
TEXT
  5
11590
330
18
100
AcDbEntity
  8
1DIM
  6
CONTINUOUS
100
AcDbText
 10
403.0270696027162
 20
118.4307481596045
 30
0.0
 40
1.75
  1
φ16
 50
90.00000000051926
100
AcDbText
1001
ACAD
1000
DSTYLE
1002
{
1070
     3
1000
\U+03C6<>
1070
    40
1040
0.5
1070
    50
1040
1.570796326794897
1070
   345
1005
14
1070
   346
1005
14
1070
   347
1005
14
1002
}
  0
LINE
  5
11591
330
18
100
AcDbEntity
  8
0
  6
BYBLOCK
100
AcDbLine
 10
359.6380415406268
 20
102.8515655642173
 30
0.0
 11
358.6380415406243
 21
103.1195147542083
 31
0.0
  0
LINE
  5
11592
330
18
100
AcDbEntity
  8
0
  6
BYBLOCK
100
AcDbLine
 10
358.6380415406243
 20
103.1195147542083
 30
0.0
 11
359.6380415406219
 21
103.3874639442173
 31
0.0
  0
LINE
  5
11593
330
18
100
AcDbEntity
  8
0
  6
BYBLOCK
100
AcDbLine
 10
358.6380415406243
 20
103.1195147542083
 30
0.0
 11
359.6380415406243
 21
103.1195147542173
 31
0.0
  0
LINE
  5
11594
330
18
100
AcDbEntity
  8
0
  6
BYBLOCK
100
AcDbLine
 10
393.6380415406205
 20
103.3874639445345
 30
0.0
 11
394.6380415406205
 21
103.1195147545345
 31
0.0
  0
LINE
  5
11595
330
18
100
AcDbEntity
  8
0
  6
BYBLOCK
100
AcDbLine
 10
394.6380415406205
 20
103.1195147545345
 30
0.0
 11
393.6380415406205
 21
102.8515655645345
 31
0.0
  0
LINE
  5
11596
330
18
100
AcDbEntity
  8
0
  6
BYBLOCK
100
AcDbLine
 10
394.6380415406205
 20
103.1195147545345
 30
0.0
 11
393.6380415406205
 21
103.1195147545345
 31
0.0
  0
TEXT
  5
11597
330
18
100
AcDbEntity
  8
1DIM
  6
CONTINUOUS
100
AcDbText
 10
375.179708207286
 20
103.4695147543582
 30
0.0
 40
1.75
  1
36
 50
0.000000000519157
100
AcDbText
1001
ACAD
1000
DSTYLE
1002
{
1070
    40
1040
0.5
1002
}
  0
LINE
  5
11598
330
18
100
AcDbEntity
  8
0
  6
BYBLOCK
100
AcDbLine
 10
388.1380497956771
 20
52.70830994582867
 30
0.0
 11
389.1380497956771
 21
52.44036075582866
 31
0.0
  0
LINE
  5
11599
330
18
100
AcDbEntity
  8
0
  6
BYBLOCK
100
AcDbLine
 10
389.1380497956771
 20
52.44036075582866
 30
0.0
 11
388.1380497956771
 21
52.17241156582866
 31
0.0
  0
LINE
  5
1159A
330
18
100
AcDbEntity
  8
0
  6
BYBLOCK
100
AcDbLine
 10
389.1380497956771
 20
52.44036075582866
 30
0.0
 11
388.1380497956771
 21
52.44036075582866
 31
0.0
  0
LINE
  5
1159B
330
18
100
AcDbEntity
  8
0
  6
BYBLOCK
100
AcDbLine
 10
374.1380415410848
 20
52.17241156569275
 30
0.0
 11
373.1380415410824
 21
52.44036075568368
 31
0.0
  0
LINE
  5
1159C
330
18
100
AcDbEntity
  8
0
  6
BYBLOCK
100
AcDbLine
 10
373.1380415410824
 20
52.44036075568368
 30
0.0
 11
374.1380415410799
 21
52.70830994569275
 31
0.0
  0
LINE
  5
1159D
330
18
100
AcDbEntity
  8
0
  6
BYBLOCK
100
AcDbLine
 10
373.1380415410824
 20
52.44036075568368
 30
0.0
 11
374.1380415410824
 21
52.44036075569274
 31
0.0
  0
TEXT
  5
1159E
330
18
100
AcDbEntity
  8
1DIM
  6
CONTINUOUS
100
AcDbText
 10
378.6880456683766
 20
52.79036075573398
 30
0.0
 40
1.75
  1
φ16
 50
0.000000000519168
100
AcDbText
1001
ACAD
1000
DSTYLE
1002
{
1070
     3
1000
\U+03C6<>
1070
    40
1040
0.5
1002
}
  0
LINE
  5
1159F
330
18
100
AcDbEntity
  8
0
  6
BYBLOCK
100
AcDbLine
 10
401.5403662601024
 20
73.09973345769103
 30
0.0
 11
401.8083154500933
 21
74.09973345769346
 31
0.0
  0
LINE
  5
115A0
330
18
100
AcDbEntity
  8
0
  6
BYBLOCK
100
AcDbLine
 10
401.8083154500933
 20
74.09973345769346
 30
0.0
 11
402.0762646401024
 21
73.09973345769589
 31
0.0
  0
LINE
  5
115A1
330
18
100
AcDbEntity
  8
0
  6
BYBLOCK
100
AcDbLine
 10
401.8083154500933
 20
74.09973345769346
 30
0.0
 11
401.8083154501023
 21
73.09973345769346
 31
0.0
  0
LINE
  5
115A2
330
18
100
AcDbEntity
  8
0
  6
BYBLOCK
100
AcDbLine
 10
402.0762646401931
 20
63.08597525122675
 30
0.0
 11
401.8083154502021
 21
62.08597525122432
 31
0.0
  0
LINE
  5
115A3
330
18
100
AcDbEntity
  8
0
  6
BYBLOCK
100
AcDbLine
 10
401.8083154502021
 20
62.08597525122432
 30
0.0
 11
401.5403662601931
 21
63.08597525122189
 31
0.0
  0
LINE
  5
115A4
330
18
100
AcDbEntity
  8
0
  6
BYBLOCK
100
AcDbLine
 10
401.8083154502021
 20
62.08597525122432
 30
0.0
 11
401.8083154501931
 21
63.08597525122432
 31
0.0
  0
TEXT
  5
115A5
330
18
100
AcDbEntity
  8
1DIM
  6
CONTINUOUS
100
AcDbText
 10
401.4583154501582
 20
66.92618768778902
 30
0.0
 40
1.75
  1
12
 50
90.00000000051917
100
AcDbText
1001
ACAD
1000
DSTYLE
1002
{
1070
   271
1070
     0
1070
    40
1040
0.5
1002
}
  0
LINE
  5
115A6
330
18
100
AcDbEntity
  8
0
  6
BYBLOCK
100
AcDbLine
 10
407.2173953373256
 20
63.08597525127333
 30
0.0
 11
406.9494461473346
 21
62.0859752512709
 31
0.0
  0
LINE
  5
115A7
330
18
100
AcDbEntity
  8
0
  6
BYBLOCK
100
AcDbLine
 10
406.9494461473346
 20
62.0859752512709
 30
0.0
 11
406.6814969573256
 21
63.08597525126847
 31
0.0
  0
LINE
  5
115A8
330
18
100
AcDbEntity
  8
0
  6
BYBLOCK
100
AcDbLine
 10
406.9494461473346
 20
62.0859752512709
 30
0.0
 11
406.9494461473256
 21
63.0859752512709
 31
0.0
  0
LINE
  5
115A9
330
18
100
AcDbEntity
  8
0
  6
BYBLOCK
100
AcDbLine
 10
406.6814969570901
 20
89.07219663300353
 30
0.0
 11
406.9494461470811
 21
90.07219663300596
 31
0.0
  0
LINE
  5
115AA
330
18
100
AcDbEntity
  8
0
  6
BYBLOCK
100
AcDbLine
 10
406.9494461470811
 20
90.07219663300596
 30
0.0
 11
407.2173953370901
 21
89.07219663300839
 31
0.0
  0
LINE
  5
115AB
330
18
100
AcDbEntity
  8
0
  6
BYBLOCK
100
AcDbLine
 10
406.9494461470811
 20
90.07219663300596
 30
0.0
 11
406.9494461470901
 21
89.07219663300596
 31
0.0
  0
TEXT
  5
115AC
330
18
100
AcDbEntity
  8
1DIM
  6
CONTINUOUS
100
AcDbText
 10
406.599446147221
 20
74.62075260880192
 30
0.0
 40
1.75
  1
28
 50
90.00000000051917
100
AcDbText
1001
ACAD
1000
DSTYLE
1002
{
1070
   271
1070
     0
1070
    40
1040
0.5
1070
    50
1040
1.570796326794897
1070
   345
1005
14
1070
   346
1005
14
1070
   347
1005
14
1002
}
  0
LINE
  5
115AD
330
18
100
AcDbEntity
  8
0
  6
BYBLOCK
100
AcDbLine
 10
426.6039053941364
 20
52.39164327912773
 30
0.0
 11
427.6039053941364
 21
52.12369408912772
 31
0.0
  0
LINE
  5
115AE
330
18
100
AcDbEntity
  8
0
  6
BYBLOCK
100
AcDbLine
 10
427.6039053941364
 20
52.12369408912772
 30
0.0
 11
426.6039053941364
 21
51.85574489912772
 31
0.0
  0
LINE
  5
115AF
330
18
100
AcDbEntity
  8
0
  6
BYBLOCK
100
AcDbLine
 10
427.6039053941364
 20
52.12369408912772
 30
0.0
 11
426.6039053941364
 21
52.12369408912772
 31
0.0
  0
LINE
  5
115B0
330
18
100
AcDbEntity
  8
0
  6
BYBLOCK
100
AcDbLine
 10
423.6039053947791
 20
51.85574489912772
 30
0.0
 11
422.6039053947791
 21
52.12369408912772
 31
0.0
  0
LINE
  5
115B1
330
18
100
AcDbEntity
  8
0
  6
BYBLOCK
100
AcDbLine
 10
422.6039053947791
 20
52.12369408912772
 30
0.0
 11
423.6039053947791
 21
52.39164327912773
 31
0.0
  0
LINE
  5
115B2
330
18
100
AcDbEntity
  8
0
  6
BYBLOCK
100
AcDbLine
 10
422.6039053947791
 20
52.12369408912772
 30
0.0
 11
423.6039053947791
 21
52.12369408912772
 31
0.0
  0
TEXT
  5
115B3
330
18
100
AcDbEntity
  8
1DIM
  6
CONTINUOUS
100
AcDbText
 10
424.5205720611244
 20
52.47369408912772
 30
0.0
 40
1.75
  1
5
100
AcDbText
1001
ACAD
1000
DSTYLE
1002
{
1070
    40
1040
0.5
1070
    50
1040
1.570796326794897
1070
   345
1005
14
1070
   346
1005
14
1070
   347
1005
14
1002
}
  0
VIEWPORT
  5
57
330
15
100
AcDbEntity
 67
     1
  8
0
100
AcDbViewport
 68
     1
 10
0.0
 20
0.0
 30
0.0
 40
637.3737623762376
 41
297.0
 68
     1
 69
     1
1001
ACAD
1000
MVIEW
1002
{
1070
    16
1010
0.0
1020
0.0
1030
0.0
1010
0.0
1020
0.0
1030
1.0
1040
0.0
1040
297.0
1040
-4.171999999925333
1040
12.83903210976956
1040
50.0
1040
0.0
1040
0.0
1070
    16
1070
   100
1070
     0
1070
     1
1070
     0
1070
     0
1070
     0
1070
     0
1040
0.0
1040
0.0
1040
0.0
1040
10.0
1040
10.0
1040
10.0
1040
10.0
1070
     0
1002
{
1002
}
1002
}
  0
ENDSEC
  0
SECTION
  2
OBJECTS
  0
DICTIONARY
  5
C
330
0
100
AcDbDictionary
  3
ACAD_COLOR
350
18D
  3
ACAD_GROUP
350
D
  3
ACAD_LAYOUT
350
18E
  3
ACAD_MATERIAL
350
18C
  3
ACAD_MLEADERSTYLE
350
D09D
  3
ACAD_MLINESTYLE
350
1B
  3
ACAD_PLOTSETTINGS
350
18F
  3
ACAD_SCALELIST
350
D07B
  3
ACAD_VISUALSTYLE
350
D06A
  3
ACDBHEADERROUNDTRIPXREC
350
115B4
  3
ACDBVARIABLEDICTIONARY
350
37
  3
CONTENTDICTIONARY
350
D8
  3
DRAWINGVARIABLESDICT
350
20
  3
DWGPROPS
350
115B7
1001
ACAD
1000
TREAT_AS_HARD
1070
     0
  0
DICTIONARY
  5
D16C
330
2
100
AcDbDictionary
  3
ACAD_LAYERSTATES
360
D16D
1001
ACAD
1000
TREAT_AS_HARD
1070
     1
  0
DICTIONARY
  5
D0B5
330
E
100
AcDbDictionary
  3
ADSK_XREC_LAYER_RECONCILED
360
D0B6
1001
ACAD
1000
TREAT_AS_HARD
1070
     1
  0
DICTIONARY
  5
D0B7
330
29
100
AcDbDictionary
  3
ADSK_XREC_LAYER_RECONCILED
360
D0B8
1001
ACAD
1000
TREAT_AS_HARD
1070
     1
  0
DICTIONARY
  5
D0B9
330
31
100
AcDbDictionary
  3
ADSK_XREC_LAYER_RECONCILED
360
D0BA
1001
ACAD
1000
TREAT_AS_HARD
1070
     1
  0
DICTIONARY
  5
D0BF
330
243
100
AcDbDictionary
  3
ADSK_XREC_LAYER_RECONCILED
360
D0C0
1001
ACAD
1000
TREAT_AS_HARD
1070
     1
  0
DICTIONARY
  5
D0C5
330
24E
100
AcDbDictionary
  3
ADSK_XREC_LAYER_RECONCILED
360
D0C6
1001
ACAD
1000
TREAT_AS_HARD
1070
     1
  0
DICTIONARY
  5
88F
330
18
100
AcDbDictionary
  3
ACAD_SORTENTS
360
890
1001
ACAD
1000
TREAT_AS_HARD
1070
     1
  0
DICTIONARY
  5
18D
102
{ACAD_REACTORS
330
C
102
}
330
C
100
AcDbDictionary
1001
ACAD
1000
TREAT_AS_HARD
1070
     0
  0
DICTIONARY
  5
D
102
{ACAD_REACTORS
330
C
102
}
330
C
100
AcDbDictionary
1001
ACAD
1000
TREAT_AS_HARD
1070
     0
  0
DICTIONARY
  5
18E
102
{ACAD_REACTORS
330
C
102
}
330
C
100
AcDbDictionary
1001
ACAD
1000
TREAT_AS_HARD
1070
     0
  0
DICTIONARY
  5
18C
102
{ACAD_REACTORS
330
C
102
}
330
C
100
AcDbDictionary
  3
BYBLOCK
350
D05A
  3
BYLAYER
350
D052
  3
GLOBAL
350
D062
1001
ACAD
1000
TREAT_AS_HARD
1070
     0
  0
DICTIONARY
  5
D09D
102
{ACAD_REACTORS
330
C
102
}
330
C
100
AcDbDictionary
  3
STANDARD
350
D09E
1001
ACAD
1000
TREAT_AS_HARD
1070
     0
  0
DICTIONARY
  5
1B
102
{ACAD_REACTORS
330
C
102
}
330
C
100
AcDbDictionary
  3
STANDARD
350
1C
1001
ACAD
1000
TREAT_AS_HARD
1070
     0
  0
DICTIONARY
  5
18F
102
{ACAD_REACTORS
330
C
102
}
330
C
100
AcDbDictionary
1001
ACAD
1000
TREAT_AS_HARD
1070
     0
  0
DICTIONARY
  5
D07B
102
{ACAD_REACTORS
330
C
102
}
330
C
100
AcDbDictionary
  3
A0
350
D07C
  3
A1
350
D07D
  3
A2
350
D07E
  3
A3
350
D07F
  3
A4
350
D080
  3
A5
350
D081
  3
A6
350
D082
  3
A7
350
D083
  3
A8
350
D084
  3
A9
350
D085
  3
B0
350
D086
  3
B1
350
D087
  3
B2
350
D088
  3
B3
350
D089
  3
B4
350
D08A
  3
B5
350
D08B
  3
B6
350
D08C
  3
B7
350
D08D
  3
B8
350
D08E
  3
B9
350
D08F
  3
C0
350
D090
  3
C1
350
D091
  3
C2
350
D092
  3
C3
350
D093
  3
C4
350
D094
  3
C5
350
D095
  3
C6
350
D096
  3
C7
350
D097
  3
C8
350
D098
  3
C9
350
D099
  3
D0
350
D09A
  3
D1
350
D09B
  3
D2
350
D09C
1001
ACAD
1000
TREAT_AS_HARD
1070
     0
  0
DICTIONARY
  5
D06A
102
{ACAD_REACTORS
330
C
102
}
330
C
100
AcDbDictionary
  3
2DWIREFRAME
350
D070
  3
3D_HIDDEN
350
D072
  3
3DWIREFRAME
350
D071
  3
BASIC
350
D06F
  3
BRIGHTEN
350
D076
  3
COLORCHANGE
350
D07A
  3
CONCEPTUAL
350
D073
  3
DIM
350
D075
  3
EDGECOLOROFF
350
D29F
  3
FACEPATTERN
350
D079
  3
FLAT
350
D06B
  3
FLATWITHEDGES
350
D06C
  3
GOURAUD
350
D06D
  3
GOURAUDWITHEDGES
350
D06E
  3
HIDDEN
350
F225
  3
JITTEROFF
350
D29D
  3
LINEPATTERN
350
D078
  3
MODELING
350
F22B
  3
OVERHANGOFF
350
D29E
  3
REALISTIC
350
D074
  3
SHADED
350
F22A
  3
SHADED_WITH_EDGES
350
F229
  3
SHADES_OF_GRAY
350
F226
  3
SKETCHY
350
F227
  3
THICKEN
350
D077
  3
WIREFRAME
350
F224
  3
X-RAY
350
F228
1001
ACAD
1000
TREAT_AS_HARD
1070
     0
  0
DICTIONARY
  5
115B4
102
{ACAD_REACTORS
330
C
102
}
330
C
100
AcDbDictionary
  3
COLORDICT
350
115B5
  3
MATERIALDICT
350
115B6
1001
ACAD
1000
TREAT_AS_HARD
1070
     0
  0
DICTIONARY
  5
37
102
{ACAD_REACTORS
330
C
102
}
330
C
100
AcDbDictionary
  3
CANNOSCALE
350
F285
  3
CMLEADERSTYLE
350
D117
  3
CTABLESTYLE
350
29E
  3
DIMADEC
350
38
  3
DIMASSOC
350
1CE
  3
HIDETEXT
350
704E
  3
INDEXCTL
350
D11A
  3
INTERSECTIONCOLOR
350
7052
  3
INTERSECTIONDISPLAY
350
7051
  3
MSLTSCALE
350
F286
  3
OBSCOLOR
350
704F
  3
OBSLTYPE
350
7050
  3
PROJECTNAME
350
1CF
  3
SORTENTS
350
D119
  3
XCLIPFRAME
350
F223
1001
ACAD
1000
TREAT_AS_HARD
1070
     0
  0
DICTIONARY
  5
D8
102
{ACAD_REACTORS
330
C
102
}
330
C
100
AcDbDictionary
1001
ACAD
1000
TREAT_AS_HARD
1070
     0
  0
DICTIONARY
  5
20
102
{ACAD_REACTORS
330
C
102
}
330
C
100
AcDbDictionary
1001
DRAWINGVARIABLESXDATA
1000
POLARANG
1000
0.261799387799149410000000
1000
POLARMODE
1000
1
1000
POLARSTYLE
1000
1
1001
ACAD
1000
TREAT_AS_HARD
1070
     0
  0
XRECORD
  5
115B7
102
{ACAD_REACTORS
330
C
102
}
330
C
100
AcDbXrecord
  1
DWGPROPS COOKIE
  2

  3

  4

  6

  7

  8
User
  9

300
=
301
=
302
=
303
=
304
=
305
=
306
=
307
=
308
=
309
=
 40
0.0
 41
2451318.246352917
 42
2458584.076687477
  1

 90
        0
  0
DICTIONARY
  5
D16D
102
{ACAD_REACTORS
330
D16C
102
}
330
D16C
100
AcDbDictionary
1001
ACAD
1000
TREAT_AS_HARD
1070
     0
  0
ACAD_PROXY_OBJECT
  5
D0B6
102
{ACAD_REACTORS
330
D0B5
102
}
330
D0B5
100
AcDbZombieObject
 90
      499
 91
      515
 93
       34
310
40C8804040
  0
ACAD_PROXY_OBJECT
  5
D0B8
102
{ACAD_REACTORS
330
D0B7
102
}
330
D0B7
100
AcDbZombieObject
 90
      499
 91
      515
 93
       34
310
40C8804040
  0
ACAD_PROXY_OBJECT
  5
D0BA
102
{ACAD_REACTORS
330
D0B9
102
}
330
D0B9
100
AcDbZombieObject
 90
      499
 91
      515
 93
       34
310
40C8804040
  0
ACAD_PROXY_OBJECT
  5
D0C0
102
{ACAD_REACTORS
330
D0BF
102
}
330
D0BF
100
AcDbZombieObject
 90
      499
 91
      515
 93
       34
310
40C8804040
  0
ACAD_PROXY_OBJECT
  5
D0C6
102
{ACAD_REACTORS
330
D0C5
102
}
330
D0C5
100
AcDbZombieObject
 90
      499
 91
      515
 93
       34
310
40C8804040
  0
SORTENTSTABLE
  5
890
102
{ACAD_REACTORS
330
88F
102
}
330
88F
100
AcDbSortentsTable
330
18
331
0
  5
C618
331
10EDC
  5
113CA
331
10EDE
  5
113CB
331
10EDF
  5
113CF
331
10EE1
  5
113D0
331
10EE3
  5
113D1
331
10EE4
  5
113D5
331
10F04
  5
113F0
331
10F6F
  5
1156D
331
113C5
  5
11581
331
113C6
  5
11582
331
113C7
  5
11583
331
113C8
  5
11584
331
113C9
  5
11585
331
113CA
  5
11586
331
113CB
  5
11587
331
113CC
  5
11588
331
113CD
  5
11589
331
113CE
  5
1158A
331
113CF
  5
1158B
331
113D0
  5
1158C
331
113D1
  5
1158D
331
113D2
  5
1158E
331
113D3
  5
1158F
331
113D4
  5
11590
331
113D5
  5
11591
331
113D6
  5
11592
331
113D7
  5
11593
331
113D8
  5
11594
331
113D9
  5
11595
331
113DA
  5
11596
331
113DB
  5
11597
331
113DC
  5
11598
331
113DD
  5
11599
331
113DE
  5
1159A
331
113DF
  5
1159B
331
113E0
  5
1159C
331
113E1
  5
1159D
331
113E2
  5
1159E
331
113E3
  5
1159F
331
113E4
  5
115A0
331
113E5
  5
115A1
331
113E6
  5
115A2
331
113E7
  5
115A3
331
113E8
  5
115A4
331
113E9
  5
115A5
331
113EA
  5
115A6
331
113EB
  5
115A7
331
113EC
  5
115A8
331
113ED
  5
115A9
331
113EE
  5
115AA
331
113EF
  5
115AB
331
113F0
  5
115AC
331
113F1
  5
115AD
331
113F2
  5
115AE
331
113F3
  5
115AF
331
113F4
  5
115B0
331
113F5
  5
115B1
331
113F6
  5
115B2
331
113F7
  5
115B3
331
1151B
  5
10EDC
331
1151C
  5
10EDE
331
1151D
  5
10EDF
331
0
  5
10EE1
331
0
  5
10EE3
331
0
  5
10EE4
331
11521
  5
113D6
331
11522
  5
113D7
331
11523
  5
113D8
331
0
  5
113CC
331
0
  5
113CD
331
0
  5
113CE
331
11527
  5
113E6
331
11528
  5
113E7
331
11529
  5
113E8
331
0
  5
113D2
331
0
  5
113D3
331
0
  5
113D4
331
1152D
  5
113F1
331
1152E
  5
113F2
331
1152F
  5
113F3
331
0
  5
113D9
331
0
  5
113DA
331
0
  5
113DB
331
11533
  5
1151E
331
11534
  5
1151F
331
11535
  5
11520
331
0
  5
113DF
331
0
  5
113E0
331
0
  5
113E1
331
11539
  5
11528
331
1153A
  5
11529
331
1153B
  5
1152A
331
1153C
  5
1152B
331
1153D
  5
1152C
331
1153E
  5
1152D
331
1153F
  5
1152E
331
11540
  5
1152F
331
11541
  5
11530
331
11542
  5
11531
331
11543
  5
11532
331
11544
  5
11533
331
11545
  5
11534
331
11546
  5
11535
331
11547
  5
11536
331
11548
  5
11537
331
11549
  5
11538
331
1154A
  5
11539
331
1154B
  5
1153A
331
1154C
  5
1153B
331
1154D
  5
1153C
331
1154E
  5
1153D
331
1154F
  5
1153E
331
11550
  5
1153F
331
11551
  5
11540
331
11552
  5
11541
331
11553
  5
11542
331
11554
  5
11543
331
11555
  5
11544
331
11556
  5
11545
331
11557
  5
11546
331
11558
  5
11547
331
11559
  5
11548
331
1155A
  5
11549
331
1155B
  5
1154A
331
1155C
  5
1154E
331
1155D
  5
1154F
331
1155E
  5
11550
331
1155F
  5
11551
331
11560
  5
11552
331
11561
  5
11553
331
11562
  5
11554
331
11563
  5
11555
331
11564
  5
11556
331
11565
  5
11557
331
11566
  5
11558
331
11567
  5
11559
331
11568
  5
1155A
331
11569
  5
1155B
331
1156A
  5
1155C
331
1156B
  5
1155D
331
1156C
  5
1155E
331
1156D
  5
1155F
331
1156E
  5
11560
331
1156F
  5
11561
331
11570
  5
11562
331
11571
  5
11563
331
11572
  5
11564
331
11573
  5
11565
331
11574
  5
11566
331
11575
  5
11567
331
11576
  5
11568
331
11577
  5
11569
331
11578
  5
1156A
331
11579
  5
1156B
331
1157A
  5
1156C
331
1157B
  5
1156E
331
1157C
  5
1156F
331
1157D
  5
11570
331
0
  5
1154B
331
0
  5
1154C
331
0
  5
1154D
331
11581
  5
11578
331
11582
  5
11579
331
11583
  5
1157A
331
11584
  5
1157B
331
11585
  5
1157C
331
11586
  5
1157D
331
11587
  5
1157E
331
11588
  5
1157F
331
11589
  5
11580
331
1158A
  5
10F04
331
1158B
  5
10F6F
331
1158C
  5
113C5
331
1158D
  5
113C6
331
1158E
  5
113C7
331
1158F
  5
113C8
331
11590
  5
113C9
331
11591
  5
113DC
331
11592
  5
113DD
331
11593
  5
113DE
331
11594
  5
113E2
331
11595
  5
113E3
331
11596
  5
113E4
331
11597
  5
113E5
331
11598
  5
113E9
331
11599
  5
113EA
331
1159A
  5
113EB
331
1159B
  5
113EC
331
1159C
  5
113ED
331
1159D
  5
113EE
331
1159E
  5
113EF
331
1159F
  5
113F4
331
115A0
  5
113F5
331
115A1
  5
113F6
331
115A2
  5
113F7
331
115A3
  5
1151B
331
115A4
  5
1151C
331
115A5
  5
1151D
331
115A6
  5
11521
331
115A7
  5
11522
331
115A8
  5
11523
331
115A9
  5
11524
331
115AA
  5
11525
331
115AB
  5
11526
331
115AC
  5
11527
331
115AD
  5
11571
331
115AE
  5
11572
331
115AF
  5
11573
331
115B0
  5
11574
331
115B1
  5
11575
331
115B2
  5
11576
331
115B3
  5
11577
  0
MATERIAL
  5
D05A
102
{ACAD_REACTORS
330
18C
102
}
102
{ACAD_XDICTIONARY
360
11752
102
}
330
18C
100
AcDbMaterial
  1
BYBLOCK
 72
     0
 73
     2
 43
0.0208333333333333
 43
0.0
 43
0.0
 43
0.0
 43
0.0
 43
0.0208333333333333
 43
0.0
 43
0.0
 43
0.0
 43
0.0
 43
1.0
 43
0.0
 43
0.0
 43
0.0
 43
0.0
 43
1.0
 77
     0
 78
     2
 47
0.0208333333333333
 47
0.0
 47
0.0
 47
0.0
 47
0.0
 47
0.0208333333333333
 47
0.0
 47
0.0
 47
0.0
 47
0.0
 47
1.0
 47
0.0
 47
0.0
 47
0.0
 47
0.0
 47
1.0
171
     0
172
     2
 49
0.0208333333333333
 49
0.0
 49
0.0
 49
0.0
 49
0.0
 49
0.0208333333333333
 49
0.0
 49
0.0
 49
0.0
 49
0.0
 49
1.0
 49
0.0
 49
0.0
 49
0.0
 49
0.0
 49
1.0
175
     0
176
     2
142
0.0208333333333333
142
0.0
142
0.0
142
0.0
142
0.0
142
0.0208333333333333
142
0.0
142
0.0
142
0.0
142
0.0
142
1.0
142
0.0
142
0.0
142
0.0
142
0.0
142
1.0
179
     0
270
     2
144
0.0208333333333333
144
0.0
144
0.0
144
0.0
144
0.0
144
0.0208333333333333
144
0.0
144
0.0
144
0.0
144
0.0
144
1.0
144
0.0
144
0.0
144
0.0
144
0.0
144
1.0
274
     2
147
0.0208333333333333
147
0.0
147
0.0
147
0.0
147
0.0
147
0.0208333333333333
147
0.0
147
0.0
147
0.0
147
0.0
147
1.0
147
0.0
147
0.0
147
0.0
147
0.0
147
1.0
  0
MATERIAL
  5
D052
102
{ACAD_REACTORS
330
18C
102
}
102
{ACAD_XDICTIONARY
360
11754
102
}
330
18C
100
AcDbMaterial
  1
BYLAYER
 72
     0
 73
     2
 43
0.0208333333333333
 43
0.0
 43
0.0
 43
0.0
 43
0.0
 43
0.0208333333333333
 43
0.0
 43
0.0
 43
0.0
 43
0.0
 43
1.0
 43
0.0
 43
0.0
 43
0.0
 43
0.0
 43
1.0
 77
     0
 78
     2
 47
0.0208333333333333
 47
0.0
 47
0.0
 47
0.0
 47
0.0
 47
0.0208333333333333
 47
0.0
 47
0.0
 47
0.0
 47
0.0
 47
1.0
 47
0.0
 47
0.0
 47
0.0
 47
0.0
 47
1.0
171
     0
172
     2
 49
0.0208333333333333
 49
0.0
 49
0.0
 49
0.0
 49
0.0
 49
0.0208333333333333
 49
0.0
 49
0.0
 49
0.0
 49
0.0
 49
1.0
 49
0.0
 49
0.0
 49
0.0
 49
0.0
 49
1.0
175
     0
176
     2
142
0.0208333333333333
142
0.0
142
0.0
142
0.0
142
0.0
142
0.0208333333333333
142
0.0
142
0.0
142
0.0
142
0.0
142
1.0
142
0.0
142
0.0
142
0.0
142
0.0
142
1.0
179
     0
270
     2
144
0.0208333333333333
144
0.0
144
0.0
144
0.0
144
0.0
144
0.0208333333333333
144
0.0
144
0.0
144
0.0
144
0.0
144
1.0
144
0.0
144
0.0
144
0.0
144
0.0
144
1.0
274
     2
147
0.0208333333333333
147
0.0
147
0.0
147
0.0
147
0.0
147
0.0208333333333333
147
0.0
147
0.0
147
0.0
147
0.0
147
1.0
147
0.0
147
0.0
147
0.0
147
0.0
147
1.0
  0
MATERIAL
  5
D062
102
{ACAD_REACTORS
330
18C
102
}
102
{ACAD_XDICTIONARY
360
11756
102
}
330
18C
100
AcDbMaterial
  1
GLOBAL
 72
     0
 73
     2
 43
0.0208333333333333
 43
0.0
 43
0.0
 43
0.0
 43
0.0
 43
0.0208333333333333
 43
0.0
 43
0.0
 43
0.0
 43
0.0
 43
1.0
 43
0.0
 43
0.0
 43
0.0
 43
0.0
 43
1.0
 77
     0
 78
     2
 47
0.0208333333333333
 47
0.0
 47
0.0
 47
0.0
 47
0.0
 47
0.0208333333333333
 47
0.0
 47
0.0
 47
0.0
 47
0.0
 47
1.0
 47
0.0
 47
0.0
 47
0.0
 47
0.0
 47
1.0
171
     0
172
     2
 49
0.0208333333333333
 49
0.0
 49
0.0
 49
0.0
 49
0.0
 49
0.0208333333333333
 49
0.0
 49
0.0
 49
0.0
 49
0.0
 49
1.0
 49
0.0
 49
0.0
 49
0.0
 49
0.0
 49
1.0
175
     0
176
     2
142
0.0208333333333333
142
0.0
142
0.0
142
0.0
142
0.0
142
0.0208333333333333
142
0.0
142
0.0
142
0.0
142
0.0
142
1.0
142
0.0
142
0.0
142
0.0
142
0.0
142
1.0
179
     0
270
     2
144
0.0208333333333333
144
0.0
144
0.0
144
0.0
144
0.0
144
0.0208333333333333
144
0.0
144
0.0
144
0.0
144
0.0
144
1.0
144
0.0
144
0.0
144
0.0
144
0.0
144
1.0
274
     2
147
0.0208333333333333
147
0.0
147
0.0
147
0.0
147
0.0
147
0.0208333333333333
147
0.0
147
0.0
147
0.0
147
0.0
147
1.0
147
0.0
147
0.0
147
0.0
147
0.0
147
1.0
  0
ACAD_PROXY_OBJECT
  5
D09E
102
{ACAD_REACTORS
330
D09D
102
}
330
D09D
100
AcDbZombieObject
 90
      499
 91
      511
 93
      610
310
40901902A4063FBFFFFFE000000000000002040AD7A3703D0AD73F4214DD185B99185C990000000000000104090141901A00000000000004100000000000000041025764000000000000300FC0
340
12
340
0
340
F
340
0
 94
        0
1001
ACAD_MLEADERVER
1070
     2
  0
MLINESTYLE
  5
1C
102
{ACAD_REACTORS
330
1B
102
}
330
1B
100
AcDbMlineStyle
  2
STANDARD
 70
     0
  3

 62
   256
 51
90.0
 52
90.0
 71
     2
 49
0.5
 62
   256
  6
BYLAYER
 49
-0.5
 62
   256
  6
BYLAYER
  0
ACAD_PROXY_OBJECT
  5
D07C
102
{ACAD_REACTORS
330
D07B
102
}
330
D07B
100
AcDbZombieObject
 90
      499
 91
      510
 93
       41
310
903313A31580
  0
ACAD_PROXY_OBJECT
  5
D07D
102
{ACAD_REACTORS
330
D07B
102
}
330
D07B
100
AcDbZombieObject
 90
      499
 91
      510
 93
      105
310
903313A324000000000000004000
  0
ACAD_PROXY_OBJECT
  5
D07E
102
{ACAD_REACTORS
330
D07B
102
}
330
D07B
100
AcDbZombieObject
 90
      499
 91
      510
 93
      105
310
903313A344000000000000104000
  0
ACAD_PROXY_OBJECT
  5
D07F
102
{ACAD_REACTORS
330
D07B
102
}
330
D07B
100
AcDbZombieObject
 90
      499
 91
      510
 93
      105
310
903313A354000000000000144000
  0
ACAD_PROXY_OBJECT
  5
D080
102
{ACAD_REACTORS
330
D07B
102
}
330
D07B
100
AcDbZombieObject
 90
      499
 91
      510
 93
      105
310
903313A384000000000000204000
  0
ACAD_PROXY_OBJECT
  5
D081
102
{ACAD_REACTORS
330
D07B
102
}
330
D07B
100
AcDbZombieObject
 90
      499
 91
      510
 93
      113
310
904313A31304000000000000244000
  0
ACAD_PROXY_OBJECT
  5
D082
102
{ACAD_REACTORS
330
D07B
102
}
330
D07B
100
AcDbZombieObject
 90
      499
 91
      510
 93
      113
310
904313A31364000000000000304000
  0
ACAD_PROXY_OBJECT
  5
D083
102
{ACAD_REACTORS
330
D07B
102
}
330
D07B
100
AcDbZombieObject
 90
      499
 91
      510
 93
      113
310
904313A32304000000000000344000
  0
ACAD_PROXY_OBJECT
  5
D084
102
{ACAD_REACTORS
330
D07B
102
}
330
D07B
100
AcDbZombieObject
 90
      499
 91
      510
 93
      113
310
904313A333040000000000003E4000
  0
ACAD_PROXY_OBJECT
  5
D085
102
{ACAD_REACTORS
330
D07B
102
}
330
D07B
100
AcDbZombieObject
 90
      499
 91
      510
 93
      113
310
904313A34304000000000000444000
  0
ACAD_PROXY_OBJECT
  5
D086
102
{ACAD_REACTORS
330
D07B
102
}
330
D07B
100
AcDbZombieObject
 90
      499
 91
      510
 93
      113
310
904313A35304000000000000494000
  0
ACAD_PROXY_OBJECT
  5
D087
102
{ACAD_REACTORS
330
D07B
102
}
330
D07B
100
AcDbZombieObject
 90
      499
 91
      510
 93
      121
310
905313A3130304000000000000594000
  0
ACAD_PROXY_OBJECT
  5
D088
102
{ACAD_REACTORS
330
D07B
102
}
330
D07B
100
AcDbZombieObject
 90
      499
 91
      510
 93
      105
310
903323A310000000000000010100
  0
ACAD_PROXY_OBJECT
  5
D089
102
{ACAD_REACTORS
330
D07B
102
}
330
D07B
100
AcDbZombieObject
 90
      499
 91
      510
 93
      105
310
903343A310000000000000410100
  0
ACAD_PROXY_OBJECT
  5
D08A
102
{ACAD_REACTORS
330
D07B
102
}
330
D07B
100
AcDbZombieObject
 90
      499
 91
      510
 93
      105
310
903383A310000000000000810100
  0
ACAD_PROXY_OBJECT
  5
D08B
102
{ACAD_REACTORS
330
D07B
102
}
330
D07B
100
AcDbZombieObject
 90
      499
 91
      510
 93
      113
310
90431303A310000000000000910100
  0
ACAD_PROXY_OBJECT
  5
D08C
102
{ACAD_REACTORS
330
D07B
102
}
330
D07B
100
AcDbZombieObject
 90
      499
 91
      510
 93
      121
310
9053130303A310000000000001650100
  0
ACAD_PROXY_OBJECT
  5
D08D
102
{ACAD_REACTORS
330
D07B
102
}
330
D07B
100
AcDbZombieObject
 90
      499
 91
      510
 93
      257
310
90E312F31323822203D2031272D3022000000000000200FC000000000000284000
  0
ACAD_PROXY_OBJECT
  5
D08E
102
{ACAD_REACTORS
330
D07B
102
}
330
D07B
100
AcDbZombieObject
 90
      499
 91
      510
 93
      249
310
90D312F363422203D2031272D3022000000000000240FC000000000000284000
  0
ACAD_PROXY_OBJECT
  5
D08F
102
{ACAD_REACTORS
330
D07B
102
}
330
D07B
100
AcDbZombieObject
 90
      499
 91
      510
 93
      249
310
90D312F333222203D2031272D3022000000000000280FC000000000000284000
  0
ACAD_PROXY_OBJECT
  5
D090
102
{ACAD_REACTORS
330
D07B
102
}
330
D07B
100
AcDbZombieObject
 90
      499
 91
      510
 93
      249
310
90D312F313622203D2031272D30220000000000002C0FC000000000000284000
  0
ACAD_PROXY_OBJECT
  5
D091
102
{ACAD_REACTORS
330
D07B
102
}
330
D07B
100
AcDbZombieObject
 90
      499
 91
      510
 93
      249
310
90D332F333222203D2031272D30220000000000002E0FC000000000000284000
  0
ACAD_PROXY_OBJECT
  5
D092
102
{ACAD_REACTORS
330
D07B
102
}
330
D07B
100
AcDbZombieObject
 90
      499
 91
      510
 93
      241
310
90C312F3822203D2031272D3022000000000000300FC000000000000284000
  0
ACAD_PROXY_OBJECT
  5
D093
102
{ACAD_REACTORS
330
D07B
102
}
330
D07B
100
AcDbZombieObject
 90
      499
 91
      510
 93
      249
310
90D332F313622203D2031272D3022000000000000320FC000000000000284000
  0
ACAD_PROXY_OBJECT
  5
D094
102
{ACAD_REACTORS
330
D07B
102
}
330
D07B
100
AcDbZombieObject
 90
      499
 91
      510
 93
      241
310
90C312F3422203D2031272D3022000000000000340FC000000000000284000
  0
ACAD_PROXY_OBJECT
  5
D095
102
{ACAD_REACTORS
330
D07B
102
}
330
D07B
100
AcDbZombieObject
 90
      499
 91
      510
 93
      241
310
90C332F3822203D2031272D3022000000000000360FC000000000000284000
  0
ACAD_PROXY_OBJECT
  5
D096
102
{ACAD_REACTORS
330
D07B
102
}
330
D07B
100
AcDbZombieObject
 90
      499
 91
      510
 93
      241
310
90C312F3222203D2031272D3022000000000000380FC000000000000284000
  0
ACAD_PROXY_OBJECT
  5
D097
102
{ACAD_REACTORS
330
D07B
102
}
330
D07B
100
AcDbZombieObject
 90
      499
 91
      510
 93
      241
310
90C332F3422203D2031272D30220000000000003A0FC000000000000284000
  0
ACAD_PROXY_OBJECT
  5
D098
102
{ACAD_REACTORS
330
D07B
102
}
330
D07B
100
AcDbZombieObject
 90
      499
 91
      510
 93
      161
310
90A3122203D2031272D30224000000000000284000
  0
ACAD_PROXY_OBJECT
  5
D099
102
{ACAD_REACTORS
330
D07B
102
}
330
D07B
100
AcDbZombieObject
 90
      499
 91
      510
 93
      257
310
90E312D312F3222203D2031272D30220000000000003E0FC000000000000284000
  0
ACAD_PROXY_OBJECT
  5
D09A
102
{ACAD_REACTORS
330
D07B
102
}
330
D07B
100
AcDbZombieObject
 90
      499
 91
      510
 93
      225
310
90A3322203D2031272D302200000000000002100000000000000284000
  0
ACAD_PROXY_OBJECT
  5
D09B
102
{ACAD_REACTORS
330
D07B
102
}
330
D07B
100
AcDbZombieObject
 90
      499
 91
      510
 93
      225
310
90A3622203D2031272D302200000000000006100000000000000284000
  0
ACAD_PROXY_OBJECT
  5
D09C
102
{ACAD_REACTORS
330
D07B
102
}
330
D07B
100
AcDbZombieObject
 90
      499
 91
      510
 93
      249
310
90D31272D3022203D2031272D30220000000000000A100000000000000284000
  0
ACAD_PROXY_OBJECT
  5
D070
102
{ACAD_REACTORS
330
D06A
102
}
330
D06A
100
AcDbZombieObject
 90
      499
 91
      509
 93
      436
310
42CC9915DA5C99599C985B595049028333333333333E3BF0000000000000FB0107901411070040501600405405064090741402480A0340
1001
ACAD
1000
AcDbSavedByObjectVersion
1070
     0
  0
ACAD_PROXY_OBJECT
  5
D072
102
{ACAD_REACTORS
330
D06A
102
}
330
D06A
100
AcDbZombieObject
 90
      499
 91
      509
 93
      500
310
424CD108121A5919195B90640502408333333333333E3BF0000000000000FB01079024090700405020000000000001110200405405064090740C02480A0340
1001
ACAD
1000
AcDbSavedByObjectVersion
1070
     0
  0
ACAD_PROXY_OBJECT
  5
D071
102
{ACAD_REACTORS
330
D06A
102
}
330
D06A
100
AcDbZombieObject
 90
      499
 91
      509
 93
      436
310
42CCD915DA5C99599C985B595059028333333333333E3BF0000000000000FB0107901411070040501600405405064090741402480A0340
1001
ACAD
1000
AcDbSavedByObjectVersion
1070
     0
  0
ACAD_PROXY_OBJECT
  5
D06F
102
{ACAD_REACTORS
330
D06A
102
}
330
D06A
100
AcDbZombieObject
 90
      499
 91
      509
 93
      388
310
4150985CDA58D07406404333333333333E3BF0000000000000FB0107A41107004050150841D405064090741402480A0350
1001
ACAD
1000
AcDbSavedByObjectVersion
1070
     0
  0
ACAD_PROXY_OBJECT
  5
D076
102
{ACAD_REACTORS
330
D06A
102
}
330
D06A
100
AcDbZombieObject
 90
      499
 91
      509
 93
      428
310
42109C9A59DA1D195B90C409028333333333333E3BF0000000000000FB010790141107004050150841D405064090741402480A029950
1001
ACAD
1000
AcDbSavedByObjectVersion
1070
     0
  0
ACAD_PROXY_OBJECT
  5
D07A
102
{ACAD_REACTORS
330
D06A
102
}
330
D06A
100
AcDbZombieObject
 90
      499
 91
      509
 93
      452
310
42D0DBDB1BDC90DA185B99D95104090240C333333333333E3BF0000000000000FB0108901411070040501508421405064090741402480A0350
1001
ACAD
1000
AcDbSavedByObjectVersion
1070
     0
  0
ACAD_PROXY_OBJECT
  5
D073
102
{ACAD_REACTORS
330
D06A
102
}
330
D06A
100
AcDbZombieObject
 90
      499
 91
      509
 93
      500
310
4290DBDB98D95C1D1D585B10940D028333333333333E3BF0000000000000FB0107902409070040501000000000000111010841D405064090740C02480A0340
1001
ACAD
1000
AcDbSavedByObjectVersion
1070
     0
  0
ACAD_PROXY_OBJECT
  5
D075
102
{ACAD_REACTORS
330
D06A
102
}
330
D06A
100
AcDbZombieObject
 90
      499
 91
      509
 93
      412
310
40D11A5B50B409028333333333333E3BF0000000000000FB010790141107004050150841D405064090741402480A02677FFFFFD0
1001
ACAD
1000
AcDbSavedByObjectVersion
1070
     0
  0
ACAD_PROXY_OBJECT
  5
D29F
102
{ACAD_REACTORS
330
D06A
102
}
330
D06A
100
AcDbZombieObject
 90
      499
 91
      509
 93
      452
310
43115919D950DBDB1BDC93D999916409028333333333333E3BF0000000000000FB010790141107004050150841D405064090741402480A0350
1001
ACAD
1000
AcDbSavedByObjectVersion
1070
     0
  0
ACAD_PROXY_OBJECT
  5
D079
102
{ACAD_REACTORS
330
D06A
102
}
330
D06A
100
AcDbZombieObject
 90
      499
 91
      509
 93
      444
310
42D19858D95C185D1D195C9B90F409028333333333333E3BF0000000000000FB010790141107004050150841D405064090741402480A0350
1001
ACAD
1000
AcDbSavedByObjectVersion
1070
     0
  0
ACAD_PROXY_OBJECT
  5
D06B
102
{ACAD_REACTORS
330
D06A
102
}
330
D06A
100
AcDbZombieObject
 90
      499
 91
      509
 93
      388
310
41119B185D240901404333333333333E3BF0000000000000F9010740A41107004050150841D405064090741402480A1B50
1001
ACAD
1000
AcDbSavedByObjectVersion
1070
     0
  0
ACAD_PROXY_OBJECT
  5
D06C
102
{ACAD_REACTORS
330
D06A
102
}
330
D06A
100
AcDbZombieObject
 90
      499
 91
      509
 93
      476
310
43519B185D15DA5D1A115919D95CD0140901404333333333333E3BF0000000000000F9010740901411070040501600405405064090741402480A1B50
1001
ACAD
1000
AcDbSavedByObjectVersion
1070
     0
  0
ACAD_PROXY_OBJECT
  5
D06D
102
{ACAD_REACTORS
330
D06A
102
}
330
D06A
100
AcDbZombieObject
 90
      499
 91
      509
 93
      412
310
41D1DBDD5C985D5910240902404333333333333E3BF0000000000000F9010740A411070040501641D405064090741402480A1B50
1001
ACAD
1000
AcDbSavedByObjectVersion
1070
     0
  0
ACAD_PROXY_OBJECT
  5
D06E
102
{ACAD_REACTORS
330
D06A
102
}
330
D06A
100
AcDbZombieObject
 90
      499
 91
      509
 93
      500
310
4411DBDD5C985D5915DA5D1A115919D95CD0340902404333333333333E3BF0000000000000F9010740901411070040501600405405064090741402480A1B50
1001
ACAD
1000
AcDbSavedByObjectVersion
1070
     0
  0
ACAD_PROXY_OBJECT
  5
F225
102
{ACAD_REACTORS
330
D06A
102
}
330
D06A
100
AcDbZombieObject
 90
      499
 91
      509
 93
      476
310
41921A5919195B90640502408333333333333E33F0000000000000F901079024090700405020000000000001110200405405064090740C02480A0340
1001
ACAD
1000
AcDbSavedByObjectVersion
1070
     0
  0
ACAD_PROXY_OBJECT
  5
D29D
102
{ACAD_REACTORS
330
D06A
102
}
330
D06A
100
AcDbZombieObject
 90
      499
 91
      509
 93
      428
310
42529A5D1D195C93D999914409028333333333333E3BF0000000000000FB010790141107004050150A41D405064090741402480A0350
1001
ACAD
1000
AcDbSavedByObjectVersion
1070
     0
  0
ACAD_PROXY_OBJECT
  5
D078
102
{ACAD_REACTORS
330
D06A
102
}
330
D06A
100
AcDbZombieObject
 90
      499
 91
      509
 93
      444
310
42D31A5B995C185D1D195C9B90E409028333333333333E3BF0000000000000FB010790141107004050750841D405064090741402483A0350
1001
ACAD
1000
AcDbSavedByObjectVersion
1070
     0
  0
ACAD_PROXY_OBJECT
  5
F22B
102
{ACAD_REACTORS
330
D06A
102
}
330
D06A
100
AcDbZombieObject
 90
      499
 91
      509
 93
      484
310
42135BD9195B1A5B99D0A409038333333333333E33F0000000000000F901074090290700405010000000000201990108421405064090741402480A1B40
1001
ACAD
1000
AcDbSavedByObjectVersion
1070
     0
  0
ACAD_PROXY_OBJECT
  5
D29E
102
{ACAD_REACTORS
330
D06A
102
}
330
D06A
100
AcDbZombieObject
 90
      499
 91
      509
 93
      444
310
42D3DD995C9A185B99D3D999915409028333333333333E3BF0000000000000FB010790141107004050150941D405064090741402480A0350
1001
ACAD
1000
AcDbSavedByObjectVersion
1070
     0
  0
ACAD_PROXY_OBJECT
  5
D074
102
{ACAD_REACTORS
330
D06A
102
}
330
D06A
100
AcDbZombieObject
 90
      499
 91
      509
 93
      420
310
425499585B1A5CDD1A58D08409028333333333333E3BF0000000000000FB01079019070040501508421405064090741402480A1B40
1001
ACAD
1000
AcDbSavedByObjectVersion
1070
     0
  0
ACAD_PROXY_OBJECT
  5
F22A
102
{ACAD_REACTORS
330
D06A
102
}
330
D06A
100
AcDbZombieObject
 90
      499
 91
      509
 93
      420
310
4194DA1859195911B40902404333333333333E33F0000000000000F9010740A41107004050150800405405064090840C02480A0B40
1001
ACAD
1000
AcDbSavedByObjectVersion
1070
     0
  0
ACAD_PROXY_OBJECT
  5
F229
102
{ACAD_REACTORS
330
D06A
102
}
330
D06A
100
AcDbZombieObject
 90
      499
 91
      509
 93
      516
310
4454DA18591959081DDA5D1A08195919D95CD1A40902404333333333333E33F0000000000000F901074090142907004050250800405405064090740C02480A0B40
1001
ACAD
1000
AcDbSavedByObjectVersion
1070
     0
  0
ACAD_PROXY_OBJECT
  5
F226
102
{ACAD_REACTORS
330
D06A
102
}
330
D06A
100
AcDbZombieObject
 90
      499
 91
      509
 93
      532
310
4394DA1859195CC81BD98811DC985E5174090240C333333333333E33F0000000000000F901079024090741D01000000000000111010841D405064090740C02480A0340
1001
ACAD
1000
AcDbSavedByObjectVersion
1070
     0
  0
ACAD_PROXY_OBJECT
  5
F227
102
{ACAD_REACTORS
330
D06A
102
}
330
D06A
100
AcDbZombieObject
 90
      499
 91
      509
 93
      476
310
41D4DAD95D18DA1E51840502408333333333333E33F0000000000000F901079024090741D01000000000000111010B41D405064090741802480A0340
1001
ACAD
1000
AcDbSavedByObjectVersion
1070
     0
  0
ACAD_PROXY_OBJECT
  5
D077
102
{ACAD_REACTORS
330
D06A
102
}
330
D06A
100
AcDbZombieObject
 90
      499
 91
      509
 93
      412
310
41D51A1A58DAD95B90D409028333333333333E3BF0000000000000FB010790141107004050150C41D405064090741402480A0350
1001
ACAD
1000
AcDbSavedByObjectVersion
1070
     0
  0
ACAD_PROXY_OBJECT
  5
F224
102
{ACAD_REACTORS
330
D06A
102
}
330
D06A
100
AcDbZombieObject
 90
      499
 91
      509
 93
      420
310
4255DA5C99599C985B595059028333333333333E33F0000000000000F90107901411070040501600405405064090740C02480A0340
1001
ACAD
1000
AcDbSavedByObjectVersion
1070
     0
  0
ACAD_PROXY_OBJECT
  5
F228
102
{ACAD_REACTORS
330
D06A
102
}
330
D06A
100
AcDbZombieObject
 90
      499
 91
      509
 93
      404
310
41560B54985E51940902404000000000000E03F0000000000000F9010740501907004050150841D405064090740C02480A1B40
1001
ACAD
1000
AcDbSavedByObjectVersion
1070
     0
  0
XRECORD
  5
115B5
102
{ACAD_REACTORS
330
115B4
102
}
330
115B4
100
AcDbXrecord
340
18D
  0
XRECORD
  5
115B6
102
{ACAD_REACTORS
330
115B4
102
}
330
115B4
100
AcDbXrecord
340
18C
  0
DICTIONARYVAR
  5
F285
102
{ACAD_REACTORS
330
37
102
}
330
37
100
DictionaryVariables
280
     0
  1
1:1
  0
DICTIONARYVAR
  5
D117
102
{ACAD_REACTORS
330
37
102
}
330
37
100
DictionaryVariables
280
     0
  1
Standard
  0
DICTIONARYVAR
  5
29E
102
{ACAD_REACTORS
330
37
102
}
330
37
100
DictionaryVariables
280
     0
  1
Standard
  0
DICTIONARYVAR
  5
38
102
{ACAD_REACTORS
330
37
102
}
330
37
100
DictionaryVariables
280
     0
  1
-1
  0
DICTIONARYVAR
  5
1CE
102
{ACAD_REACTORS
330
37
102
}
330
37
100
DictionaryVariables
280
     0
  1
2
  0
DICTIONARYVAR
  5
704E
102
{ACAD_REACTORS
330
37
102
}
330
37
100
DictionaryVariables
280
     0
  1
1
  0
DICTIONARYVAR
  5
D11A
102
{ACAD_REACTORS
330
37
102
}
330
37
100
DictionaryVariables
280
     0
  1
0
  0
DICTIONARYVAR
  5
7052
102
{ACAD_REACTORS
330
37
102
}
330
37
100
DictionaryVariables
280
     0
  1
8
  0
DICTIONARYVAR
  5
7051
102
{ACAD_REACTORS
330
37
102
}
330
37
100
DictionaryVariables
280
     0
  1
1
  0
DICTIONARYVAR
  5
F286
102
{ACAD_REACTORS
330
37
102
}
330
37
100
DictionaryVariables
280
     0
  1
0
  0
DICTIONARYVAR
  5
704F
102
{ACAD_REACTORS
330
37
102
}
330
37
100
DictionaryVariables
280
     0
  1
8
  0
DICTIONARYVAR
  5
7050
102
{ACAD_REACTORS
330
37
102
}
330
37
100
DictionaryVariables
280
     0
  1
2
  0
DICTIONARYVAR
  5
1CF
102
{ACAD_REACTORS
330
37
102
}
330
37
100
DictionaryVariables
280
     0
  1

  0
DICTIONARYVAR
  5
D119
102
{ACAD_REACTORS
330
37
102
}
330
37
100
DictionaryVariables
280
     0
  1
127
  0
DICTIONARYVAR
  5
F223
102
{ACAD_REACTORS
330
37
102
}
330
37
100
DictionaryVariables
280
     0
  1
2
  0
DICTIONARY
  5
11752
330
D05A
100
AcDbDictionary
  3
ACAD_XREC_ROUNDTRIP
360
11753
1001
ACAD
1000
TREAT_AS_HARD
1070
     1
  0
DICTIONARY
  5
11754
330
D052
100
AcDbDictionary
  3
ACAD_XREC_ROUNDTRIP
360
11755
1001
ACAD
1000
TREAT_AS_HARD
1070
     1
  0
DICTIONARY
  5
11756
330
D062
100
AcDbDictionary
  3
ACAD_XREC_ROUNDTRIP
360
11757
1001
ACAD
1000
TREAT_AS_HARD
1070
     1
  0
XRECORD
  5
11753
102
{ACAD_REACTORS
330
11752
102
}
330
11752
100
AcDbXrecord
102
MATERIAL
148
0.0
149
0.0
149
0.0
 93
        0
 94
      127
282
     0
 72
     0
 77
     0
171
     0
175
     0
179
     0
273
     0
  0
XRECORD
  5
11755
102
{ACAD_REACTORS
330
11754
102
}
330
11754
100
AcDbXrecord
102
MATERIAL
148
0.0
149
0.0
149
0.0
 93
        0
 94
      127
282
     0
 72
     0
 77
     0
171
     0
175
     0
179
     0
273
     0
  0
XRECORD
  5
11757
102
{ACAD_REACTORS
330
11756
102
}
330
11756
100
AcDbXrecord
102
MATERIAL
148
0.0
149
0.0
149
0.0
 93
        0
 94
      127
282
     0
 72
     0
 77
     0
171
     0
175
     0
179
     0
273
     0
  0
ENDSEC
  0
EOF
