  0
SECTION
  2
HEADER
  9
$ACADVER
  1
AC1009
  9
$INSBASE
 10
0.0
 20
0.0
 30
0.0
  9
$EXTMIN
 10
-33.544732595329997
 20
-135.51244800205109
 30
0.0
  9
$EXTMAX
 10
870.74458072950677
 20
136.14893704731611
 30
0.0
  9
$LIMMIN
 10
0.0
 20
0.0
  9
$LIMMAX
 10
420.0
 20
297.0
  9
$ORTHOMODE
 70
     0
  9
$REGENMODE
 70
     1
  9
$FILLMODE
 70
     1
  9
$QTEXTMODE
 70
     0
  9
$MIRRTEXT
 70
     1
  9
$DRAGMODE
 70
     2
  9
$LTSCALE
 40
0.5
  9
$OSMODE
 70
  2175
  9
$ATTMODE
 70
     1
  9
$TEXTSIZE
 40
4.0
  9
$TRACEWID
 40
1.0
  9
$TEXTSTYLE
  7
STANDARD
  9
$CLAYER
  8
1TEXT
  9
$CELTYPE
  6
BYLAYER
  9
$CECOLOR
 62
   256
  9
$DIMSCALE
 40
2.0
  9
$DIMASZ
 40
2.0
  9
$DIMEXO
 40
0.0
  9
$DIMDLI
 40
7.0
  9
$DIMRND
 40
0.0
  9
$DIMDLE
 40
0.0
  9
$DIMEXE
 40
1.0
  9
$DIMTP
 40
0.0
  9
$DIMTM
 40
0.0
  9
$DIMTXT
 40
3.5
  9
$DIMCEN
 40
0.0
  9
$DIMTSZ
 40
0.0
  9
$DIMTOL
 70
     0
  9
$DIMLIM
 70
     0
  9
$DIMTIH
 70
     0
  9
$DIMTOH
 70
     0
  9
$DIMSE1
 70
     0
  9
$DIMSE2
 70
     0
  9
$DIMTAD
 70
     1
  9
$DIMZIN
 70
     8
  9
$DIMBLK
  1

  9
$DIMASO
 70
     1
  9
$DIMSHO
 70
     1
  9
$DIMPOST
  1
 
  9
$DIMAPOST
  1

  9
$DIMALT
 70
     0
  9
$DIMALTD
 70
     2
  9
$DIMALTF
 40
25.399999999999999
  9
$DIMLFAC
 40
1.0
  9
$DIMTOFL
 70
     1
  9
$DIMTVP
 40
0.0
  9
$DIMTIX
 70
     0
  9
$DIMSOXD
 70
     0
  9
$DIMSAH
 70
     1
  9
$DIMBLK1
  1
OPEN30
  9
$DIMBLK2
  1
OPEN30
  9
$DIMSTYLE
  2
NEWX10
  9
$DIMCLRD
 70
   256
  9
$DIMCLRE
 70
   256
  9
$DIMCLRT
 70
   201
  9
$DIMTFAC
 40
0.7
  9
$DIMGAP
 40
0.7
  9
$LUNITS
 70
     2
  9
$LUPREC
 70
     4
  9
$SKETCHINC
 40
1.0
  9
$FILLETRAD
 40
0.0
  9
$AUNITS
 70
     0
  9
$AUPREC
 70
     2
  9
$MENU
  1
acad
  9
$ELEVATION
 40
0.0
  9
$PELEVATION
 40
0.0
  9
$THICKNESS
 40
0.0
  9
$LIMCHECK
 70
     0
  9
$BLIPMODE
 70
     0
  9
$CHAMFERA
 40
0.5
  9
$CHAMFERB
 40
0.5
  9
$SKPOLY
 70
     0
  9
$TDCREATE
 40
2451318.621352917
  9
$TDUPDATE
 40
2455411.6809944562
  9
$TDINDWG
 40
2.8349277199
  9
$TDUSRTIMER
 40
2.8349277199
  9
$USRTIMER
 70
     1
  9
$ANGBASE
 50
0.0
  9
$ANGDIR
 70
     0
  9
$PDMODE
 70
     0
  9
$PDSIZE
 40
0.0
  9
$PLINEWID
 40
0.0
  9
$COORDS
 70
     2
  9
$SPLFRAME
 70
     0
  9
$SPLINETYPE
 70
     6
  9
$SPLINESEGS
 70
     8
  9
$ATTDIA
 70
     0
  9
$ATTREQ
 70
     1
  9
$HANDLING
 70
     1
  9
$HANDSEED
  5
A88B
  9
$SURFTAB1
 70
     6
  9
$SURFTAB2
 70
     6
  9
$SURFTYPE
 70
     6
  9
$SURFU
 70
     6
  9
$SURFV
 70
     6
  9
$UCSNAME
  2

  9
$UCSORG
 10
0.0
 20
0.0
 30
0.0
  9
$UCSXDIR
 10
1.0
 20
0.0
 30
0.0
  9
$UCSYDIR
 10
0.0
 20
1.0
 30
0.0
  9
$PUCSNAME
  2

  9
$PUCSORG
 10
0.0
 20
0.0
 30
0.0
  9
$PUCSXDIR
 10
1.0
 20
0.0
 30
0.0
  9
$PUCSYDIR
 10
0.0
 20
1.0
 30
0.0
  9
$USERI1
 70
     0
  9
$USERI2
 70
     0
  9
$USERI3
 70
     0
  9
$USERI4
 70
     0
  9
$USERI5
 70
     0
  9
$USERR1
 40
0.0
  9
$USERR2
 40
0.0
  9
$USERR3
 40
0.0
  9
$USERR4
 40
0.0
  9
$USERR5
 40
11.5
  9
$WORLDVIEW
 70
     1
  9
$SHADEDGE
 70
     3
  9
$SHADEDIF
 70
    70
  9
$TILEMODE
 70
     1
  9
$MAXACTVP
 70
    48
  9
$PLIMCHECK
 70
     0
  9
$PEXTMIN
 10
1.0000000000000000E+020
 20
1.0000000000000000E+020
 30
1.0000000000000000E+020
  9
$PEXTMAX
 10
-1.0000000000000000E+020
 20
-1.0000000000000000E+020
 30
-1.0000000000000000E+020
  9
$PLIMMIN
 10
0.0
 20
0.0
  9
$PLIMMAX
 10
420.0
 20
297.0
  9
$UNITMODE
 70
     0
  9
$VISRETAIN
 70
     1
  9
$PLINEGEN
 70
     0
  9
$PSLTSCALE
 70
     1
  0
ENDSEC
  0
SECTION
  2
TABLES
  0
TABLE
  2
VPORT
 70
     1
  0
VPORT
  2
*ACTIVE
 70
     0
 10
0.0
 20
0.0
 11
1.0
 21
1.0
 12
418.59992617255062
 22
0.3274533817240695
 13
0.0
 23
0.0
 14
10.0
 24
10.0
 15
10.0
 25
10.0
 16
0.0
 26
0.0
 36
1.0
 17
0.0
 27
0.0
 37
0.0
 40
677.61485386838979
 41
1.4123581336696089
 42
50.0
 43
0.0
 44
0.0
 50
0.0
 51
0.0
 71
     0
 72
   100
 73
     1
 74
     1
 75
     0
 76
     0
 77
     0
 78
     0
  0
ENDTAB
  0
TABLE
  2
LTYPE
 70
    14
  0
LTYPE
  2
CONTINUOUS
 70
     0
  3
Solid line
 72
    65
 73
     0
 40
0.0
  0
LTYPE
  2
A3WAKU|CENTER2
 70
    48
  3
Center (.5x) ___ _ ___ _ ___ _ ___ _ ___ _ ___
 72
    65
 73
     4
 40
28.574999999999999
 49
19.050000000000001
 49
-3.1749999999999989
 49
3.1749999999999989
 49
-3.1749999999999989
  0
LTYPE
  2
XREF1|CENTER2
 70
    48
  3
Center (.5x) ___ _ ___ _ ___ _ ___ _ ___ _ ___
 72
    65
 73
     4
 40
28.574999999999999
 49
19.050000000000001
 49
-3.1749999999999989
 49
3.1749999999999989
 49
-3.1749999999999989
  0
ENDTAB
  0
TABLE
  2
LAYER
 70
   102
  0
LAYER
  2
0
 70
     0
 62
     7
  6
CONTINUOUS
  0
LAYER
  2
1TEXT
 70
     0
 62
     7
  6
CONTINUOUS
  0
LAYER
  2
A3WAKU|THICK
 70
    48
 62
     7
  6
CONTINUOUS
  0
LAYER
  2
A3WAKU|POINT
 70
    48
 62
     7
  6
CONTINUOUS
  0
LAYER
  2
A3WAKU|1CENTER
 70
    48
 62
     7
  6
A3WAKU|CENTER2
  0
LAYER
  2
01
 70
     0
 62
     1
  6
CONTINUOUS
  0
LAYER
  2
A3WAKUDAKE|THICK
 70
    48
 62
     7
  6
CONTINUOUS
  0
LAYER
  2
A3WAKUDAKE|POINT
 70
    48
 62
     7
  6
CONTINUOUS
  0
LAYER
  2
A3WAKUDAKE|1CENTER
 70
    48
 62
     7
  6
CONTINUOUS
  0
LAYER
  2
A3WAKUDAKE|0-6
 70
    48
 62
     7
  6
CONTINUOUS
  0
LAYER
  2
A3WAKU|0-6
 70
    48
 62
     7
  6
CONTINUOUS
  0
LAYER
  2
A3WAKU|02
 70
    48
 62
     7
  6
CONTINUOUS
  0
LAYER
  2
A3WAKU|ZZ
 70
    48
 62
     7
  6
CONTINUOUS
  0
LAYER
  2
XREF1|1CENTER
 70
    48
 62
     7
  6
XREF1|CENTER2
  0
LAYER
  2
A3WAKUDAKE|1DIM
 70
    48
 62
     7
  6
CONTINUOUS
  0
ENDTAB
  0
TABLE
  2
STYLE
 70
    17
  0
STYLE
  2
STANDARD
 70
     0
 40
0.0
 41
1.0
 50
0.0
 71
     0
 42
4.0
  3
romans.shx
  4
extfont.shx
  0
ENDTAB
  0
TABLE
  2
VIEW
 70
     0
  0
ENDTAB
  0
TABLE
  2
UCS
 70
     0
  0
ENDTAB
  0
TABLE
  2
APPID
 70
    10
  0
APPID
  2
ACAD
 70
     0
  0
APPID
  2
DRAWINGVARIABLESXDATA
 70
     0
  0
APPID
  2
CONTENTTABDATA
 70
     0
  0
APPID
  2
CONTENTCURRENTTAB
 70
     0
  0
APPID
  2
CONTENTBLOCKDESCRIPTION
 70
     0
  0
APPID
  2
CONTENTBLOCKICON
 70
     0
  0
APPID
  2
CONTENTLONGBLOCKNAME
 70
     0
  0
APPID
  2
ACAD_PSEXT
 70
     0
  0
APPID
  2
ACAD_MLEADERVER
 70
     0
  0
APPID
  2
ACAD_DSTYLE_DIMRADIAL_EXTENSION
 70
     0
  0
ENDTAB
  0
TABLE
  2
DIMSTYLE
 70
     9
  0
DIMSTYLE
  2
NEWX10
 70
     0
  3
 
  4

  5

  6
OPEN30
  7
OPEN30
 40
1.0
 41
2.0
 42
0.0
 43
7.0
 44
1.0
 45
0.0
 46
0.0
 47
0.0
 48
0.0
140
3.5
141
0.0
142
0.0
143
25.399999999999999
144
1.0
145
0.0
146
0.7
147
0.7
 71
     0
 72
     0
 73
     0
 74
     0
 75
     0
 76
     0
 77
     1
 78
     8
170
     0
171
     2
172
     1
173
     1
174
     0
175
     0
176
   256
177
   256
178
   201
  0
ENDTAB
  0
ENDSEC
  0
SECTION
  2
BLOCKS
  0
BLOCK
  8
0
  2
$MODEL_SPACE
 70
     0
 10
0.0
 20
0.0
 30
0.0
  3
$MODEL_SPACE
  1

  0
ENDBLK
  5
1A
  8
0
  0
BLOCK
 67
     1
  8
0
  2
$PAPER_SPACE
 70
     0
 10
0.0
 20
0.0
 30
0.0
  3
$PAPER_SPACE
  1

  0
ENDBLK
  5
17
 67
     1
  8
0
  0
BLOCK
  8
0
  2
_OPEN30
 70
     0
 10
0.0
 20
0.0
 30
0.0
  3
_OPEN30
  1

  0
LINE
  5
44
  8
0
  6
BYBLOCK
 62
     0
 10
-1.0
 20
0.26794919
 30
0.0
 11
0.0
 21
0.0
 31
0.0
  0
LINE
  5
45
  8
0
  6
BYBLOCK
 62
     0
 10
0.0
 20
0.0
 30
0.0
 11
-1.0
 21
-0.26794919
 31
0.0
  0
LINE
  5
46
  8
0
  6
BYBLOCK
 62
     0
 10
0.0
 20
0.0
 30
0.0
 11
-1.0
 21
0.0
 31
0.0
  0
ENDBLK
  5
47
  8
0
  0
BLOCK
  8
0
  2
A3WAKU
 70
    36
 10
0.0
 20
0.0
 30
0.0
  3
A3WAKU
  1
D:\ACLT\FORMAT\A3WAKU.dwg
  0
ENDBLK
  5
5A
  8
0
  0
BLOCK
  8
0
  2
XREF1
 70
    36
 10
0.0
 20
0.0
 30
0.0
  3
XREF1
  1
D:\ACLT\FORMAT\KAWAJUN(9)図面用.dwg
  0
ENDBLK
  5
5D
  8
0
  0
BLOCK
  8
0
  2
A3WAKUDAKE
 70
    36
 10
0.0
 20
0.0
 30
0.0
  3
A3WAKUDAKE
  1
D:\ACLT\FORMAT\A3WAKUdake.dwg
  0
ENDBLK
  5
8892
  8
0
  0
BLOCK
  8
0
  2
*U108
 70
     1
 10
0.0
 20
0.0
 30
0.0
  3
*U108
  1

  0
LINE
  5
A5DF
  8
0
 10
-23.468911086754559
 20
-1.75
 30
0.0
 11
0.0000000000000284
 21
-1.75
 31
0.0
  0
LINE
  5
A5E0
  8
0
 10
0.0000000000000284
 20
-1.75
 30
0.0
 11
0.0000000000000284
 21
-4.5
 31
0.0
  0
LINE
  5
A5E1
  8
0
 10
-29.999999999999972
 20
0.0
 30
0.0
 11
-23.468911086754559
 21
-1.75
 31
0.0
  0
LINE
  5
A5E2
  8
0
 10
0.0000000000000284
 20
-4.5
 30
0.0
 11
0.7999999999998125
 21
-4.5
 31
0.0
  0
LINE
  5
A5E3
  8
0
 10
-29.999999999999972
 20
0.0
 30
0.0
 11
-23.468911086754499
 21
1.75
 31
0.0
  0
ARC
  5
A5E4
  8
0
 10
0.8000000000000113
 20
-2.0
 30
0.0
 40
2.5
 50
269.9999999999954
 51
0.0
  0
LINE
  5
A5E5
  8
0
 10
-23.468911086754499
 20
1.75
 30
0.0
 11
0.0000000000000284
 21
1.75
 31
0.0
  0
LINE
  5
A5E6
  8
0
 10
3.3000000000000389
 20
2.0
 30
0.0
 11
3.3000000000000109
 21
-2.0
 31
0.0
  0
LINE
  5
A5E7
  8
0
 10
0.0000000000000284
 20
4.5
 30
0.0
 11
0.0000000000000284
 21
1.75
 31
0.0
  0
ARC
  5
A5E8
  8
0
 10
0.8000000000000397
 20
2.0
 30
0.0
 40
2.5
 50
0.0
 51
90.0
  0
LINE
  5
A5E9
  8
0
 10
0.0000000000000284
 20
4.5
 30
0.0
 11
0.8000000000000397
 21
4.5
 31
0.0
  0
ENDBLK
  5
A5EB
  8
0
  0
BLOCK
  8
0
  2
*U109
 70
     1
 10
0.0
 20
0.0
 30
0.0
  3
*U109
  1

  0
TEXT
  5
A659
  8
0
 62
   201
 10
-302.40060986594727
 20
113.81952518582381
 30
0.0
 40
1.75
  1
50.2 
 50
90.0
  0
TEXT
  5
A65A
  8
0
 62
   201
 10
-303.47977653261398
 20
120.7028585191572
 30
0.0
 40
1.2250000000000001
  1
 0 
 50
90.0
  0
TEXT
  5
A65B
  8
0
 62
   201
 10
-301.8464431992806
 20
120.4695251858238
 30
0.0
 40
1.2250000000000001
  1
-0.2 
 50
90.0
  0
ENDBLK
  5
A65D
  8
0
  0
BLOCK
  8
0
  2
*U110
 70
     1
 10
0.0
 20
0.0
 30
0.0
  3
*U110
  1

  0
TEXT
  5
A65F
  8
0
 62
   201
 10
-287.13201990521492
 20
98.922387414243047
 30
0.0
 40
1.75
  1
11.7 
 50
90.0
  0
TEXT
  5
A660
  8
0
 62
   201
 10
-288.21118657188151
 20
105.572387414243
 30
0.0
 40
1.2250000000000001
  1
+0.2 
 50
90.0
  0
TEXT
  5
A661
  8
0
 62
   201
 10
-286.57785323854807
 20
105.8057207475764
 30
0.0
 40
1.2250000000000001
  1
 0 
 50
90.0
  0
ENDBLK
  5
A663
  8
0
  0
BLOCK
  8
0
  2
*U111
 70
     1
 10
0.0
 20
0.0
 30
0.0
  3
*U111
  1

  0
TEXT
  5
A665
  8
0
 62
   201
 10
-293.80914420040978
 20
99.097386214243059
 30
0.0
 40
1.75
  1
15.7 
 50
90.0
  0
TEXT
  5
A666
  8
0
 62
   201
 10
-294.88831086707643
 20
105.74738621424299
 30
0.0
 40
1.2250000000000001
  1
+0.1 
 50
90.0
  0
TEXT
  5
A667
  8
0
 62
   201
 10
-293.2549775337431
 20
105.9807195475764
 30
0.0
 40
1.2250000000000001
  1
 0 
 50
90.0
  0
ENDBLK
  5
A669
  8
0
  0
BLOCK
  8
0
  2
*U112
 70
     1
 10
0.0
 20
0.0
 30
0.0
  3
*U112
  1

  0
TEXT
  5
A66B
  8
0
 62
   201
 10
-293.15225240441788
 20
117.334901114243
 30
0.0
 40
1.75
  1
12.8
 50
90.0
  0
ENDBLK
  5
A66D
  8
0
  0
BLOCK
  8
0
  2
*U113
 70
     1
 10
0.0
 20
0.0
 30
0.0
  3
*U113
  1

  0
TEXT
  5
A66F
  8
0
 62
   201
 10
-261.29551707049592
 20
117.45990191424301
 30
0.0
 40
1.75
  1
31.5
 50
90.0
  0
ENDBLK
  5
A671
  8
0
  0
BLOCK
  8
0
  2
*U114
 70
     1
 10
0.0
 20
0.0
 30
0.0
  3
*U114
  1

  0
TEXT
  5
A673
  8
0
 62
   201
 10
-287.91050642888268
 20
89.301621424249788
 30
0.0
 40
1.75
  1
1.8 
  0
TEXT
  5
A674
  8
0
 62
   201
 10
-282.92717309554951
 20
90.380788090916468
 30
0.0
 40
1.2250000000000001
  1
+0.1 
  0
TEXT
  5
A675
  8
0
 62
   201
 10
-282.6938397622161
 20
88.747454757583156
 30
0.0
 40
1.2250000000000001
  1
 0 
  0
ENDBLK
  5
A677
  8
0
  0
BLOCK
  8
0
  2
*U115
 70
     1
 10
0.0
 20
0.0
 30
0.0
  3
*U115
  1

  0
TEXT
  5
A679
  8
0
 62
   201
 10
-288.33735653451038
 20
83.313632870849034
 30
0.0
 40
1.75
  1
3.3 
  0
TEXT
  5
A67A
  8
0
 62
   201
 10
-283.12068986784368
 20
84.392799537515714
 30
0.0
 40
1.2250000000000001
  1
 0 
  0
TEXT
  5
A67B
  8
0
 62
   201
 10
-283.35402320117709
 20
82.759466204182374
 30
0.0
 40
1.2250000000000001
  1
-0.1 
  0
ENDBLK
  5
A67D
  8
0
  0
BLOCK
  8
0
  2
*U116
 70
     1
 10
0.0
 20
0.0
 30
0.0
  3
*U116
  1

  0
TEXT
  5
A67F
  8
0
 62
   201
 10
-270.55671505138503
 20
86.15903102036927
 30
0.0
 40
1.75
  1
1.5
  0
ENDBLK
  5
A681
  8
0
  0
BLOCK
  8
0
  2
*U117
 70
     1
 10
0.0
 20
0.0
 30
0.0
  3
*U117
  1

  0
TEXT
  5
A683
  8
0
 62
   201
 10
-286.52527529699893
 20
122.7265608809097
 30
0.0
 40
1.75
  1
1
 50
90.0
  0
ENDBLK
  5
A685
  8
0
  0
BLOCK
  8
0
  2
*U118
 70
     1
 10
0.0
 20
0.0
 30
0.0
  3
*U118
  1

  0
TEXT
  5
A687
  8
0
 62
   201
 10
-284.36235653451041
 20
115.6884536828377
 30
0.0
 40
1.75
  1
0.5
  0
ENDBLK
  5
A689
  8
0
  0
BLOCK
  8
0
  2
*U119
 70
     1
 10
0.0
 20
0.0
 30
0.0
  3
*U119
  1

  0
TEXT
  5
A68B
  8
0
 62
   201
 10
-265.53250850685009
 20
106.3263431289835
 30
0.0
 40
1.75
  1
3
  0
ENDBLK
  5
A68D
  8
0
  0
BLOCK
  8
0
  2
*U120
 70
     1
 10
0.0
 20
0.0
 30
0.0
  3
*U120
  1

  0
TEXT
  5
A68F
  8
0
 62
   201
 10
-271.89371440762619
 20
125.5917740590731
 30
0.0
 40
1.75
  1
R0.5
 50
310.54738802584183
  0
ENDBLK
  5
A691
  8
0
  0
BLOCK
  8
0
  2
*U121
 70
     1
 10
0.0
 20
0.0
 30
0.0
  3
*U121
  1

  0
TEXT
  5
A693
  8
0
 62
   201
 10
-271.48152437198638
 20
117.9710696805475
 30
0.0
 40
1.75
  1
R0.5
 50
295.3056748536037
  0
ENDBLK
  5
A695
  8
0
  0
BLOCK
  8
0
  2
*U122
 70
     1
 10
0.0
 20
0.0
 30
0.0
  3
*U122
  1

  0
TEXT
  5
A697
  8
0
 62
   201
 10
-284.61162127901542
 20
149.81733063762351
 30
0.0
 40
1.75
  1
R0.5
 50
327.74898851205182
  0
ENDBLK
  5
A699
  8
0
  0
BLOCK
  8
0
  2
*U123
 70
     1
 10
0.0
 20
0.0
 30
0.0
  3
*U123
  1

  0
TEXT
  5
A69B
  8
0
 62
   201
 10
-272.28009983957509
 20
147.0159680320491
 30
0.0
 40
1.75
  1
R0.5
 50
45.464111695326608
  0
ENDBLK
  5
A69D
  8
0
  0
BLOCK
  8
0
  2
*U124
 70
     1
 10
0.0
 20
0.0
 30
0.0
  3
*U124
  1

  0
TEXT
  5
A69F
  8
0
 62
   201
 10
-284.31636946366382
 20
137.23363010480739
 30
0.0
 40
1.75
  1
R0.5
 50
40.31189980294188
  0
ENDBLK
  5
A6A1
  8
0
  0
BLOCK
  8
0
  2
*U125
 70
     1
 10
0.0
 20
0.0
 30
0.0
  3
*U125
  1

  0
TEXT
  5
A6A3
  8
0
 62
   201
 10
-272.59011329224671
 20
141.0392051420489
 30
0.0
 40
1.75
  1
R0.5
 50
338.06199835282519
  0
ENDBLK
  5
A6A5
  8
0
  0
BLOCK
  8
0
  2
*U126
 70
     1
 10
0.0
 20
0.0
 30
0.0
  3
*U126
  1

  0
TEXT
  5
A6A7
  8
0
 62
   201
 10
-277.77902570117698
 20
77.498579283236054
 30
0.0
 40
1.75
  1
4.8
  0
ENDBLK
  5
A6A9
  8
0
  0
BLOCK
  8
0
  2
*U127
 70
     1
 10
0.0
 20
0.0
 30
0.0
  3
*U127
  1

  0
TEXT
  5
A6AB
  8
1TEXT
 10
283.64463899609041
 20
52.679666189573787
 30
0.0
 40
4.0
  1
注記
  0
TEXT
  5
A6AC
  8
1TEXT
 10
283.64463899609041
 20
46.012999522907123
 30
0.0
 40
4.0
  1
  １）材質：A6063S-T5
  0
TEXT
  5
A6AD
  8
1TEXT
 10
283.64463899609041
 20
38.584428094335713
 30
0.0
 40
4.0
  1
  ２）処理：AA6(B2)アルマイト
  0
TEXT
  5
A6AE
  8
1TEXT
 10
283.64463899609041
 20
31.917761427669038
 30
0.0
 40
4.0
  1
  ３）断面積：1.102071cm
  0
TEXT
  5
A6AF
  8
1TEXT
 10
283.64463899609041
 20
24.489189999097611
 30
0.0
 40
4.0
  1
  ４）重量：297.6g/m
  0
TEXT
  5
A6B0
  8
1TEXT
 10
283.64463899609041
 20
17.82252333243094
 30
0.0
 40
4.0
  1
  ５）長さ寸法許容差は協議による。
  0
ENDBLK
  5
A6B2
  8
0
  0
BLOCK
  8
0
  2
*U128
 70
     1
 10
0.0
 20
0.0
 30
0.0
  3
*U128
  1

  0
ARC
  5
A6B4
  8
1TEXT
 10
255.4418749504953
 20
49.700031648735781
 30
0.0
 40
0.5
 50
0.0
 51
90.0
  0
LINE
  5
A6B5
  8
1TEXT
 10
255.4418749504953
 20
50.200031648735767
 30
0.0
 11
251.64187995049531
 21
50.200031648735767
 31
0.0
  0
LINE
  5
A6B6
  8
1TEXT
 10
255.9418749504953
 20
32.000030448735771
 30
0.0
 11
255.9418749504953
 21
49.700031648735781
 31
0.0
  0
ARC
  5
A6B7
  8
1TEXT
 10
251.64187995049531
 20
49.700031648735781
 30
0.0
 40
0.5
 50
90.0
 51
179.69681887914061
  0
ARC
  5
A6B8
  8
1TEXT
 10
255.4418749504953
 20
32.000030448735771
 30
0.0
 40
0.5
 50
270.0
 51
0.0
  0
LINE
  5
A6B9
  8
1TEXT
 10
251.14188695049529
 20
49.70267739078335
 30
0.0
 11
251.14188695049529
 21
47.197385906688197
 31
0.0
  0
LINE
  5
A6BA
  8
1TEXT
 10
253.44188995049541
 20
31.500030448735771
 30
0.0
 11
255.4418749504953
 21
31.500030448735771
 31
0.0
  0
ARC
  5
A6BB
  8
1TEXT
 10
251.64187995049531
 20
47.200031648735767
 30
0.0
 40
0.5
 50
180.30318112085939
 51
270.0
  0
ARC
  5
A6BC
  8
1TEXT
 10
253.44188995049541
 20
31.000030448735771
 30
0.0
 40
0.5
 50
90.0
 51
180.0
  0
LINE
  5
A6BD
  8
1TEXT
 10
251.64187995049531
 20
46.700031648735767
 30
0.0
 11
252.14187995049531
 21
46.700031648735767
 31
0.0
  0
LINE
  5
A6BE
  8
1TEXT
 10
252.94188995049529
 20
19.199999248735761
 30
0.0
 11
252.94188995049529
 21
31.000030448735771
 31
0.0
  0
ARC
  5
A6BF
  8
1TEXT
 10
252.14187995049531
 20
47.200031648735767
 30
0.0
 40
0.5
 50
270.0
 51
0.0
  0
ARC
  5
A6C0
  8
1TEXT
 10
253.44188995049541
 20
19.199999248735761
 30
0.0
 40
0.5
 50
180.0
 51
270.0
  0
LINE
  5
A6C1
  8
1TEXT
 10
252.64187995049531
 20
47.200031648735767
 30
0.0
 11
252.64187995049531
 21
48.700031648735767
 31
0.0
  0
LINE
  5
A6C2
  8
1TEXT
 10
255.4418749504953
 20
18.699999248735761
 30
0.0
 11
253.44188995049541
 21
18.699999248735761
 31
0.0
  0
LINE
  5
A6C3
  8
1TEXT
 10
252.64187995049531
 20
48.700031648735767
 30
0.0
 11
254.4418749504953
 21
48.700031648735767
 31
0.0
  0
ARC
  5
A6C4
  8
1TEXT
 10
255.4418749504953
 20
18.199999248735761
 30
0.0
 40
0.5
 50
0.0
 51
90.0
  0
LINE
  5
A6C5
  8
1TEXT
 10
254.4418749504953
 20
48.700031648735767
 30
0.0
 11
254.4418749504953
 21
33.000029648735762
 31
0.0
  0
LINE
  5
A6C6
  8
1TEXT
 10
255.9418749504953
 20
0.4999996487357663
 30
0.0
 11
255.9418749504953
 21
18.199999248735761
 31
0.0
  0
LINE
  5
A6C7
  8
1TEXT
 10
254.4418749504953
 20
33.000029648735762
 30
0.0
 11
252.64187995049531
 21
33.000030448735771
 31
0.0
  0
ARC
  5
A6C8
  8
1TEXT
 10
255.4418749504953
 20
0.4999996487357663
 30
0.0
 40
0.5
 50
270.0
 51
0.0
  0
LINE
  5
A6C9
  8
1TEXT
 10
252.64187995049531
 20
33.000030448735771
 30
0.0
 11
252.64187995049531
 21
34.500028048735771
 31
0.0
  0
LINE
  5
A6CA
  8
1TEXT
 10
251.64187995049531
 20
-0.0000003512642337
 30
0.0
 11
255.4418749504953
 21
-0.0000003512642337
 31
0.0
  0
ARC
  5
A6CB
  8
1TEXT
 10
252.14187995049531
 20
34.500028048735771
 30
0.0
 40
0.5
 50
0.0
 51
90.0
  0
ARC
  5
A6CC
  8
1TEXT
 10
251.64187995049531
 20
0.4999996487357663
 30
0.0
 40
0.5
 50
180.30318112085939
 51
270.0
  0
LINE
  5
A6CD
  8
1TEXT
 10
252.14187995049531
 20
35.000028048735771
 30
0.0
 11
251.14188695049529
 21
35.000028048735771
 31
0.0
  0
LINE
  5
A6CE
  8
1TEXT
 10
251.14188695049529
 20
3.4999996487357801
 30
0.0
 11
251.14188695049529
 21
0.4973539066881898
 31
0.0
  0
LINE
  5
A6CF
  8
1TEXT
 10
251.14188695049529
 20
35.000028048735771
 30
0.0
 11
251.14188695049529
 21
31.00003044873576
 31
0.0
  0
LINE
  5
A6D0
  8
1TEXT
 10
252.14187995049531
 20
3.4999996487357659
 30
0.0
 11
251.14188695049529
 21
3.4999996487357801
 31
0.0
  0
LINE
  5
A6D1
  8
1TEXT
 10
251.14188695049529
 20
31.00003044873576
 30
0.0
 11
251.14188695049529
 21
25.600008348728839
 31
0.0
  0
ARC
  5
A6D2
  8
1TEXT
 10
252.14187995049531
 20
2.9999996487357659
 30
0.0
 40
0.5
 50
0.0
 51
90.0
  0
LINE
  5
A6D3
  8
1TEXT
 10
251.14188695049529
 20
25.600008348728839
 30
0.0
 11
251.64187995049531
 21
25.100014848735778
 31
0.0
  0
LINE
  5
A6D4
  8
1TEXT
 10
252.64187995049531
 20
1.4999996487357661
 30
0.0
 11
252.64187995049531
 21
2.9999996487357659
 31
0.0
  0
LINE
  5
A6D5
  8
1TEXT
 10
251.64187995049531
 20
25.100014848735778
 30
0.0
 11
251.14188695049529
 21
24.600021348742729
 31
0.0
  0
LINE
  5
A6D6
  8
1TEXT
 10
254.4418749504953
 20
1.4999996487357661
 30
0.0
 11
252.64187995049531
 21
1.4999996487357661
 31
0.0
  0
LINE
  5
A6D7
  8
1TEXT
 10
251.14188695049529
 20
24.600021348742729
 30
0.0
 11
251.14188695049529
 21
19.20000024873579
 31
0.0
  0
LINE
  5
A6D8
  8
1TEXT
 10
254.4418749504953
 20
17.199999248735789
 30
0.0
 11
254.4418749504953
 21
1.4999996487357661
 31
0.0
  0
LINE
  5
A6D9
  8
1TEXT
 10
251.14188695049529
 20
19.20000024873579
 30
0.0
 11
251.14188695049529
 21
15.200001648735761
 31
0.0
  0
LINE
  5
A6DA
  8
1TEXT
 10
252.64187995049531
 20
17.199999248735789
 30
0.0
 11
254.4418749504953
 21
17.199999248735789
 31
0.0
  0
LINE
  5
A6DB
  8
1TEXT
 10
251.14188695049529
 20
15.200001648735761
 30
0.0
 11
252.14187995049531
 21
15.200001648735761
 31
0.0
  0
LINE
  5
A6DC
  8
1TEXT
 10
252.64187995049531
 20
15.700001648735761
 30
0.0
 11
252.64187995049531
 21
17.199999248735789
 31
0.0
  0
ARC
  5
A6DD
  8
1TEXT
 10
252.14187995049531
 20
15.700001648735761
 30
0.0
 40
0.5
 50
270.0
 51
0.0
  0
ENDBLK
  5
A6DF
  8
0
  0
BLOCK
  8
0
  2
*U129
 70
     1
 10
0.0
 20
0.0
 30
0.0
  3
*U129
  1

  0
TEXT
  5
A6E1
  8
0
 62
   201
 10
-219.89929296759419
 20
84.11934780258693
 30
0.0
 40
1.75
  1
取付角45°
 50
78.410795202354137
  0
ENDBLK
  5
A6E3
  8
0
  0
BLOCK
  8
0
  2
*U130
 70
     1
 10
0.0
 20
0.0
 30
0.0
  3
*U130
  1

  0
TEXT
  5
A6E5
  8
0
 62
   201
 10
-231.23002233147361
 20
86.255422035281754
 30
0.0
 40
1.75
  1
最大動作角122.5°
 50
299.24999968886328
  0
ENDBLK
  5
A6E7
  8
0
  0
BLOCK
  8
0
  2
*U131
 70
     1
 10
0.0
 20
0.0
 30
0.0
  3
*U131
  1

  0
TEXT
  5
A6E9
  8
0
 62
   201
 10
-201.9627400138354
 20
98.674605223250367
 30
0.0
 40
1.75
  1
148°
 50
344.00000192259529
  0
ENDBLK
  5
A6EB
  8
0
  0
BLOCK
  8
0
  2
*U132
 70
     1
 10
0.0
 20
0.0
 30
0.0
  3
*U132
  1

  0
TEXT
  5
A6ED
  8
0
 62
   201
 10
-183.8177356117657
 20
87.930855847472216
 30
0.0
 40
1.75
  1
φ0.8
 50
90.0
  0
ENDBLK
  5
A6EF
  8
0
  0
BLOCK
  8
0
  2
*U133
 70
     1
 10
0.0
 20
0.0
 30
0.0
  3
*U133
  1

  0
TEXT
  5
A6F1
  8
0
 62
   201
 10
-199.84274414442999
 20
70.782821910703845
 30
0.0
 40
1.75
  1
11
  0
ENDBLK
  5
A6F3
  8
0
  0
BLOCK
  8
0
  2
*U134
 70
     1
 10
0.0
 20
0.0
 30
0.0
  3
*U134
  1

  0
TEXT
  5
A6F5
  8
0
 62
   201
 10
-204.71127949475309
 20
93.362401567211478
 30
0.0
 40
1.75
  1
11
 50
328.00000080805358
  0
ENDBLK
  5
A6F7
  8
0
  0
BLOCK
  8
0
  2
*U135
 70
     1
 10
0.0
 20
0.0
 30
0.0
  3
*U135
  1

  0
TEXT
  5
A6F9
  8
0
 62
   201
 10
-198.57233650606639
 20
77.776557010296614
 30
0.0
 40
1.75
  1
φ8
 50
321.20429137971411
  0
ENDBLK
  5
A6FB
  8
0
  0
BLOCK
  8
0
  2
*U136
 70
     1
 10
0.0
 20
0.0
 30
0.0
  3
*U136
  1

  0
TEXT
  5
A6FD
  8
0
 62
   201
 10
-205.7344098110967
 20
44.787339734901572
 30
0.0
 40
1.75
  1
φ8
  0
ENDBLK
  5
A6FF
  8
0
  0
BLOCK
  8
0
  2
*U137
 70
     1
 10
0.0
 20
0.0
 30
0.0
  3
*U137
  1

  0
TEXT
  5
A701
  8
0
 62
   201
 10
-18.70311452856264
 20
93.627349380168624
 30
0.0
 40
3.5
  1
11.5 
  0
TEXT
  5
A702
  8
0
 62
   201
 10
-4.9364478618959762
 20
94.152349380168616
 30
0.0
 40
2.4500000000000002
  1
±0.1
  0
ENDBLK
  5
A704
  8
0
  0
BLOCK
  8
0
  2
*U138
 70
     1
 10
0.0
 20
0.0
 30
0.0
  3
*U138
  1

  0
TEXT
  5
A706
  8
0
 62
   201
 10
14.141412155508579
 20
39.74514557600439
 30
0.0
 40
3.5
  1
11.4 
 50
90.0
  0
TEXT
  5
A707
  8
0
 62
   201
 10
13.616412155508581
 20
53.511812242671049
 30
0.0
 40
2.4500000000000002
  1
±0.1
 50
90.0
  0
ENDBLK
  5
A709
  8
0
  0
BLOCK
  8
0
  2
*U139
 70
     1
 10
0.0
 20
0.0
 30
0.0
  3
*U139
  1

  0
TEXT
  5
A70B
  8
0
 62
   201
 10
-39.678114528562652
 20
52.530089990587101
 30
0.0
 40
3.5
  1
15.5 
  0
TEXT
  5
A70C
  8
0
 62
   201
 10
-25.911447861895979
 20
54.688423323920432
 30
0.0
 40
2.4500000000000002
  1
 0 
  0
TEXT
  5
A70D
  8
0
 62
   201
 10
-26.378114528562651
 20
51.421756657253759
 30
0.0
 40
2.4500000000000002
  1
-0.2 
  0
ENDBLK
  5
A70F
  8
0
  0
BLOCK
  8
0
  2
*U140
 70
     1
 10
0.0
 20
0.0
 30
0.0
  3
*U140
  1

  0
TEXT
  5
A711
  8
0
 62
   201
 10
-36.90081768171585
 20
92.274729903434206
 30
0.0
 40
3.5
  1
φ6.2
 50
333.54633478831488
  0
TEXT
  5
A712
  8
0
 62
   201
 10
-25.136111223283969
 20
88.831689216896606
 30
0.0
 40
2.4500000000000002
  1
+0.2
 50
333.54633478831488
  0
TEXT
  5
A713
  8
0
 62
   201
 10
-26.173521799869729
 20
85.699171350311175
 30
0.0
 40
2.4500000000000002
  1
 0
 50
333.54633478831488
  0
ENDBLK
  5
A715
  8
0
  0
BLOCK
  8
0
  2
*U141
 70
     1
 10
0.0
 20
0.0
 30
0.0
  3
*U141
  1

  0
TEXT
  5
A717
  8
0
 62
   201
 10
4.4632370871448668
 20
85.840026287396142
 30
0.0
 40
3.5
  1
R5.75
 50
38.266078388250293
  0
ENDBLK
  5
A719
  8
0
  0
BLOCK
  8
0
  2
*U142
 70
     1
 10
0.0
 20
0.0
 30
0.0
  3
*U142
  1

  0
LINE
  5
A71B
  8
0
 10
-0.3499999999999659
 20
-5.0
 30
0.0
 11
-3.6000000000000512
 21
-1.75
 31
0.0
  0
LINE
  5
A71C
  8
0
 10
-0.3499999999999659
 20
-5.0
 30
0.0
 11
0.0
 21
-5.0
 31
0.0
  0
LINE
  5
A71D
  8
0
 10
-28.468911086754559
 20
-1.75
 30
0.0
 11
-3.6000000000000512
 21
-1.75
 31
0.0
  0
LINE
  5
A71E
  8
0
 10
0.0
 20
5.0
 30
0.0
 11
0.0
 21
-5.0
 31
0.0
  0
LINE
  5
A71F
  8
0
 10
-34.999999999999972
 20
0.0
 30
0.0
 11
-28.468911086754559
 21
-1.75
 31
0.0
  0
LINE
  5
A720
  8
0
 10
-0.3499999999999659
 20
5.0
 30
0.0
 11
0.0
 21
5.0
 31
0.0
  0
LINE
  5
A721
  8
0
 10
-34.999999999999972
 20
0.0
 30
0.0
 11
-28.468911086754499
 21
1.75
 31
0.0
  0
LINE
  5
A722
  8
0
 10
-0.3499999999999659
 20
5.0
 30
0.0
 11
-3.5999999999998229
 21
1.750000000000056
 31
0.0
  0
LINE
  5
A723
  8
0
 10
-28.468911086754499
 20
1.75
 30
0.0
 11
-3.5999999999998229
 21
1.750000000000056
 31
0.0
  0
ENDBLK
  5
A725
  8
0
  0
BLOCK
  8
0
  2
*U143
 70
     1
 10
0.0
 20
0.0
 30
0.0
  3
*U143
  1

  0
LINE
  5
A727
  8
0
 10
-14.999999999837589
 20
0.0000465358979227
 30
0.0
 11
-9.7000034899767194
 21
-1.4999534641020771
 31
0.0
  0
LINE
  5
A728
  8
0
 10
-9.7000034899767194
 20
-1.4999534641020771
 30
0.0
 11
-0.0000034900840618
 21
-1.499953464101736
 31
0.0
  0
LINE
  5
A729
  8
0
 10
-14.999999999837589
 20
0.0000465358979227
 30
0.0
 11
-9.6999965095920366
 21
1.500046535897922
 31
0.0
  0
LINE
  5
A72A
  8
0
 10
-0.0000081437821358
 20
-3.4999999999998859
 30
0.0
 11
-0.0000034900840618
 21
-1.499953464101736
 31
0.0
  0
LINE
  5
A72B
  8
0
 10
-9.6999965095920366
 20
1.500046535897922
 30
0.0
 11
0.000003490300621
 21
1.5000465358976951
 31
0.0
  0
LINE
  5
A72C
  8
0
 10
-0.0000081437821358
 20
-3.4999999999998859
 30
0.0
 11
1.099995346413184
 21
-3.5
 31
0.0
  0
LINE
  5
A72D
  8
0
 10
0.000003490300621
 20
1.5000465358976951
 30
0.0
 11
0.0000081437821429
 21
3.5
 31
0.0
  0
ARC
  5
A72E
  8
0
 10
1.099995346413184
 20
-2.0
 30
0.0
 40
1.5
 50
270.0
 51
359.99986668447059
  0
LINE
  5
A72F
  8
0
 10
0.0000081437821429
 20
3.5
 30
0.0
 11
1.1000046535927801
 21
3.5
 31
0.0
  0
LINE
  5
A730
  8
0
 10
2.599995346409123
 20
-2.0000034901923982
 30
0.0
 11
2.6000046535887149
 21
1.9999965098076009
 31
0.0
  0
ARC
  5
A731
  8
0
 10
1.1000046535927801
 20
2.0
 30
0.0
 40
1.5
 50
359.99986668447059
 51
90.0
  0
ENDBLK
  5
A733
  8
0
  0
BLOCK
  8
0
  2
*U144
 70
     1
 10
0.0
 20
0.0
 30
0.0
  3
*U144
  1

  0
SOLID
  5
A735
  8
1TEXT
 10
22.045719090028928
 20
37.307771584381129
 30
0.0
 11
22.14665957136117
 21
37.155748496567419
 31
0.0
 12
22.001870547026229
 22
37.266816666769941
 32
0.0
 13
22.001870547026229
 23
37.266816666769941
 33
0.0
  0
POLYLINE
  5
A736
  8
1TEXT
 66
     1
 10
0.0
 20
0.0
 30
0.0
  0
VERTEX
  5
A737
  8
1TEXT
 10
22.023794818527591
 20
37.287294125575528
 30
0.0
  0
VERTEX
  5
A738
  8
1TEXT
 10
8.4129114186054608
 20
51.859839765446708
 30
0.0
  0
SEQEND
  5
A739
  8
1TEXT
  0
ENDBLK
  5
A73B
  8
0
  0
BLOCK
  8
0
  2
*U145
 70
     1
 10
0.0
 20
0.0
 30
0.0
  3
*U145
  1

  0
SOLID
  5
A73D
  8
1TEXT
 10
42.440712531028908
 20
16.325955841925659
 30
0.0
 11
42.621678910945548
 21
16.349432837897659
 31
0.0
 12
42.458108658366683
 22
16.26853306984308
 32
0.0
 13
42.458108658366683
 23
16.26853306984308
 33
0.0
  0
POLYLINE
  5
A73E
  8
1TEXT
 66
     1
 10
0.0
 20
0.0
 30
0.0
  0
VERTEX
  5
A73F
  8
1TEXT
 10
42.449410594697802
 20
16.297244455884371
 30
0.0
  0
VERTEX
  5
A740
  8
1TEXT
 10
26.48786880729352
 20
11.46172357505
 30
0.0
  0
SEQEND
  5
A741
  8
1TEXT
  0
ENDBLK
  5
A743
  8
0
  0
BLOCK
  8
0
  2
*U146
 70
     1
 10
0.0
 20
0.0
 30
0.0
  3
*U146
  1

  0
SOLID
  5
A745
  8
1TEXT
 10
60.580482395501733
 20
24.830924507667309
 30
0.0
 11
60.401581029580939
 21
24.866900906481991
 31
0.0
 12
60.5824800726351
 22
24.890891242496469
 32
0.0
 13
60.5824800726351
 23
24.890891242496469
 33
0.0
  0
POLYLINE
  5
A746
  8
1TEXT
 66
     1
 10
0.0
 20
0.0
 30
0.0
  0
VERTEX
  5
A747
  8
1TEXT
 10
60.58148123406842
 20
24.860907875081889
 30
0.0
  0
VERTEX
  5
A748
  8
1TEXT
 10
72.102376494255168
 20
24.477111273803441
 30
0.0
  0
SEQEND
  5
A749
  8
1TEXT
  0
ENDBLK
  5
A74B
  8
0
  0
BLOCK
  8
0
  2
*U147
 70
     1
 10
0.0
 20
0.0
 30
0.0
  3
*U147
  1

  0
SOLID
  5
A74D
  8
1TEXT
 10
63.750785769360832
 20
49.040713876378192
 30
0.0
 11
63.590141487010669
 21
48.954149365473313
 31
0.0
 12
63.71402731812951
 22
49.088135561956364
 32
0.0
 13
63.71402731812951
 23
49.088135561956364
 33
0.0
  0
POLYLINE
  5
A74E
  8
1TEXT
 66
     1
 10
0.0
 20
0.0
 30
0.0
  0
VERTEX
  5
A74F
  8
1TEXT
 10
63.732406543745171
 20
49.064424719167278
 30
0.0
  0
VERTEX
  5
A750
  8
1TEXT
 10
80.022876628536096
 20
61.691821717952386
 30
0.0
  0
SEQEND
  5
A751
  8
1TEXT
  0
ENDBLK
  5
A753
  8
0
  0
BLOCK
  8
0
  2
*X148
 70
     1
 10
0.0
 20
0.0
 30
0.0
  3
*X148
  1

  0
LINE
  5
A755
  8
0
 62
     0
 10
17.334471187152129
 20
0.0000002114315976
 30
0.0
 11
17.999999844467879
 21
0.6655288687473444
 31
0.0
  0
LINE
  5
A756
  8
0
 62
     0
 10
15.08940715688481
 20
0.0000002114316544
 30
0.0
 11
17.999999844467929
 21
2.9105928990147159
 31
0.0
  0
LINE
  5
A757
  8
0
 62
     0
 10
13.99999984446805
 20
1.155656929282088
 30
0.0
 11
17.99999984446799
 21
5.1556569292820882
 31
0.0
  0
LINE
  5
A758
  8
0
 62
     0
 10
15.499999844467711
 20
4.900720959549119
 30
0.0
 11
17.99999984446799
 21
7.4007209595494032
 31
0.0
  0
LINE
  5
A759
  8
0
 62
     0
 10
11.89927909635014
 20
1.3000002114315521
 30
0.0
 11
14.099279096350241
 21
3.500000211431654
 31
0.0
  0
LINE
  5
A75A
  8
0
 62
     0
 10
15.499999844467711
 20
7.1457849898163772
 30
0.0
 11
16.35421506608321
 21
8.0000002114318818
 31
0.0
  0
LINE
  5
A75B
  8
0
 62
     0
 10
16.35421506608321
 20
8.0000002114318818
 30
0.0
 11
17.999999844467929
 21
9.6457849898166046
 31
0.0
  0
LINE
  5
A75C
  8
0
 62
     0
 10
10.799999944467739
 20
2.4457850898164111
 30
0.0
 11
11.854215066082981
 21
3.500000211431654
 31
0.0
  0
LINE
  5
A75D
  8
0
 62
     0
 10
15.49999984446765
 20
9.3908490200836354
 30
0.0
 11
17.999999844467819
 21
11.890849020083801
 31
0.0
  0
LINE
  5
A75E
  8
0
 62
     0
 10
15.49999984446765
 20
11.63591305035089
 30
0.0
 11
17.999999844467819
 21
14.135913050351061
 31
0.0
  0
LINE
  5
A75F
  8
0
 62
     0
 10
14.11902297528132
 20
12.50000021143182
 30
0.0
 11
17.607360627241569
 21
15.988337863392131
 31
0.0
  0
LINE
  5
A760
  8
0
 62
     0
 10
2.9190229752811092
 20
1.300000211431608
 30
0.0
 11
4.5999999444677542
 21
2.980977180618253
 31
0.0
  0
LINE
  5
A761
  8
0
 62
     0
 10
11.87395894501406
 20
12.50000021143188
 30
0.0
 11
15.373958945014071
 21
16.000000211431878
 31
0.0
  0
LINE
  5
A762
  8
0
 62
     0
 10
0.6739589450139079
 20
1.300000211431722
 30
0.0
 11
2.8739589450138392
 21
3.500000211431654
 31
0.0
  0
LINE
  5
A763
  8
0
 62
     0
 10
10.799999944467849
 20
13.671105241152929
 30
0.0
 11
11.82889491474668
 21
14.70000021143176
 31
0.0
  0
LINE
  5
A764
  8
0
 62
     0
 10
-0.0000001555321774
 20
2.8711051411528952
 30
0.0
 11
0.6288949147466383
 21
3.5000002114317108
 31
0.0
  0
LINE
  5
A765
  8
0
 62
     0
 10
2.8937028239447491
 20
12.500000211431709
 30
0.0
 11
4.5999999444677542
 21
14.20629733195471
 31
0.0
  0
LINE
  5
A766
  8
0
 62
     0
 10
0.6486387936773781
 20
12.500000211431651
 30
0.0
 11
2.848638793677309
 21
14.700000211431639
 31
0.0
  0
LINE
  5
A767
  8
0
 62
     0
 10
-0.000000155532291
 20
14.09642529248924
 30
0.0
 11
0.6035747634099949
 21
14.700000211431529
 31
0.0
  0
ENDBLK
  5
A769
  8
0
  0
BLOCK
  8
0
  2
*U149
 70
     1
 10
0.0
 20
0.0
 30
0.0
  3
*U149
  1

  0
TEXT
  5
A76B
  8
0
 62
   201
 10
-205.7344098110967
 20
44.787339734901572
 30
0.0
 40
1.75
  1
φ8
  0
ENDBLK
  5
A76D
  8
0
  0
BLOCK
  8
0
  2
*U150
 70
     1
 10
0.0
 20
0.0
 30
0.0
  3
*U150
  1

  0
TEXT
  5
A770
  8
1TEXT
 10
0.1975281444083426
 20
6.103476176314059
 30
0.0
 40
6.0
  1
%%U手配図
  0
ENDBLK
  5
A772
  8
0
  0
BLOCK
  8
0
  2
*U151
 70
     1
 10
0.0
 20
0.0
 30
0.0
  3
*U151
  1

  0
TEXT
  5
A774
  8
0
 62
   201
 10
42.341999158471211
 20
344.09582587178562
 30
0.0
 40
1.75
  1
2.5
  0
ENDBLK
  5
A776
  8
0
  0
BLOCK
  8
0
  2
*U152
 70
     1
 10
0.0
 20
0.0
 30
0.0
  3
*U152
  1

  0
TEXT
  5
A778
  8
0
 62
   201
 10
32.84199815847095
 20
351.07087731392301
 30
0.0
 40
1.75
  1
9.3
  0
ENDBLK
  5
A77A
  8
0
  0
BLOCK
  8
0
  2
*U153
 70
     1
 10
0.0
 20
0.0
 30
0.0
  3
*U153
  1

  0
TEXT
  5
A77C
  8
0
 62
   201
 10
43.056989732400112
 20
315.40518327367221
 30
0.0
 40
1.75
  1
3.3
 50
90.0
  0
ENDBLK
  5
A77E
  8
0
  0
BLOCK
  8
0
  2
*U154
 70
     1
 10
0.0
 20
0.0
 30
0.0
  3
*U154
  1

  0
TEXT
  5
A780
  8
0
 62
   201
 10
46.20110942923187
 20
321.38851910700561
 30
0.0
 40
1.75
  1
5.1
 50
90.0
  0
ENDBLK
  5
A782
  8
0
  0
BLOCK
  8
0
  2
*U155
 70
     1
 10
0.0
 20
0.0
 30
0.0
  3
*U155
  1

  0
TEXT
  5
A784
  8
0
 62
   201
 10
17.383171919945418
 20
315.45667880206429
 30
0.0
 40
1.75
  1
\U+22056.2
 50
39.878387331228247
  0
ENDBLK
  5
A786
  8
0
  0
BLOCK
  8
0
  2
*U156
 70
     1
 10
0.0
 20
0.0
 30
0.0
  3
*U156
  1

  0
TEXT
  5
A788
  8
0
 62
   201
 10
49.082819742323089
 20
338.52184994033888
 30
0.0
 40
1.75
  1
1.6
 50
90.0
  0
ENDBLK
  5
A78A
  8
0
  0
BLOCK
  8
0
  2
*U157
 70
     1
 10
0.0
 20
0.0
 30
0.0
  3
*U157
  1

  0
TEXT
  5
A78C
  8
0
 62
   201
 10
25.841997158470878
 20
344.09582587178562
 30
0.0
 40
1.75
  1
5
  0
ENDBLK
  5
A78E
  8
0
  0
BLOCK
  8
0
  2
*U158
 70
     1
 10
0.0
 20
0.0
 30
0.0
  3
*U158
  1

  0
TEXT
  5
A790
  8
01
 62
   201
 10
-0.0999998649843965
 20
33.032431794815118
 30
0.0
 40
1.75
  1
フェミング加工
  0
ENDBLK
  5
A792
  8
0
  0
BLOCK
  8
0
  2
*U159
 70
     1
 10
0.0
 20
0.0
 30
0.0
  3
*U159
  1

  0
SOLID
  5
A794
  8
1TEXT
 10
18.837310330836829
 20
21.86605045801257
 30
0.0
 11
18.873662610622031
 21
21.6872250913712
 31
0.0
 12
18.781277902725321
 22
21.84459429339892
 32
0.0
 13
18.781277902725321
 23
21.84459429339892
 33
0.0
  0
POLYLINE
  5
A795
  8
1TEXT
 66
     1
 10
0.0
 20
0.0
 30
0.0
  0
VERTEX
  5
A796
  8
1TEXT
 10
18.809294116781079
 20
21.85532237570575
 30
0.0
  0
VERTEX
  5
A797
  8
1TEXT
 10
14.663333468348929
 20
32.682431794815123
 30
0.0
  0
VERTEX
  5
A798
  8
1TEXT
 10
14.483333468348929
 20
32.682431794815123
 30
0.0
  0
SEQEND
  5
A799
  8
1TEXT
  0
ENDBLK
  5
A79B
  8
0
  0
BLOCK
  8
0
  2
*U160
 70
     1
 10
0.0
 20
0.0
 30
0.0
  3
*U160
  1

  0
TEXT
  5
A79D
  8
0
 62
   201
 10
42.341999158471211
 20
344.09582587178562
 30
0.0
 40
1.75
  1
2.5
  0
ENDBLK
  5
A79F
  8
0
  0
BLOCK
  8
0
  2
*U161
 70
     1
 10
0.0
 20
0.0
 30
0.0
  3
*U161
  1

  0
TEXT
  5
A7A1
  8
0
 62
   201
 10
32.84199815847095
 20
351.07087731392301
 30
0.0
 40
1.75
  1
9.3
  0
ENDBLK
  5
A7A3
  8
0
  0
BLOCK
  8
0
  2
*U162
 70
     1
 10
0.0
 20
0.0
 30
0.0
  3
*U162
  1

  0
TEXT
  5
A7A5
  8
0
 62
   201
 10
43.056989732400112
 20
315.40518327367221
 30
0.0
 40
1.75
  1
3.3
 50
90.0
  0
ENDBLK
  5
A7A7
  8
0
  0
BLOCK
  8
0
  2
*U163
 70
     1
 10
0.0
 20
0.0
 30
0.0
  3
*U163
  1

  0
TEXT
  5
A7A9
  8
0
 62
   201
 10
46.20110942923187
 20
321.38851910700561
 30
0.0
 40
1.75
  1
5.1
 50
90.0
  0
ENDBLK
  5
A7AB
  8
0
  0
BLOCK
  8
0
  2
*U164
 70
     1
 10
0.0
 20
0.0
 30
0.0
  3
*U164
  1

  0
TEXT
  5
A7AD
  8
0
 62
   201
 10
17.383171919945418
 20
315.45667880206429
 30
0.0
 40
1.75
  1
\U+22056.2
 50
39.878387331228247
  0
ENDBLK
  5
A7AF
  8
0
  0
BLOCK
  8
0
  2
*U165
 70
     1
 10
0.0
 20
0.0
 30
0.0
  3
*U165
  1

  0
TEXT
  5
A7B1
  8
0
 62
   201
 10
49.082819742323089
 20
338.52184994033888
 30
0.0
 40
1.75
  1
1.6
 50
90.0
  0
ENDBLK
  5
A7B3
  8
0
  0
BLOCK
  8
0
  2
*U166
 70
     1
 10
0.0
 20
0.0
 30
0.0
  3
*U166
  1

  0
TEXT
  5
A7B5
  8
0
 62
   201
 10
25.841997158470878
 20
344.09582587178562
 30
0.0
 40
1.75
  1
5
  0
ENDBLK
  5
A7B7
  8
0
  0
BLOCK
  8
0
  2
*U167
 70
     1
 10
0.0
 20
0.0
 30
0.0
  3
*U167
  1

  0
TEXT
  5
A7B9
  8
01
 62
   201
 10
-0.0999998649843965
 20
33.032431794815118
 30
0.0
 40
1.75
  1
フェミング加工
  0
ENDBLK
  5
A7BB
  8
0
  0
BLOCK
  8
0
  2
*U168
 70
     1
 10
0.0
 20
0.0
 30
0.0
  3
*U168
  1

  0
SOLID
  5
A7BD
  8
1TEXT
 10
18.837310330836829
 20
21.86605045801257
 30
0.0
 11
18.873662610622031
 21
21.6872250913712
 31
0.0
 12
18.781277902725321
 22
21.84459429339892
 32
0.0
 13
18.781277902725321
 23
21.84459429339892
 33
0.0
  0
POLYLINE
  5
A7BE
  8
1TEXT
 66
     1
 10
0.0
 20
0.0
 30
0.0
  0
VERTEX
  5
A7BF
  8
1TEXT
 10
18.809294116781079
 20
21.85532237570575
 30
0.0
  0
VERTEX
  5
A7C0
  8
1TEXT
 10
14.663333468348929
 20
32.682431794815123
 30
0.0
  0
VERTEX
  5
A7C1
  8
1TEXT
 10
14.483333468348929
 20
32.682431794815123
 30
0.0
  0
SEQEND
  5
A7C2
  8
1TEXT
  0
ENDBLK
  5
A7C4
  8
0
  0
BLOCK
  8
0
  2
*U169
 70
     1
 10
0.0
 20
0.0
 30
0.0
  3
*U169
  1

  0
TEXT
  5
A7C6
  8
0
 62
   201
 10
61.369828909819347
 20
351.62504398058962
 30
0.0
 40
1.75
  1
16.3 
  0
TEXT
  5
A7C7
  8
0
 62
   201
 10
68.019828909819353
 20
352.70421064725622
 30
0.0
 40
1.2250000000000001
  1
+0.1 
  0
TEXT
  5
A7C8
  8
0
 62
   201
 10
68.253162243152687
 20
351.07087731392278
 30
0.0
 40
1.2250000000000001
  1
 0 
  0
ENDBLK
  5
A7CA
  8
0
  0
BLOCK
  8
0
  2
*U170
 70
     1
 10
0.0
 20
0.0
 30
0.0
  3
*U170
  1

  0
TEXT
  5
A7CC
  8
1TEXT
 10
-12.943849784408121
 20
-2.8718971165131322
 30
0.0
 40
6.0
  1
%%U改正図
  0
ENDBLK
  5
A7CE
  8
0
  0
BLOCK
  8
0
  2
*U171
 70
     1
 10
0.0
 20
0.0
 30
0.0
  3
*U171
  1

  0
SOLID
  5
A7D0
  8
1TEXT
 10
83.243449018845524
 20
29.518655208014518
 30
0.0
 11
83.425381187563644
 21
29.504488839901111
 31
0.0
 12
83.248688692361071
 22
29.458884430694411
 32
0.0
 13
83.248688692361071
 23
29.458884430694411
 33
0.0
  0
POLYLINE
  5
A7D1
  8
1TEXT
 66
     1
 10
0.0
 20
0.0
 30
0.0
  0
VERTEX
  5
A7D2
  8
1TEXT
 10
83.246068855603298
 20
29.48876981935447
 30
0.0
  0
VERTEX
  5
A7D3
  8
1TEXT
 10
59.681721830321663
 20
27.423053250898931
 30
0.0
  0
SEQEND
  5
A7D4
  8
1TEXT
  0
ENDBLK
  5
A7D6
  8
0
  0
BLOCK
  8
0
  2
*U172
 70
     1
 10
0.0
 20
0.0
 30
0.0
  3
*U172
  1

  0
SOLID
  5
A7D8
  8
1TEXT
 10
72.620097433571104
 20
72.787762536714041
 30
0.0
 11
72.776341276808921
 21
72.693487081529383
 31
0.0
 12
72.597967223415949
 22
72.731992887275581
 32
0.0
 13
72.597967223415949
 23
72.731992887275581
 33
0.0
  0
POLYLINE
  5
A7D9
  8
1TEXT
 66
     1
 10
0.0
 20
0.0
 30
0.0
  0
VERTEX
  5
A7DA
  8
1TEXT
 10
72.609032328493527
 20
72.759877711994804
 30
0.0
  0
VERTEX
  5
A7DB
  8
1TEXT
 10
64.978075545397928
 20
75.787952641550419
 30
0.0
  0
SEQEND
  5
A7DC
  8
1TEXT
  0
ENDBLK
  5
A7DE
  8
0
  0
BLOCK
  8
0
  2
*U173
 70
     1
 10
0.0
 20
0.0
 30
0.0
  3
*U173
  1

  0
SOLID
  5
A7E0
  8
1TEXT
 10
57.53669593258099
 20
49.684073160701708
 30
0.0
 11
57.568350206197117
 21
49.504356698011627
 31
0.0
 12
57.480120554066147
 22
49.664092506410533
 32
0.0
 13
57.480120554066147
 23
49.664092506410533
 33
0.0
  0
POLYLINE
  5
A7E1
  8
1TEXT
 66
     1
 10
0.0
 20
0.0
 30
0.0
  0
VERTEX
  5
A7E2
  8
1TEXT
 10
57.508408243323572
 20
49.67408283355612
 30
0.0
  0
VERTEX
  5
A7E3
  8
1TEXT
 10
53.520087564876889
 20
60.967043951509723
 30
0.0
  0
SEQEND
  5
A7E4
  8
1TEXT
  0
ENDBLK
  5
A7E6
  8
0
  0
BLOCK
  8
0
  2
*U174
 70
     1
 10
0.0
 20
0.0
 30
0.0
  3
*U174
  1

  0
SOLID
  5
A7E8
  8
1TEXT
 10
87.801472345467914
 20
33.701028209732989
 30
0.0
 11
87.650575247509892
 21
33.598412100725447
 31
0.0
 12
87.760034845359627
 22
33.744420992367623
 32
0.0
 13
87.760034845359627
 23
33.744420992367623
 33
0.0
  0
POLYLINE
  5
A7E9
  8
1TEXT
 66
     1
 10
0.0
 20
0.0
 30
0.0
  0
VERTEX
  5
A7EA
  8
1TEXT
 10
87.780753595413771
 20
33.722724601050302
 30
0.0
  0
VERTEX
  5
A7EB
  8
1TEXT
 10
101.2009000891492
 20
46.538158136847009
 30
0.0
  0
SEQEND
  5
A7EC
  8
1TEXT
  0
ENDBLK
  5
A7EE
  8
0
  0
BLOCK
  8
0
  2
*U175
 70
     1
 10
0.0
 20
0.0
 30
0.0
  3
*U175
  1

  0
SOLID
  5
A7F0
  8
1TEXT
 10
79.584698175317357
 20
114.1610032363202
 30
0.0
 11
79.422584932719019
 21
114.2447844786973
 31
0.0
 12
79.603107592164079
 22
114.2181092199941
 32
0.0
 13
79.603107592164079
 23
114.2181092199941
 33
0.0
  0
POLYLINE
  5
A7F1
  8
1TEXT
 66
     1
 10
0.0
 20
0.0
 30
0.0
  0
VERTEX
  5
A7F2
  8
1TEXT
 10
79.593902883740725
 20
114.1895562281571
 30
0.0
  0
VERTEX
  5
A7F3
  8
1TEXT
 10
98.087451717660912
 20
108.2277387870481
 30
0.0
  0
SEQEND
  5
A7F4
  8
1TEXT
  0
ENDBLK
  5
A7F6
  8
0
  0
BLOCK
  8
0
  2
*U176
 70
     1
 10
0.0
 20
0.0
 30
0.0
  3
*U176
  1

  0
TEXT
  5
A7F8
  8
1TEXT
 10
276.49766961503411
 20
3.712832431107628
 30
0.0
 40
3.0
  1
Uchida
  0
ENDBLK
  5
A7FA
  8
0
  0
BLOCK
  8
0
  2
*U177
 70
     1
 10
0.0
 20
0.0
 30
0.0
  3
*U177
  1

  0
SOLID
  5
A7FC
  8
1TEXT
 10
159.00939527095699
 20
141.13837716373561
 30
0.0
 11
159.06196166005839
 21
141.31312490974921
 31
0.0
 12
159.06891164204791
 22
141.13077442921701
 32
0.0
 13
159.06891164204791
 23
141.13077442921701
 33
0.0
  0
POLYLINE
  5
A7FD
  8
1TEXT
 66
     1
 10
0.0
 20
0.0
 30
0.0
  0
VERTEX
  5
A7FE
  8
1TEXT
 10
159.0391534565025
 20
141.1345757964763
 30
0.0
  0
VERTEX
  5
A7FF
  8
1TEXT
 10
157.050682935097
 20
125.5682622331978
 30
0.0
  0
SEQEND
  5
A800
  8
1TEXT
  0
ENDBLK
  5
A802
  8
0
  0
BLOCK
  8
0
  2
*U178
 70
     1
 10
0.0
 20
0.0
 30
0.0
  3
*U178
  1

  0
SOLID
  5
A804
  8
1TEXT
 10
202.3741144800363
 20
140.7092823754808
 30
0.0
 11
202.45551851830029
 21
140.87260225349419
 31
0.0
 12
202.4314833074063
 22
140.6917091672878
 32
0.0
 13
202.4314833074063
 23
140.6917091672878
 33
0.0
  0
POLYLINE
  5
A805
  8
1TEXT
 66
     1
 10
0.0
 20
0.0
 30
0.0
  0
VERTEX
  5
A806
  8
1TEXT
 10
202.4027988937213
 20
140.70049577138431
 30
0.0
  0
VERTEX
  5
A807
  8
1TEXT
 10
197.30785417487689
 20
124.0677329414704
 30
0.0
  0
SEQEND
  5
A808
  8
1TEXT
  0
ENDBLK
  5
A80A
  8
0
  0
BLOCK
  8
0
  2
*U179
 70
     1
 10
0.0
 20
0.0
 30
0.0
  3
*U179
  1

  0
SOLID
  5
A80C
  8
1TEXT
 10
254.22810928393071
 20
140.18748405919189
 30
0.0
 11
254.12961909724649
 21
140.34110594281179
 31
0.0
 12
254.27260880366231
 22
140.22773070804189
 32
0.0
 13
254.27260880366231
 23
140.22773070804189
 33
0.0
  0
POLYLINE
  5
A80D
  8
1TEXT
 66
     1
 10
0.0
 20
0.0
 30
0.0
  0
VERTEX
  5
A80E
  8
1TEXT
 10
254.25035904379649
 20
140.2076073836169
 30
0.0
  0
VERTEX
  5
A80F
  8
1TEXT
 10
268.2068362036182
 20
124.7763466823278
 30
0.0
  0
SEQEND
  5
A810
  8
1TEXT
  0
ENDBLK
  5
A812
  8
0
  0
BLOCK
  8
0
  2
*U180
 70
     1
 10
0.0
 20
0.0
 30
0.0
  3
*U180
  1

  0
SOLID
  5
A814
  8
1TEXT
 10
73.376938502411491
 20
219.2489973685353
 30
0.0
 11
73.559097906110765
 21
219.2381368140409
 31
0.0
 12
73.383262614667331
 22
219.18933158601149
 32
0.0
 13
73.383262614667331
 23
219.18933158601149
 33
0.0
  0
POLYLINE
  5
A815
  8
1TEXT
 66
     1
 10
0.0
 20
0.0
 30
0.0
  0
VERTEX
  5
A816
  8
1TEXT
 10
73.380100558539411
 20
219.21916447727341
 30
0.0
  0
VERTEX
  5
A817
  8
1TEXT
 10
57.582418812761382
 20
217.54473218934561
 30
0.0
  0
SEQEND
  5
A818
  8
1TEXT
  0
ENDBLK
  5
A81A
  8
0
  0
BLOCK
  8
0
  2
*U181
 70
     1
 10
0.0
 20
0.0
 30
0.0
  3
*U181
  1

  0
TEXT
  5
A81C
  8
1TEXT
 10
180.9068875464537
 20
233.62280006262421
 30
0.0
 40
6.0
  1
%%U改正図
  0
ENDBLK
  5
A81E
  8
0
  0
BLOCK
  8
0
  2
*U182
 70
     1
 10
0.0
 20
0.0
 30
0.0
  3
*U182
  1

  0
SOLID
  5
A820
  8
1TEXT
 10
381.51662999163358
 20
139.15897711578
 30
0.0
 11
381.6591600428448
 21
139.27292966951069
 31
0.0
 12
381.5612919037199
 22
139.11891075072401
 32
0.0
 13
381.5612919037199
 23
139.11891075072401
 33
0.0
  0
POLYLINE
  5
A821
  8
1TEXT
 66
     1
 10
0.0
 20
0.0
 30
0.0
  0
VERTEX
  5
A822
  8
1TEXT
 10
381.53896094767669
 20
139.13894393325199
 30
0.0
  0
VERTEX
  5
A823
  8
1TEXT
 10
371.40252687707579
 20
127.839877329719
 30
0.0
  0
SEQEND
  5
A824
  8
1TEXT
  0
ENDBLK
  5
A826
  8
0
  0
BLOCK
  8
0
  2
*U183
 70
     1
 10
0.0
 20
0.0
 30
0.0
  3
*U183
  1

  0
LINE
  5
A82D
  8
0
 10
-34.599999999999987
 20
2.5
 30
0.0
 11
-2.849999999999937
 21
2.5
 31
0.0
  0
LINE
  5
A82E
  8
0
 10
-35.0
 20
2.1000000000000218
 30
0.0
 11
-34.599999999999987
 21
2.5
 31
0.0
  0
LINE
  5
A82F
  8
0
 10
-0.3499999999999659
 20
5.0
 30
0.0
 11
-2.849999999999937
 21
2.5
 31
0.0
  0
LINE
  5
A830
  8
0
 10
-35.0
 20
2.1000000000000218
 30
0.0
 11
-35.0
 21
-2.1000000000000218
 31
0.0
  0
LINE
  5
A831
  8
0
 10
-0.3499999999999659
 20
5.0
 30
0.0
 11
0.0
 21
5.0
 31
0.0
  0
LINE
  5
A832
  8
0
 10
-34.60000000000003
 20
-2.5
 30
0.0
 11
-35.0
 21
-2.1000000000000218
 31
0.0
  0
LINE
  5
A833
  8
0
 10
0.0
 20
5.0
 30
0.0
 11
0.0
 21
-5.0
 31
0.0
  0
LINE
  5
A834
  8
0
 10
-34.60000000000003
 20
-2.5
 30
0.0
 11
-2.8500000000000218
 21
-2.5
 31
0.0
  0
LINE
  5
A835
  8
0
 10
-0.3499999999999659
 20
-5.0
 30
0.0
 11
0.0
 21
-5.0
 31
0.0
  0
LINE
  5
A836
  8
0
 10
-0.3499999999999659
 20
-5.0
 30
0.0
 11
-2.8500000000000218
 21
-2.5
 31
0.0
  0
ENDBLK
  5
A838
  8
0
  0
BLOCK
  8
0
  2
*U184
 70
     1
 10
0.0
 20
0.0
 30
0.0
  3
*U184
  1

  0
LINE
  5
A83D
  8
0
 10
-29.700003489976531
 20
-1.4999534641020771
 30
0.0
 11
-2.8000383918526941
 21
-1.4999534641020771
 31
0.0
  0
LINE
  5
A83E
  8
0
 10
-0.3000093071805736
 20
-4.0
 30
0.0
 11
-2.8000383918526941
 21
-1.4999534641020771
 31
0.0
  0
LINE
  5
A83F
  8
0
 10
-34.99999999983757
 20
0.0000465358979227
 30
0.0
 11
-29.700003489976531
 21
-1.4999534641020771
 31
0.0
  0
LINE
  5
A840
  8
0
 10
-0.3000093071805736
 20
-4.0
 30
0.0
 11
-0.0000093071795959
 21
-4.0
 31
0.0
  0
LINE
  5
A841
  8
0
 10
-34.99999999983757
 20
0.0000465358979227
 30
0.0
 11
-29.699996509592239
 21
1.500046535897922
 31
0.0
  0
LINE
  5
A842
  8
0
 10
-0.0000093071795959
 20
-4.0
 30
0.0
 11
0.0000093071795959
 21
4.0
 31
0.0
  0
LINE
  5
A843
  8
0
 10
-29.699996509592239
 20
1.500046535897922
 30
0.0
 11
-2.7999732414874918
 21
1.500046535897922
 31
0.0
  0
LINE
  5
A844
  8
0
 10
-0.2999906928214955
 20
4.0
 30
0.0
 11
0.0000093071795959
 21
4.0
 31
0.0
  0
LINE
  5
A845
  8
0
 10
-0.2999906928214955
 20
4.0
 30
0.0
 11
-2.7999732414874918
 21
1.500046535897922
 31
0.0
  0
ENDBLK
  5
A847
  8
0
  0
BLOCK
  8
0
  2
*U185
 70
     1
 10
0.0
 20
0.0
 30
0.0
  3
*U185
  1

  0
LINE
  5
A849
  8
0
 10
-7.6500000000000341
 20
2.0
 30
0.0
 11
-1.3000001740740139
 21
2.0
 31
0.0
  0
LINE
  5
A84A
  8
0
 10
-7.6500000000000341
 20
2.0
 30
0.0
 11
-8.0000000000000142
 21
1.649999999999977
 31
0.0
  0
LINE
  5
A84B
  8
0
 10
-1.3000001740740139
 20
2.0
 30
0.0
 11
-0.3000001000000054
 21
3.0
 31
0.0
  0
LINE
  5
A84C
  8
0
 10
-8.0000000000000142
 20
1.649999999999977
 30
0.0
 11
-8.0000000000000142
 21
-1.6499999999998629
 31
0.0
  0
LINE
  5
A84D
  8
0
 10
-0.3000001000000054
 20
3.0
 30
0.0
 11
0.0
 21
3.0
 31
0.0
  0
LINE
  5
A84E
  8
0
 10
-8.0000000000000142
 20
-1.6499999999998629
 30
0.0
 11
-7.6500000000000341
 21
-2.0
 31
0.0
  0
LINE
  5
A84F
  8
0
 10
0.0
 20
3.0
 30
0.0
 11
0.0
 21
-3.0
 31
0.0
  0
LINE
  5
A850
  8
0
 10
-7.6500000000000341
 20
-2.0
 30
0.0
 11
-1.3000001740740139
 21
-2.0
 31
0.0
  0
LINE
  5
A851
  8
0
 10
-0.3000000100000193
 20
-3.0
 30
0.0
 11
0.0
 21
-3.0
 31
0.0
  0
LINE
  5
A852
  8
0
 10
-1.3000001740740139
 20
-2.0
 30
0.0
 11
-0.3000000100000193
 21
-3.0
 31
0.0
  0
ENDBLK
  5
A854
  8
0
  0
BLOCK
  8
0
  2
*U186
 70
     1
 10
0.0
 20
0.0
 30
0.0
  3
*U186
  1

  0
LINE
  5
A856
  8
0
 10
-5.0000000000000142
 20
1.649999999999977
 30
0.0
 11
-5.0000000000000142
 21
-1.6499999999998629
 31
0.0
  0
LINE
  5
A857
  8
0
 10
-5.0000000000000142
 20
-1.6499999999998629
 30
0.0
 11
-4.6500000000000341
 21
-2.0
 31
0.0
  0
LINE
  5
A858
  8
0
 10
-4.6500000000000341
 20
2.0
 30
0.0
 11
-5.0000000000000142
 21
1.649999999999977
 31
0.0
  0
LINE
  5
A859
  8
0
 10
-4.6500000000000341
 20
-2.0
 30
0.0
 11
-1.3000001740740139
 21
-2.0
 31
0.0
  0
LINE
  5
A85A
  8
0
 10
-4.6500000000000341
 20
2.0
 30
0.0
 11
-1.3000001740740139
 21
2.0
 31
0.0
  0
LINE
  5
A85B
  8
0
 10
-1.3000001740740139
 20
-2.0
 30
0.0
 11
-0.3000001000000054
 21
-3.0
 31
0.0
  0
LINE
  5
A85C
  8
0
 10
-1.3000001740740139
 20
2.0
 30
0.0
 11
-0.3000000100000193
 21
3.0
 31
0.0
  0
LINE
  5
A85D
  8
0
 10
-0.3000001000000054
 20
-3.0
 30
0.0
 11
0.0
 21
-3.0
 31
0.0
  0
LINE
  5
A85E
  8
0
 10
-0.3000000100000193
 20
3.0
 30
0.0
 11
0.0
 21
3.0
 31
0.0
  0
LINE
  5
A85F
  8
0
 10
0.0
 20
3.0
 30
0.0
 11
0.0
 21
-3.0
 31
0.0
  0
ENDBLK
  5
A861
  8
0
  0
BLOCK
  8
0
  2
*U187
 70
     1
 10
0.0
 20
0.0
 30
0.0
  3
*U187
  1

  0
TEXT
  5
A863
  8
1TEXT
 62
   201
 10
-12.12411312243723
 20
-42.255153948360288
 30
0.0
 40
7.0
  1
50
  0
ENDBLK
  5
A865
  8
0
  0
BLOCK
  8
0
  2
*U188
 70
     1
 10
0.0
 20
0.0
 30
0.0
  3
*U188
  1

  0
TEXT
  5
A867
  8
1TEXT
 62
   201
 10
707.52627511769015
 20
-84.232563091362906
 30
0.0
 40
7.0
  1
50
 50
90.0
  0
ENDBLK
  5
A869
  8
0
  0
BLOCK
  8
0
  2
*U189
 70
     1
 10
0.0
 20
0.0
 30
0.0
  3
*U189
  1

  0
TEXT
  5
A86B
  8
1TEXT
 62
   201
 10
632.24255354425202
 20
-123.83059618414499
 30
0.0
 40
7.0
  1
10.6
  0
ENDBLK
  5
A86D
  8
0
  0
BLOCK
  8
0
  2
*U190
 70
     1
 10
0.0
 20
0.0
 30
0.0
  3
*U190
  1

  0
TEXT
  5
A86F
  8
1TEXT
 62
   201
 10
309.54255354424168
 20
-31.69955146959192
 30
0.0
 40
7.0
  1
700
  0
ENDBLK
  5
A871
  8
0
  0
BLOCK
  8
0
  2
*U191
 70
     1
 10
0.0
 20
0.0
 30
0.0
  3
*U191
  1

  0
TEXT
  5
A873
  8
1TEXT
 62
   201
 10
509.54257330180741
 20
-42.255153948360288
 30
0.0
 40
7.0
  1
200
  0
ENDBLK
  5
A875
  8
0
  0
BLOCK
  8
0
  2
*U192
 70
     1
 10
0.0
 20
0.0
 30
0.0
  3
*U192
  1

  0
TEXT
  5
A877
  8
1TEXT
 62
   201
 10
309.54255354424168
 20
-42.255153948360288
 30
0.0
 40
7.0
  1
200
  0
ENDBLK
  5
A879
  8
0
  0
BLOCK
  8
0
  2
*U193
 70
     1
 10
0.0
 20
0.0
 30
0.0
  3
*U193
  1

  0
TEXT
  5
A87B
  8
1TEXT
 62
   201
 10
750.60921521091143
 20
-132.11244800205111
 30
0.0
 40
7.0
  1
12
  0
ENDBLK
  5
A87D
  8
0
  0
BLOCK
  8
0
  2
*U194
 70
     1
 10
0.0
 20
0.0
 30
0.0
  3
*U194
  1

  0
TEXT
  5
A87F
  8
1TEXT
 62
   201
 10
685.67907558793206
 20
-48.166317968109482
 30
0.0
 40
7.0
  1
22.4
 50
90.0
  0
ENDBLK
  5
A881
  8
0
  0
BLOCK
  8
0
  2
*U195
 70
     1
 10
0.0
 20
0.0
 30
0.0
  3
*U195
  1

  0
TEXT
  5
A883
  8
1TEXT
 62
   201
 10
695.85960845102352
 20
25.946613581577999
 30
0.0
 40
7.0
  1
使用時
 50
90.0
  0
TEXT
  5
A884
  8
1TEXT
 62
   201
 10
707.52627511769015
 20
30.946613581577999
 30
0.0
 40
7.0
  1
52
 50
90.0
  0
ENDBLK
  5
A886
  8
0
  0
BLOCK
  8
0
  2
*U196
 70
     1
 10
0.0
 20
0.0
 30
0.0
  3
*U196
  1

  0
TEXT
  5
A888
  8
1TEXT
 62
   201
 10
109.54255354423481
 20
-42.255153948360288
 30
0.0
 40
7.0
  1
200
  0
ENDBLK
  5
A88A
  8
0
  0
ENDSEC
  0
SECTION
  2
ENTITIES
  0
LINE
  5
9F18
  8
01
 10
669.54255354424504
 20
-102.06547488128309
 30
0.0
 11
669.54255354424504
 21
-53.066317968109608
 31
0.0
  0
LINE
  5
9F19
  8
01
 10
625.34255354424465
 20
-102.5654748812849
 30
0.0
 11
669.04255354424504
 21
-102.56547488128309
 31
0.0
  0
ARC
  5
9F1A
  8
01
 10
669.04255354424504
 20
-102.06547488128309
 30
0.0
 40
0.5
 50
270.0
 51
0.0
  0
LINE
  5
9F1B
  8
01
 10
625.34255354424465
 20
-52.566317968108713
 30
0.0
 11
669.04255354424504
 21
-52.566317968109608
 31
0.0
  0
ARC
  5
9F1C
  8
01
 10
669.04255354424504
 20
-53.066317968109608
 30
0.0
 40
0.5
 50
0.0
 51
90.0
  0
LINE
  5
9F1D
  8
01
 10
625.34255354424465
 20
-52.566317968108713
 30
0.0
 11
625.34255354424465
 21
-102.5654748812849
 31
0.0
  0
CIRCLE
  5
9F1E
  8
01
 10
434.5425535442414
 20
-74.973391398580588
 30
0.0
 40
2.25
  0
CIRCLE
  5
9F1F
  8
01
 10
404.5425535442414
 20
-74.973391398585136
 30
0.0
 40
2.25
  0
LINE
  5
9F20
  8
01
 10
224.8425537015988
 20
-53.765474881280618
 30
0.0
 11
224.8425537015988
 21
-101.36547488128041
 31
0.0
  0
LINE
  5
9F21
  8
01
 10
414.24255338688431
 20
-53.765474881280618
 30
0.0
 11
413.74255354424531
 21
-53.765474881280618
 31
0.0
  0
LINE
  5
9F22
  8
01
 10
414.24255338688431
 20
-53.765474881280618
 30
0.0
 11
414.24255338688431
 21
-101.36547488128051
 31
0.0
  0
LINE
  5
9F23
  8
01
 10
414.24255338688431
 20
-101.36547488128051
 30
0.0
 11
413.74255354424531
 21
-101.36547488128051
 31
0.0
  0
LINE
  5
9F24
  8
01
 10
224.8425537015988
 20
-53.765474881280618
 30
0.0
 11
225.342553544238
 21
-53.765474881280618
 31
0.0
  0
LINE
  5
9F25
  8
01
 10
224.8425537015988
 20
-101.36547488128041
 30
0.0
 11
225.342553544238
 21
-101.36547488128051
 31
0.0
  0
LINE
  5
9F26
  8
01
 10
413.74255354424531
 20
-52.565474881280807
 30
0.0
 11
225.342553544238
 21
-52.565474881280807
 31
0.0
  0
LINE
  5
9F27
  8
01
 10
413.7425535442448
 20
-102.56547488128081
 30
0.0
 11
225.342553544238
 21
-102.56547488128081
 31
0.0
  0
LINE
  5
9F28
  8
01
 10
614.24255338689159
 20
-53.758401450810197
 30
0.0
 11
613.74255354425259
 21
-53.758401450810197
 31
0.0
  0
LINE
  5
9F29
  8
01
 10
614.24255338689159
 20
-53.758401450810197
 30
0.0
 11
614.24255338689159
 21
-101.35840145081011
 31
0.0
  0
LINE
  5
9F2A
  8
01
 10
614.24255338689159
 20
-101.35840145081011
 30
0.0
 11
613.74255354425259
 21
-101.35840145081011
 31
0.0
  0
LINE
  5
9F2B
  8
01
 10
424.84255370160548
 20
-53.766317968108972
 30
0.0
 11
425.34255354424482
 21
-53.766317968108972
 31
0.0
  0
LINE
  5
9F2C
  8
01
 10
424.84255370160548
 20
-53.766317968108972
 30
0.0
 11
424.84255370160548
 21
-101.3663179681089
 31
0.0
  0
LINE
  5
9F2D
  8
01
 10
424.84255370160548
 20
-101.3663179681089
 30
0.0
 11
425.34255354424482
 21
-101.3663179681089
 31
0.0
  0
LINE
  5
9F2E
  8
01
 10
613.74255354425316
 20
-52.566317968109161
 30
0.0
 11
425.34255354424482
 21
-52.566317968109161
 31
0.0
  0
LINE
  5
9F2F
  8
01
 10
613.74255354425225
 20
-102.5663179681091
 30
0.0
 11
425.34255354424482
 21
-102.5663179681091
 31
0.0
  0
LINE
  5
9F30
  8
01
 10
214.24255354423781
 20
-102.6736713980217
 30
0.0
 11
214.24255354423781
 21
-52.474514484848441
 31
0.0
  0
ARC
  5
9F31
  8
01
 10
214.74255354423741
 20
-52.474514484848441
 30
0.0
 40
0.5
 50
90.0
 51
180.0
  0
LINE
  5
9F32
  8
01
 10
224.84255354423831
 20
-102.6736713980217
 30
0.0
 11
224.84255354423831
 21
-52.474514484848441
 31
0.0
  0
ARC
  5
9F33
  8
01
 10
224.34255354423789
 20
-52.474514484848441
 30
0.0
 40
0.5
 50
0.0
 51
90.0
  0
LINE
  5
9F34
  8
01
 10
214.74255354423789
 20
-103.1736713980217
 30
0.0
 11
224.34255354423831
 21
-103.1736713980217
 31
0.0
  0
ARC
  5
9F35
  8
01
 10
224.34255354423831
 20
-102.6736713980217
 30
0.0
 40
0.5
 50
270.0
 51
0.0
  0
ARC
  5
9F36
  8
01
 10
214.74255354423789
 20
-102.6736713980217
 30
0.0
 40
0.5
 50
180.0
 51
270.0
  0
LINE
  5
9F37
  8
01
 10
214.74255354423741
 20
-51.974514484848441
 30
0.0
 11
224.34255354423789
 21
-51.974514484848441
 31
0.0
  0
LINE
  5
9F38
  8
01
 10
414.24255354424457
 20
-102.6736713980217
 30
0.0
 11
414.24255354424457
 21
-52.474514484848441
 31
0.0
  0
ARC
  5
9F39
  8
01
 10
414.74255354424412
 20
-52.474514484848441
 30
0.0
 40
0.5
 50
90.0
 51
180.0
  0
LINE
  5
9F3A
  8
01
 10
424.84255354424511
 20
-102.6736713980217
 30
0.0
 11
424.84255354424511
 21
-52.474514484848441
 31
0.0
  0
ARC
  5
9F3B
  8
01
 10
424.34255354424459
 20
-52.474514484848441
 30
0.0
 40
0.5
 50
0.0
 51
90.0
  0
LINE
  5
9F3C
  8
01
 10
414.74255354424457
 20
-103.1736713980217
 30
0.0
 11
424.34255354424511
 21
-103.1736713980217
 31
0.0
  0
ARC
  5
9F3D
  8
01
 10
424.34255354424511
 20
-102.6736713980217
 30
0.0
 40
0.5
 50
270.0
 51
0.0
  0
ARC
  5
9F3E
  8
01
 10
414.74255354424457
 20
-102.6736713980217
 30
0.0
 40
0.5
 50
180.0
 51
270.0
  0
LINE
  5
9F3F
  8
01
 10
414.74255354424412
 20
-51.974514484848441
 30
0.0
 11
424.34255354424459
 21
-51.974514484848441
 31
0.0
  0
LINE
  5
9F40
  8
01
 10
614.2425535442519
 20
-102.6657548807229
 30
0.0
 11
614.2425535442519
 21
-52.46659796754966
 31
0.0
  0
LINE
  5
9F41
  8
01
 10
619.54255354425175
 20
-106.46111076093391
 30
0.0
 11
619.54255354425175
 21
-47.27691345313314
 31
0.0
  0
ARC
  5
9F42
  8
01
 10
614.74255354425145
 20
-52.46659796754966
 30
0.0
 40
0.5
 50
90.0
 51
180.0
  0
LINE
  5
9F43
  8
01
 10
624.84255354425193
 20
-102.6657548807229
 30
0.0
 11
624.84255354425193
 21
-52.46659796754966
 31
0.0
  0
ARC
  5
9F44
  8
01
 10
624.34255354425181
 20
-52.46659796754966
 30
0.0
 40
0.5
 50
0.0
 51
90.0
  0
LINE
  5
9F45
  8
01
 10
614.74255354425179
 20
-103.1657548807229
 30
0.0
 11
624.34255354425181
 21
-103.1657548807229
 31
0.0
  0
ARC
  5
9F46
  8
01
 10
624.34255354425181
 20
-102.6657548807229
 30
0.0
 40
0.5
 50
270.0
 51
0.0
  0
ARC
  5
9F47
  8
01
 10
614.74255354425179
 20
-102.6657548807229
 30
0.0
 40
0.5
 50
180.0
 51
270.0
  0
LINE
  5
9F48
  8
01
 10
614.74255354425145
 20
-51.96659796754966
 30
0.0
 11
624.34255354425181
 21
-51.96659796754966
 31
0.0
  0
LINE
  5
9F49
  8
01
 10
419.5425535442451
 20
-50.498133997852619
 30
0.0
 11
419.5425535442451
 21
-103.1736713980217
 31
0.0
  0
LINE
  5
9F4A
  8
01
 10
219.5425535442383
 20
-50.498133997852619
 30
0.0
 11
219.5425535442383
 21
-104.3333451966123
 31
0.0
  0
LINE
  5
9F4E
  8
01
 10
779.40988189054997
 20
-103.1001617918788
 30
0.0
 11
779.55649596759986
 21
-97.501196078085741
 31
0.0
  0
ARC
  5
9F4F
  8
01
 10
729.22792697469799
 20
-101.7861010562639
 30
0.0
 40
1.0
 50
178.50000000000381
 51
268.49999999999733
  0
LINE
  5
9F50
  8
01
 10
728.42461260282369
 20
-94.261889235196804
 30
0.0
 11
728.22826964972251
 21
-101.75992410795619
 31
0.0
  0
ARC
  5
9F51
  8
01
 10
778.41022456557448
 20
-103.073984843571
 30
0.0
 40
1.0
 50
268.50000000000063
 51
358.49999999999721
  0
LINE
  5
9F52
  8
01
 10
729.20175002639019
 20
-102.7857583812393
 30
0.0
 11
778.38404761726645
 21
-104.0736421685466
 31
0.0
  0
LINE
  5
9F53
  8
01
 10
729.45044687610698
 20
-93.288408858529067
 30
0.0
 11
730.45010420108338
 21
-93.314585806836817
 31
0.0
  0
ARC
  5
9F54
  8
01
 10
729.42426992779906
 20
-94.288066183504625
 30
0.0
 40
1.0
 50
88.50000000000054
 51
178.4999999999973
  0
LINE
  5
9F55
  8
01
 10
778.43709926662564
 20
-97.465475012314826
 30
0.0
 11
780.34254854424682
 21
-97.465475012316176
 31
0.0
  0
LINE
  5
9F56
  8
01
 10
780.34254854424523
 20
-90.065754880724
 30
0.0
 11
780.34254854424523
 21
-65.065754880724398
 31
0.0
  0
LINE
  5
9F58
  8
01
 10
779.55647288168336
 20
-97.502080695518771
 30
0.0
 11
778.43798664848919
 21
-97.472792102740186
 31
0.0
  0
LINE
  5
9F59
  8
01
 10
770.80575542988493
 20
-95.842851544079494
 30
0.0
 11
770.81202132519377
 21
-97.039538461568384
 31
0.0
  0
LINE
  5
9F5A
  8
01
 10
770.81202132519377
 20
-97.039538461568384
 30
0.0
 11
770.23909462447602
 21
-98.043985894653716
 31
0.0
  0
LINE
  5
9F5B
  8
01
 10
770.23909462447602
 20
-98.043985894653716
 30
0.0
 11
770.20468816796426
 21
-99.357915458704042
 31
0.0
  0
ARC
  5
9F5C
  8
01
  6
BYBLOCK
 10
-774.34254862282569
 20
-97.965754959303069
 30
0.0
 40
4.125
210
0.0
220
0.0
230
-1.0
 50
30.973612446994959
 51
173.1363982109774
  0
LINE
  5
9F5D
  8
01
 10
770.20468816796426
 20
-99.357915458704042
 30
0.0
 11
732.81750421387812
 21
-98.378897591989187
 31
0.0
  0
ARC
  5
9F5E
  8
01
 10
732.84368116218604
 20
-97.379240267013643
 30
0.0
 40
1.0
 50
178.4999999999973
 51
268.50000000000063
  0
CIRCLE
  5
9F5F
  8
01
 10
774.34254862282569
 20
-97.965754959303069
 30
0.0
 40
2.149999999999999
  0
ARC
  5
9F60
  8
01
 10
732.84368116218604
 20
-97.379240267013643
 30
0.0
 40
1.0
 50
178.4999999999973
 51
268.50000000000063
  0
LINE
  5
9F61
  8
01
 10
731.84402383721044
 20
-97.353063318705836
 30
0.0
 11
731.92255468213409
 21
-94.354091343779999
 31
0.0
  0
ARC
  5
9F62
  8
01
 10
730.9228973571586
 20
-94.327914395472135
 30
0.0
 40
1.0
 50
358.49999999999721
 51
88.499999999974477
  0
LINE
  5
9F63
  8
01
 10
730.94907430546664
 20
-93.328257070496534
 30
0.0
 11
729.44958831800307
 21
-93.288991648033786
 31
0.0
  0
ARC
  5
9F64
  8
01
 10
729.42341136969515
 20
-94.288648973009401
 30
0.0
 40
1.0
 50
88.50000000000054
 51
178.4999999999973
  0
LINE
  5
9F65
  8
01
 10
634.5425535442522
 20
-67.118987372231231
 30
0.0
 11
634.5425535442522
 21
-81.701567972316525
 31
0.0
  0
CIRCLE
  5
9F66
  8
01
 10
-634.5425535442522
 20
-74.965474881282262
 30
0.0
 40
2.25
210
0.0
220
0.0
230
-1.0
  0
CIRCLE
  5
9F67
  8
01
 10
-604.54255354425231
 20
-74.965474881282262
 30
0.0
 40
2.25
210
0.0
220
0.0
230
-1.0
  0
LINE
  5
9F68
  8
01
 10
-30.457446455761701
 20
-102.06547488128309
 30
0.0
 11
-30.457446455761701
 21
-53.066317968109608
 31
0.0
  0
LINE
  5
9F69
  8
01
 10
13.74255354423857
 20
-102.5654748812849
 30
0.0
 11
-29.957446455761701
 21
-102.56547488128309
 31
0.0
  0
ARC
  5
9F6A
  8
01
 10
-29.957446455761701
 20
-102.06547488128309
 30
0.0
 40
0.5
 50
180.0
 51
270.0
  0
LINE
  5
9F6B
  8
01
 10
13.74255354423857
 20
-52.566317968108713
 30
0.0
 11
-29.957446455761701
 21
-52.566317968109608
 31
0.0
  0
ARC
  5
9F6C
  8
01
 10
-29.957446455761701
 20
-53.066317968109608
 30
0.0
 40
0.5
 50
90.0
 51
180.0
  0
LINE
  5
9F6D
  8
01
 10
13.74255354423857
 20
-52.566317968108713
 30
0.0
 11
13.74255354423857
 21
-102.5654748812849
 31
0.0
  0
LINE
  5
9F6E
  8
01
 10
204.5425535442379
 20
-67.843452097832142
 30
0.0
 11
204.5425535442379
 21
-81.701567972316525
 31
0.0
  0
CIRCLE
  5
9F6F
  8
01
 10
-204.5425535442379
 20
-74.965474881282262
 30
0.0
 40
2.25
210
0.0
220
0.0
230
-1.0
  0
CIRCLE
  5
9F70
  8
01
 10
-234.54255354423779
 20
-74.965474881282262
 30
0.0
 40
2.25
210
0.0
220
0.0
230
-1.0
  0
LINE
  5
9F74
  8
01
 10
-33.544732595329997
 20
-74.965474881282262
 30
0.0
 11
672.98862854190008
 21
-74.965474881282262
 31
0.0
  0
LINE
  5
9F75
  8
01
 10
604.54255354425231
 20
-81.701567972316525
 30
0.0
 11
604.54255354425231
 21
-67.118987372231231
 31
0.0
  0
LINE
  5
9F76
  8
01
 10
434.5425535442414
 20
-81.701567972316525
 30
0.0
 11
434.5425535442414
 21
-67.118987372231231
 31
0.0
  0
LINE
  5
9F77
  8
01
 10
404.5425535442414
 20
-81.709484489619399
 30
0.0
 11
404.5425535442414
 21
-67.126903889534105
 31
0.0
  0
LINE
  5
9F78
  8
01
 10
234.54255354423779
 20
-81.701567972316525
 30
0.0
 11
234.54255354423779
 21
-67.118987372231231
 31
0.0
  0
LINE
  5
9F7A
  8
01
 10
780.34254854424523
 20
-25.565194960425291
 30
0.0
 11
780.34254854424523
 21
-125.5651949604252
 31
0.0
  0
LINE
  5
9F7B
  8
01
 10
768.84254854424523
 20
-53.066317968109608
 30
0.0
 11
768.84254854424523
 21
-102.065474881283
 31
0.0
  0
LINE
  5
9F7C
  8
01
 10
789.34254854424535
 20
-25.565194960425291
 30
0.0
 11
789.34254854424523
 21
-125.5651949604252
 31
0.0
  0
LINE
  5
9F7D
  8
01
 10
798.34254854424523
 20
-25.565194960425291
 30
0.0
 11
798.34254854424535
 21
-125.5651949604253
 31
0.0
  0
LINE
  5
9F7E
  8
01
 10
669.54255354424504
 20
52.113280208954279
 30
0.0
 11
669.54255354424504
 21
57.613280208953938
 31
0.0
  0
LINE
  5
9F7F
  8
01
 10
659.54255354424504
 20
57.613280208953938
 30
0.0
 11
659.54255354424504
 21
63.613280208954272
 31
0.0
  0
LINE
  5
9F80
  8
01
 10
-30.457446455761701
 20
52.113280208954279
 30
0.0
 11
-30.457446455761701
 21
58.113280208954393
 31
0.0
  0
LINE
  5
9F81
  8
01
 10
-20.457446455761701
 20
58.113280208954393
 30
0.0
 11
-20.457446455761701
 21
63.613280208954272
 31
0.0
  0
LINE
  5
9F82
  8
01
 10
624.84255354425045
 20
51.613280208953931
 30
0.0
 11
614.24255354425043
 21
51.613280208953931
 31
0.0
  0
LINE
  5
9F83
  8
01
 10
669.54255354424504
 20
57.613280208953938
 30
0.0
 11
624.84255354424465
 21
57.613280208953938
 31
0.0
  0
LINE
  5
9F84
  8
01
 10
423.7995622473855
 20
51.613280208953817
 30
0.0
 11
415.2855448411047
 21
51.613280208954052
 31
0.0
  0
ARC
  5
9F85
  8
01
 10
415.2855448411047
 20
52.613280208954052
 30
0.0
 40
1.0
 50
177.58897027331059
 51
269.99999999999841
  0
LINE
  5
9F86
  8
01
 10
223.79956224737879
 20
51.613280208953931
 30
0.0
 11
215.2855448410979
 21
51.613280208953931
 31
0.0
  0
ARC
  5
9F87
  8
01
 10
215.2855448410979
 20
52.613280208953938
 30
0.0
 40
1.0
 50
177.58897027331059
 51
270.0
  0
LINE
  5
9F88
  8
01
 10
613.74255354425338
 20
61.113280287535297
 30
0.0
 11
425.34255354424471
 21
61.113280287535297
 31
0.0
  0
LINE
  5
9F89
  8
01
 10
413.74255354424542
 20
61.113280287535183
 30
0.0
 11
225.342553544238
 21
61.113280287535417
 31
0.0
  0
LINE
  5
9F8A
  8
01
 10
625.34255354424465
 20
52.113280208954279
 30
0.0
 11
625.34255354424465
 21
57.613280208953938
 31
0.0
  0
LINE
  5
9F8B
  8
01
 10
624.84255354424465
 20
57.613280208953938
 30
0.0
 11
624.84255354424465
 21
63.613280208954272
 31
0.0
  0
LINE
  5
9F8C
  8
01
 10
613.7425535442535
 20
52.1132802089544
 30
0.0
 11
613.74255354425316
 21
61.113280287535297
 31
0.0
  0
LINE
  5
9F8D
  8
01
 10
425.34255354424471
 20
52.1132802089544
 30
0.0
 11
425.34255354424471
 21
61.113280287535297
 31
0.0
  0
LINE
  5
9F8E
  8
01
 10
413.74255354424542
 20
52.113280208954279
 30
0.0
 11
413.74255354424542
 21
61.113280287535183
 31
0.0
  0
LINE
  5
9F8F
  8
01
 10
225.342553544238
 20
52.1132802089544
 30
0.0
 11
225.342553544238
 21
61.113280287535417
 31
0.0
  0
LINE
  5
9F90
  8
01
 10
13.74255354423857
 20
52.113280208954279
 30
0.0
 11
13.74255354423857
 21
58.113280208954279
 31
0.0
  0
LINE
  5
9F91
  8
01
 10
14.24255354423857
 20
58.113280208954158
 30
0.0
 11
14.24255354423857
 21
63.613280208954272
 31
0.0
  0
LINE
  5
9F92
  8
01
 10
659.54255354424504
 20
63.613280208954272
 30
0.0
 11
-20.457446455761669
 21
63.613280208954272
 31
0.0
  0
LINE
  5
9F93
  8
01
 10
669.54255354424504
 20
52.113280208954279
 30
0.0
 11
625.34255354424465
 21
52.113280208954279
 31
0.0
  0
LINE
  5
9F94
  8
01
 10
613.7425535442535
 20
52.1132802089544
 30
0.0
 11
425.34255354424471
 21
52.1132802089544
 31
0.0
  0
LINE
  5
9F95
  8
01
 10
613.74255354425316
 20
58.113280208954393
 30
0.0
 11
425.34255354424471
 21
58.113280208954507
 31
0.0
  0
LINE
  5
9F96
  8
01
 10
413.74255354424542
 20
52.113280208954279
 30
0.0
 11
225.342553544238
 21
52.1132802089544
 31
0.0
  0
LINE
  5
9F97
  8
01
 10
413.74255354424542
 20
58.113280208954158
 30
0.0
 11
225.342553544238
 21
58.113280208954279
 31
0.0
  0
LINE
  5
9F98
  8
01
 10
13.74255354423857
 20
52.113280208954279
 30
0.0
 11
-30.457446455761701
 21
52.113280208954279
 31
0.0
  0
LINE
  5
9F99
  8
01
 10
14.24255354423857
 20
58.113280208954158
 30
0.0
 11
-30.457446455761701
 21
58.113280208954393
 31
0.0
  0
LINE
  5
9F9A
  8
01
 10
614.24255354425009
 20
61.113280287535183
 30
0.0
 11
624.84255354424465
 21
61.113280287535417
 31
0.0
  0
LINE
  5
9F9B
  8
01
 10
423.48377277300472
 20
61.113280287535183
 30
0.0
 11
415.60133431548542
 21
61.113280287535297
 31
0.0
  0
ARC
  5
9F9C
  8
01
 10
415.60133431548542
 20
60.113280287535297
 30
0.0
 40
1.0
 50
89.999999999998366
 51
177.58897027331059
  0
LINE
  5
9F9D
  8
01
 10
215.6013343154786
 20
61.113280287535531
 30
0.0
 11
223.48377277299801
 21
61.113280287535183
 31
0.0
  0
ARC
  5
9F9E
  8
01
 10
215.6013343154786
 20
60.113280287535531
 30
0.0
 40
1.0
 50
89.999999999996746
 51
177.58897027331059
  0
LINE
  5
9F9F
  8
01
 10
414.28643009079332
 20
52.655348198092838
 30
0.0
 11
414.60221956517398
 21
60.155348276674083
 31
0.0
  0
LINE
  5
9FA0
  8
01
 10
424.79867699769687
 20
52.655348198092717
 30
0.0
 11
424.48288752331598
 21
60.155348276673983
 31
0.0
  0
ARC
  5
9FA1
  8
01
 10
423.48377277300472
 20
60.11328028753519
 30
0.0
 40
1.0
 50
2.411029726689395
 51
89.999999999998366
  0
ARC
  5
9FA2
  8
01
 10
423.7995622473855
 20
52.613280208953938
 30
0.0
 40
1.0
 50
269.99999999999841
 51
2.411029726689395
  0
LINE
  5
9FA3
  8
01
 10
214.2864300907865
 20
52.655348198092717
 30
0.0
 11
214.60221956516719
 21
60.155348276674317
 31
0.0
  0
LINE
  5
9FA4
  8
01
 10
224.79867699769019
 20
52.655348198092717
 30
0.0
 11
224.48288752330939
 21
60.155348276674083
 31
0.0
  0
ARC
  5
9FA5
  8
01
 10
223.48377277299801
 20
60.113280287535297
 30
0.0
 40
1.0
 50
2.411029726689395
 51
89.999999999998366
  0
ARC
  5
9FA6
  8
01
 10
223.79956224737879
 20
52.613280208953938
 30
0.0
 40
1.0
 50
270.0
 51
2.411029726689395
  0
LINE
  5
9FA7
  8
01
 10
623.84255354425181
 20
11.613280287534851
 30
0.0
 11
615.24255354425179
 21
11.61328028753473
 31
0.0
  0
ARC
  5
9FA8
  8
01
 10
615.24255354425179
 20
12.61328028753473
 30
0.0
 40
1.0
 50
180.0
 51
270.0
  0
LINE
  5
9FA9
  8
01
 10
623.84255354425181
 20
15.113280287534851
 30
0.0
 11
615.24255354425179
 21
15.113280287534961
 31
0.0
  0
ARC
  5
9FAA
  8
01
 10
615.24255354425179
 20
14.113280287534961
 30
0.0
 40
1.0
 50
90.0
 51
180.0
  0
LINE
  5
9FAB
  8
01
 10
624.84255354424999
 20
61.113280287535297
 30
0.0
 11
624.8425535442517
 21
12.613280287534851
 31
0.0
  0
ARC
  5
9FAC
  8
01
 10
623.84255354425181
 20
12.613280287534851
 30
0.0
 40
1.0
 50
270.0
 51
0.0
  0
ARC
  5
9FAD
  8
01
 10
623.84255354425181
 20
14.113280287534851
 30
0.0
 40
1.0
 50
0.0
 51
90.0
  0
LINE
  5
9FAE
  8
01
 10
614.24255354425009
 20
61.113280287535183
 30
0.0
 11
614.2425535442519
 21
12.61328028753473
 31
0.0
  0
LINE
  5
9FAF
  8
01
 10
621.29255354425186
 20
56.363280208953817
 30
0.0
 11
621.29255354425186
 21
51.613280208953931
 31
0.0
  0
LINE
  5
9FB0
  8
01
 10
617.79255354425175
 20
56.363280208953817
 30
0.0
 11
617.79255354425175
 21
51.613280208953931
 31
0.0
  0
LINE
  5
9FB1
  8
01
 10
621.29255354425186
 20
53.51328028753494
 30
0.0
 11
617.79255354425175
 21
53.51328028753494
 31
0.0
  0
LINE
  5
9FB2
  8
01
 10
621.29255354425186
 20
54.022127932324899
 30
0.0
 11
617.79255354425175
 21
54.022127932324899
 31
0.0
  0
LINE
  5
9FB3
  8
01
 10
624.84255354425022
 20
56.363280208953817
 30
0.0
 11
614.2425535442502
 21
56.363280208953817
 31
0.0
  0
LINE
  5
9FB6
  8
01
 10
769.34254854424466
 20
-103.1657548807239
 30
0.0
 11
774.94254862282571
 21
-103.16575488072409
 31
0.0
  0
LINE
  5
9FB7
  8
01
 10
774.34254854424489
 20
-99.865754880723841
 30
0.0
 11
780.34254854424523
 21
-99.865754880723884
 31
0.0
  0
ARC
  5
9FB8
  8
01
 10
769.34254854424466
 20
-52.96659796754966
 30
0.0
 40
1.0
 50
90.0
 51
180.0
  0
LINE
  5
9FB9
  8
01
 10
776.84315368705472
 20
-51.96659796754966
 30
0.0
 11
769.34254854424466
 21
-51.96659796754966
 31
0.0
  0
LINE
  5
9FBA
  8
01
 10
774.34254854424489
 20
-55.266597967549608
 30
0.0
 11
780.34254854424523
 21
-55.266597967549608
 31
0.0
  0
ARC
  5
9FBB
  8
01
 10
769.34254854424466
 20
-102.1657548807239
 30
0.0
 40
1.0
 50
180.0
 51
270.0
  0
LINE
  5
9FBC
  8
01
 10
768.34254854424489
 20
-52.96659796754966
 30
0.0
 11
768.34254854424466
 21
-102.1657548807239
 31
0.0
  0
LINE
  5
9FBD
  8
01
 10
774.34254854424501
 20
-53.066317968109608
 30
0.0
 11
774.34254854424478
 21
-102.0654748812829
 31
0.0
  0
ARC
  5
9FBE
  8
01
 10
773.84254854424478
 20
-102.0654748812829
 30
0.0
 40
0.5
 50
270.0
 51
0.0
  0
ARC
  5
9FBF
  8
01
 10
773.84254854424501
 20
-53.066317968109608
 30
0.0
 40
0.5
 50
0.0
 51
90.0
  0
LINE
  5
9FC0
  8
01
 10
777.84315368705472
 20
-52.96659796754966
 30
0.0
 11
777.84315368705495
 21
-53.96659796755057
 31
0.0
  0
ARC
  5
9FC1
  8
01
 10
776.84315368705472
 20
-52.96659796754966
 30
0.0
 40
1.0
 50
0.0
 51
90.0
  0
LINE
  5
9FC2
  8
01
 10
774.94254862282571
 20
-103.16575488072409
 30
0.0
 11
774.94254862282571
 21
-102.0907549097217
 31
0.0
  0
ARC
  5
9FC3
  8
01
 10
776.84254862282535
 20
-54.465754959303013
 30
0.0
 40
1.0
 50
306.78932071627639
 51
359.99999999997402
  0
LINE
  5
9FC4
  8
01
 10
777.84254862282535
 20
-54.465754959303013
 30
0.0
 11
777.84254862282614
 21
-52.965754959303013
 31
0.0
  0
ARC
  5
9FC5
  8
01
 10
776.84254862282614
 20
-52.965754959303013
 30
0.0
 40
1.0
 50
0.0
 51
90.0
  0
LINE
  5
9FC6
  8
01
 10
778.04254854424551
 20
-54.565754880723489
 30
0.0
 11
777.83753606782955
 21
-54.565754880723489
 31
0.0
  0
LINE
  5
9FC7
  8
01
 10
778.54254854424551
 20
-55.065754880723489
 30
0.0
 11
778.54254854424551
 21
-55.266597967549608
 31
0.0
  0
ARC
  5
9FC8
  8
01
 10
778.04254854424551
 20
-55.065754880723489
 30
0.0
 40
0.5
 50
0.0
 51
89.999999999986969
  0
LINE
  5
9FC9
  8
01
 10
769.34254854424523
 20
-52.566317968109608
 30
0.0
 11
773.84254854424501
 21
-52.566317968109608
 31
0.0
  0
ARC
  5
9FCA
  8
01
 10
769.34254854424523
 20
-53.066317968109608
 30
0.0
 40
0.5
 50
90.0
 51
180.0
  0
LINE
  5
9FCB
  8
01
 10
769.34254854424523
 20
-102.565474881283
 30
0.0
 11
773.84254854424478
 21
-102.5654748812829
 31
0.0
  0
ARC
  5
9FCC
  8
01
 10
769.34254854424523
 20
-102.065474881283
 30
0.0
 40
0.5
 50
180.0
 51
270.0
  0
LINE
  5
9FCD
  8
01
 10
774.34190905534774
 20
-102.0907549097217
 30
0.0
 11
774.94254862282571
 21
-102.0907549097217
 31
0.0
  0
LINE
  5
9FCE
  8
01
 10
225.342553544238
 20
-52.565474881280807
 30
0.0
 11
225.342553544238
 21
-102.56547488128081
 31
0.0
  0
LINE
  5
9FCF
  8
01
 10
413.74255354424531
 20
-52.565474881280807
 30
0.0
 11
413.7425535442448
 21
-102.56547488128081
 31
0.0
  0
LINE
  5
9FD0
  8
01
 10
425.34255354424482
 20
-52.566317968109161
 30
0.0
 11
425.34255354424482
 21
-102.5663179681091
 31
0.0
  0
LINE
  5
9FD1
  8
01
 10
613.74255354425316
 20
-52.566317968109161
 30
0.0
 11
613.74255354425225
 21
-102.5663179681091
 31
0.0
  0
LINE
  5
A0A4
  8
01
 10
24.842553701591982
 20
-53.765474881280618
 30
0.0
 11
24.842553701591982
 21
-101.36547488128041
 31
0.0
  0
LINE
  5
A0A5
  8
01
 10
214.2425533868776
 20
-53.765474881280618
 30
0.0
 11
213.74255354423849
 21
-53.765474881280618
 31
0.0
  0
LINE
  5
A0A6
  8
01
 10
214.2425533868776
 20
-101.36547488128051
 30
0.0
 11
213.74255354423849
 21
-101.36547488128051
 31
0.0
  0
LINE
  5
A0A7
  8
01
 10
24.842553701591982
 20
-53.765474881280618
 30
0.0
 11
25.342553544231212
 21
-53.765474881280618
 31
0.0
  0
LINE
  5
A0A8
  8
01
 10
24.842553701591982
 20
-101.36547488128041
 30
0.0
 11
25.342553544231212
 21
-101.36547488128051
 31
0.0
  0
LINE
  5
A0A9
  8
01
 10
213.74255354423849
 20
-52.565474881280807
 30
0.0
 11
25.342553544231212
 21
-52.565474881280807
 31
0.0
  0
LINE
  5
A0AA
  8
01
 10
213.74255354423809
 20
-102.56547488128081
 30
0.0
 11
25.342553544231212
 21
-102.56547488128081
 31
0.0
  0
LINE
  5
A0AB
  8
01
 10
14.24255354423101
 20
-102.6736713980217
 30
0.0
 11
14.24255354423101
 21
-52.474514484848441
 31
0.0
  0
ARC
  5
A0AC
  8
01
 10
14.74255354423056
 20
-52.474514484848441
 30
0.0
 40
0.5
 50
90.0
 51
180.0
  0
LINE
  5
A0AD
  8
01
 10
24.8425535442315
 20
-102.6736713980217
 30
0.0
 11
24.8425535442315
 21
-52.474514484848441
 31
0.0
  0
ARC
  5
A0AE
  8
01
 10
24.342553544231041
 20
-52.474514484848441
 30
0.0
 40
0.5
 50
0.0
 51
90.0
  0
LINE
  5
A0AF
  8
01
 10
14.74255354423101
 20
-103.1736713980217
 30
0.0
 11
24.342553544231489
 21
-103.1736713980217
 31
0.0
  0
ARC
  5
A0B0
  8
01
 10
24.342553544231489
 20
-102.6736713980217
 30
0.0
 40
0.5
 50
270.0
 51
0.0
  0
ARC
  5
A0B1
  8
01
 10
14.74255354423101
 20
-102.6736713980217
 30
0.0
 40
0.5
 50
180.0
 51
270.0
  0
LINE
  5
A0B2
  8
01
 10
14.74255354423056
 20
-51.974514484848441
 30
0.0
 11
24.342553544231041
 21
-51.974514484848441
 31
0.0
  0
LINE
  5
A0B3
  8
01
 10
19.542553544231481
 20
-50.498133997852619
 30
0.0
 11
19.542553544231481
 21
-104.3333451966123
 31
0.0
  0
LINE
  5
A0B4
  8
01
 10
4.5425535442310263
 20
-67.843452097832142
 30
0.0
 11
4.5425535442310263
 21
-81.701567972316525
 31
0.0
  0
CIRCLE
  5
A0B5
  8
01
 10
-4.5425535442310263
 20
-74.965474881282262
 30
0.0
 40
2.25
210
0.0
220
0.0
230
-1.0
  0
CIRCLE
  5
A0B6
  8
01
 10
-34.542553544231033
 20
-74.965474881282262
 30
0.0
 40
2.25
210
0.0
220
0.0
230
-1.0
  0
LINE
  5
A0B7
  8
01
 10
34.542553544231033
 20
-81.701567972316525
 30
0.0
 11
34.542553544231033
 21
-67.118987372231231
 31
0.0
  0
LINE
  5
A0B8
  8
01
 10
25.342553544231212
 20
-52.565474881280807
 30
0.0
 11
25.342553544231212
 21
-102.56547488128081
 31
0.0
  0
LINE
  5
A0B9
  8
01
 10
213.74255354423849
 20
-52.565474881280807
 30
0.0
 11
213.74255354423809
 21
-102.56547488128081
 31
0.0
  0
LINE
  5
A0D9
  8
01
 10
23.799562247371941
 20
51.613280208953931
 30
0.0
 11
15.285544841091079
 21
51.613280208953931
 31
0.0
  0
ARC
  5
A0DA
  8
01
 10
15.285544841091079
 20
52.613280208953938
 30
0.0
 40
1.0
 50
177.58897027331059
 51
270.0
  0
LINE
  5
A0DB
  8
01
 10
213.7425535442386
 20
61.113280287535183
 30
0.0
 11
25.342553544231212
 21
61.113280287535417
 31
0.0
  0
LINE
  5
A0DC
  8
01
 10
213.7425535442386
 20
52.113280208954279
 30
0.0
 11
213.7425535442386
 21
61.113280287535183
 31
0.0
  0
LINE
  5
A0DD
  8
01
 10
25.342553544231212
 20
52.1132802089544
 30
0.0
 11
25.342553544231212
 21
61.113280287535417
 31
0.0
  0
LINE
  5
A0DE
  8
01
 10
213.7425535442386
 20
52.113280208954279
 30
0.0
 11
25.342553544231212
 21
52.1132802089544
 31
0.0
  0
LINE
  5
A0DF
  8
01
 10
213.7425535442386
 20
58.113280208954158
 30
0.0
 11
25.342553544231212
 21
58.113280208954279
 31
0.0
  0
LINE
  5
A0E0
  8
01
 10
15.60133431547183
 20
61.113280287535531
 30
0.0
 11
23.483772772991159
 21
61.113280287535183
 31
0.0
  0
ARC
  5
A0E1
  8
01
 10
15.601334315471799
 20
60.113280287535531
 30
0.0
 40
1.0
 50
89.999999999996746
 51
177.58897027331059
  0
LINE
  5
A0E2
  8
01
 10
14.286430090779669
 20
52.655348198092717
 30
0.0
 11
14.602219565160389
 21
60.155348276674317
 31
0.0
  0
LINE
  5
A0E3
  8
01
 10
24.798676997683341
 20
52.655348198092717
 30
0.0
 11
24.482887523302541
 21
60.155348276674083
 31
0.0
  0
ARC
  5
A0E4
  8
01
 10
23.483772772991131
 20
60.113280287535297
 30
0.0
 40
1.0
 50
2.4110297266893892
 51
89.999999999998366
  0
ARC
  5
A0E5
  8
01
 10
23.799562247371941
 20
52.613280208953938
 30
0.0
 40
1.0
 50
270.0
 51
2.4110297266893892
  0
TEXT
  5
A3B4
  8
01
 10
-15.77514169533821
 20
117.648937047316
 30
0.0
 40
4.0
  1
表面処理：
 72
     1
 11
-5.12752264771916
 21
117.648937047316
 31
0.0
  0
TEXT
  5
A3B5
  8
01
 10
-14.194189314385831
 20
110.8136483877916
 30
0.0
 40
4.0
  1
シルバー
 72
     1
 11
-5.12752264771916
 21
110.8136483877916
 31
0.0
  0
LINE
  5
A3B6
  8
01
 10
-22.527522647719248
 20
123.148937047316
 30
0.0
 11
47.472477352280741
 21
123.148937047316
 31
0.0
  0
LINE
  5
A3B7
  8
01
 10
-22.527522647719248
 20
109.148937047316
 30
0.0
 11
47.472477352280741
 21
109.148937047316
 31
0.0
  0
LINE
  5
A3B8
  8
01
 10
-22.527522647719248
 20
116.148937047316
 30
0.0
 11
47.472477352280741
 21
116.148937047316
 31
0.0
  0
LINE
  5
A3B9
  8
01
 10
12.47247735228075
 20
123.148937047316
 30
0.0
 11
12.47247735228046
 21
102.148937047316
 31
0.0
  0
TEXT
  5
A3BA
  8
01
 10
16.63438211418605
 20
110.4345800636666
 30
0.0
 40
4.0
  1
AC823BC
 72
     1
 11
29.87247735228129
 21
110.4345800636666
 31
0.0
  0
TEXT
  5
A3BB
  8
01
 10
23.072477352280838
 20
117.648937047316
 30
0.0
 40
4.0
  1
コード
 72
     1
 11
29.872477352280839
 21
117.648937047316
 31
0.0
  0
LINE
  5
A3BC
  8
01
 10
-22.527522647719419
 20
102.148937047316
 30
0.0
 11
-22.527522647719248
 21
123.148937047316
 31
0.0
  0
LINE
  5
A3BD
  8
01
 10
47.472477352280571
 20
102.148937047316
 30
0.0
 11
47.472477352280741
 21
123.148937047316
 31
0.0
  0
TEXT
  5
A3BE
  8
01
 10
-22.527522647719248
 20
128.148937047316
 30
0.0
 40
8.0
  1
AC-823
  0
TEXT
  5
A3BF
  8
01
 10
-14.060855981052599
 20
103.8136483877916
 30
0.0
 40
4.0
  1
ホワイト
 72
     1
 11
-5.1275226477192737
 21
103.8136483877916
 31
0.0
  0
LINE
  5
A3C0
  8
01
 10
-22.527522647719358
 20
102.148937047316
 30
0.0
 11
47.472477352280627
 21
102.148937047316
 31
0.0
  0
TEXT
  5
A3C1
  8
01
 10
16.729620209424041
 20
103.4345800636666
 30
0.0
 40
4.0
  1
AC823SC
 72
     1
 11
29.87247735228118
 21
103.4345800636666
 31
0.0
  0
TEXT
  5
A4D4
  8
01
 10
68.596659771458917
 20
-111.6600283233153
 30
0.0
 40
7.0
  1
材質：アルミ
  0
TEXT
  5
A4D5
  8
01
 10
68.596659771458917
 20
-123.326694989982
 30
0.0
 40
7.0
  1
仕上：各種仕上
  0
LINE
  5
A4D8
  8
01
 10
219.5425535442383
 20
-50.498133997852619
 30
0.0
 11
219.5425535442383
 21
-41.655153948360287
 31
0.0
  0
LINE
  5
A4D9
  8
01
 10
19.542553544231481
 20
-50.498133997852619
 30
0.0
 11
19.542553544231481
 21
-41.655153948360287
 31
0.0
  0
LINE
  5
A4DA
  8
01
 10
215.5425535442383
 20
-43.655153948360287
 30
0.0
 11
23.542553544231481
 21
-43.655153948360287
 31
0.0
  0
LINE
  5
A4DE
  8
01
 10
624.54255354425175
 20
11.613280287534851
 30
0.0
 11
710.92627511769024
 21
11.61328028753482
 31
0.0
  0
LINE
  5
A4DF
  8
01
 10
659.54255354424504
 20
63.613280208954272
 30
0.0
 11
710.92627511769024
 21
63.613280208954272
 31
0.0
  0
LINE
  5
A4E0
  8
01
 10
708.92627511769024
 20
15.61328028753482
 30
0.0
 11
708.92627511769024
 21
59.613280208954272
 31
0.0
  0
LINE
  5
A4E4
  8
01
 10
669.04255354424504
 20
-52.566317968109608
 30
0.0
 11
689.07907558793204
 21
-52.566317968109622
 31
0.0
  0
LINE
  5
A4E5
  8
01
 10
672.98862854190008
 20
-74.965474881282262
 30
0.0
 11
689.07907558793204
 21
-74.965474881282262
 31
0.0
  0
LINE
  5
A4E6
  8
01
 10
687.07907558793204
 20
-70.965474881282262
 30
0.0
 11
687.07907558793204
 21
-56.566317968109622
 31
0.0
  0
LINE
  5
A4E7
  8
01
 10
687.07907558793204
 20
-52.566317968109608
 30
0.0
 11
687.07907558793204
 21
-24.099651301442929
 31
0.0
  0
LINE
  5
A4EB
  8
01
 10
768.34254854424466
 20
-102.1657548807239
 30
0.0
 11
768.34254854424466
 21
-135.51244800205109
 31
0.0
  0
LINE
  5
A4EC
  8
01
 10
780.34254854424523
 20
-90.065754880724
 30
0.0
 11
780.34254854424523
 21
-135.51244800205109
 31
0.0
  0
LINE
  5
A4ED
  8
01
 10
776.34254854424523
 20
-133.51244800205109
 30
0.0
 11
772.34254854424466
 21
-133.51244800205109
 31
0.0
  0
LINE
  5
A4EE
  8
01
 10
768.34254854424466
 20
-133.51244800205109
 30
0.0
 11
751.20921521091145
 21
-133.51244800205109
 31
0.0
  0
LINE
  5
A4F2
  8
01
 10
419.5425535442451
 20
-50.498133997852619
 30
0.0
 11
419.5425535442451
 21
-41.655153948360287
 31
0.0
  0
LINE
  5
A4F3
  8
01
 10
219.5425535442383
 20
-50.498133997852619
 30
0.0
 11
219.5425535442383
 21
-41.655153948360287
 31
0.0
  0
LINE
  5
A4F4
  8
01
 10
415.5425535442451
 20
-43.655153948360287
 30
0.0
 11
223.5425535442383
 21
-43.655153948360287
 31
0.0
  0
LINE
  5
A4F8
  8
01
 10
419.5425535442451
 20
-50.498133997852619
 30
0.0
 11
419.5425535442451
 21
-41.655153948360287
 31
0.0
  0
LINE
  5
A4F9
  8
01
 10
619.54259305936989
 20
-49.276913452742747
 30
0.0
 11
619.54259305936989
 21
-41.655153948360287
 31
0.0
  0
LINE
  5
A4FA
  8
01
 10
423.54255354424498
 20
-43.655153948360287
 30
0.0
 11
615.54259305936989
 21
-43.655153948360287
 31
0.0
  0
LINE
  5
A4FE
  8
01
 10
-30.457446455761701
 20
-53.066317968109608
 30
0.0
 11
-30.457446455761701
 21
-31.099551469591919
 31
0.0
  0
LINE
  5
A4FF
  8
01
 10
669.54255354424504
 20
-53.066317968109608
 30
0.0
 11
669.54255354424504
 21
-31.099551469591919
 31
0.0
  0
LINE
  5
A500
  8
01
 10
-26.457446455761701
 20
-33.099551469591923
 30
0.0
 11
665.54255354424504
 21
-33.099551469591923
 31
0.0
  0
LINE
  5
A505
  8
01
 10
811.79704624726355
 20
-74.965474959865332
 30
0.0
 11
773.96391319988868
 21
-74.965474959865332
 31
0.0
  0
LINE
  5
A506
  8
01
 10
803.1425535466027
 20
-73.465521495763255
 30
0.0
 11
803.24255470999992
 21
-72.965521495763255
 31
0.0
  0
LINE
  5
A507
  8
01
 10
803.24255470999992
 20
-72.965521495763255
 30
0.0
 11
804.0425454028225
 21
-76.965521495763255
 31
0.0
  0
LINE
  5
A508
  8
01
 10
804.0425454028225
 20
-76.965521495763255
 30
0.0
 11
804.14254656621972
 21
-76.465521495763255
 31
0.0
  0
LINE
  5
A509
  8
01
 10
801.54255354660268
 20
-73.465521495763255
 30
0.0
 11
801.64255470999967
 21
-72.965521495763255
 31
0.0
  0
LINE
  5
A50A
  8
01
 10
802.44254540282225
 20
-76.965521495763255
 30
0.0
 11
802.54254656621947
 21
-76.465521495763255
 31
0.0
  0
LINE
  5
A50B
  8
01
 10
801.64255470999967
 20
-72.965521495763255
 30
0.0
 11
802.44254540282225
 21
-76.965521495763255
 31
0.0
  0
LINE
  5
A50C
  8
01
 10
799.94255354660265
 20
-73.465521495763255
 30
0.0
 11
800.04255470999976
 21
-72.965521495763255
 31
0.0
  0
LINE
  5
A50D
  8
01
 10
800.04255470999976
 20
-72.965521495763255
 30
0.0
 11
800.84254540282234
 21
-76.965521495763255
 31
0.0
  0
LINE
  5
A50E
  8
01
 10
800.84254540282234
 20
-76.965521495763255
 30
0.0
 11
800.94254656621945
 21
-76.465521495763255
 31
0.0
  0
LINE
  5
A50F
  8
01
 10
791.94255354660254
 20
-73.465521495763255
 30
0.0
 11
792.04255470999965
 21
-72.965521495763255
 31
0.0
  0
LINE
  5
A510
  8
01
 10
792.84254540282222
 20
-76.965521495763255
 30
0.0
 11
792.94254656621956
 21
-76.465521495763255
 31
0.0
  0
LINE
  5
A511
  8
01
 10
794.44254540282225
 20
-76.965521495763255
 30
0.0
 11
794.54254656621947
 21
-76.465521495763255
 31
0.0
  0
LINE
  5
A512
  8
01
 10
793.54255354660256
 20
-73.465521495763255
 30
0.0
 11
793.64255470999979
 21
-72.965521495763255
 31
0.0
  0
LINE
  5
A513
  8
01
 10
795.14255354660247
 20
-73.465521495763255
 30
0.0
 11
795.24255470999969
 21
-72.965521495763255
 31
0.0
  0
LINE
  5
A514
  8
01
 10
793.64255470999979
 20
-72.965521495763255
 30
0.0
 11
794.44254540282225
 21
-76.965521495763255
 31
0.0
  0
LINE
  5
A515
  8
01
 10
792.04255470999965
 20
-72.965521495763255
 30
0.0
 11
792.84254540282222
 21
-76.965521495763255
 31
0.0
  0
LINE
  5
A516
  8
01
 10
796.74255354660238
 20
-73.465521495763255
 30
0.0
 11
796.84255470999983
 21
-72.965521495763255
 31
0.0
  0
LINE
  5
A517
  8
01
 10
804.94255354660243
 20
-73.465521495763255
 30
0.0
 11
805.04255470999965
 21
-72.965521495763255
 31
0.0
  0
LINE
  5
A518
  8
01
 10
805.04255470999965
 20
-72.965521495763255
 30
0.0
 11
805.84254592962498
 21
-76.739114443559288
 31
0.0
  0
LINE
  5
A519
  8
01
 10
805.84254592962498
 20
-76.739114443559288
 30
0.0
 11
805.97181662725473
 21
-76.202520708288148
 31
0.0
  0
LINE
  5
A51A
  8
01
 10
797.64254540282241
 20
-76.965521495763255
 30
0.0
 11
797.74254656621929
 21
-76.465521495763255
 31
0.0
  0
LINE
  5
A51B
  8
01
 10
799.2425454028222
 20
-76.965521495763255
 30
0.0
 11
799.34254656621943
 21
-76.465521495763255
 31
0.0
  0
LINE
  5
A51C
  8
01
 10
798.34255354660263
 20
-73.465521495763255
 30
0.0
 11
798.44255470999974
 21
-72.965521495763255
 31
0.0
  0
LINE
  5
A51D
  8
01
 10
798.44255470999974
 20
-72.965521495763255
 30
0.0
 11
799.2425454028222
 21
-76.965521495763255
 31
0.0
  0
LINE
  5
A51E
  8
01
 10
796.84255470999983
 20
-72.965521495763255
 30
0.0
 11
797.64254540282241
 21
-76.965521495763255
 31
0.0
  0
LINE
  5
A51F
  8
01
 10
806.6425536563894
 20
-73.418337637821992
 30
0.0
 11
807.44254698323061
 21
-76.28630033915249
 31
0.0
  0
LINE
  5
A520
  8
01
 10
808.24255260278528
 20
-73.871151145870272
 30
0.0
 11
809.04254803683625
 21
-75.833486234745692
 31
0.0
  0
LINE
  5
A521
  8
01
 10
807.44254698323061
 20
-76.28630033915249
 30
0.0
 11
807.6253111258585
 21
-75.734550875349214
 31
0.0
  0
LINE
  5
A522
  8
01
 10
808.09111680634476
 20
-74.328322986501348
 30
0.0
 11
808.24255260278528
 21
-73.871151145870272
 31
0.0
  0
LINE
  5
A523
  8
01
 10
809.04254803683625
 20
-75.833486234745692
 30
0.0
 11
809.35431789308825
 21
-75.245209659703278
 31
0.0
  0
LINE
  5
A524
  8
01
 10
806.52978414403935
 20
-73.886436092971962
 30
0.0
 11
806.6425536563894
 21
-73.418337637821992
 31
0.0
  0
LINE
  5
A525
  8
01
 10
796.04254540282216
 20
-76.965521495763255
 30
0.0
 11
796.14254656621961
 21
-76.465521495763255
 31
0.0
  0
LINE
  5
A526
  8
01
 10
795.24255470999969
 20
-72.965521495763255
 30
0.0
 11
796.04254540282216
 21
-76.965521495763255
 31
0.0
  0
LINE
  5
A527
  8
01
 10
778.3425465662026
 20
-76.465521495763255
 30
0.0
 11
778.44254540280485
 21
-76.965521495763255
 31
0.0
  0
LINE
  5
A528
  8
01
 10
779.24255470999105
 20
-72.965521495763255
 30
0.0
 11
780.04254540280931
 21
-76.965521495763255
 31
0.0
  0
LINE
  5
A529
  8
01
 10
782.44255470999099
 20
-72.965521495763255
 30
0.0
 11
783.24254540280936
 21
-76.965521495763255
 31
0.0
  0
LINE
  5
A52A
  8
01
 10
783.24254540280936
 20
-76.965521495763255
 30
0.0
 11
783.34254656620681
 21
-76.465521495763255
 31
0.0
  0
LINE
  5
A52B
  8
01
 10
780.04254540280931
 20
-76.965521495763255
 30
0.0
 11
780.14254656620676
 21
-76.465521495763255
 31
0.0
  0
LINE
  5
A52C
  8
01
 10
780.74255354659317
 20
-73.465521495763255
 30
0.0
 11
780.84255470999085
 21
-72.965521495763255
 31
0.0
  0
LINE
  5
A52D
  8
01
 10
781.64254540280922
 20
-76.965521495763255
 30
0.0
 11
781.74254656620678
 21
-76.465521495763255
 31
0.0
  0
LINE
  5
A52E
  8
01
 10
780.84255470999085
 20
-72.965521495763255
 30
0.0
 11
781.64254540280922
 21
-76.965521495763255
 31
0.0
  0
LINE
  5
A52F
  8
01
 10
782.34255354659331
 20
-73.465521495763255
 30
0.0
 11
782.44255470999099
 21
-72.965521495763255
 31
0.0
  0
LINE
  5
A530
  8
01
 10
778.44254540280485
 20
-76.965521495763255
 30
0.0
 11
778.54254656620265
 21
-76.465521495763255
 31
0.0
  0
LINE
  5
A531
  8
01
 10
779.14255354659326
 20
-73.465521495763255
 30
0.0
 11
779.24255470999105
 21
-72.965521495763255
 31
0.0
  0
LINE
  5
A532
  8
01
 10
775.64255936380619
 20
-70.965474959865332
 30
0.0
 11
775.64254074944699
 21
-78.965474959865332
 31
0.0
  0
LINE
  5
A533
  8
01
 10
783.94255354659765
 20
-73.465521495763255
 30
0.0
 11
784.04255470999533
 21
-72.965521495763255
 31
0.0
  0
LINE
  5
A534
  8
01
 10
785.54255354660199
 20
-73.465521495763255
 30
0.0
 11
785.64255470999967
 21
-72.965521495763255
 31
0.0
  0
LINE
  5
A535
  8
01
 10
784.84254540281347
 20
-76.965521495763255
 30
0.0
 11
784.94254656621138
 21
-76.465521495763255
 31
0.0
  0
LINE
  5
A536
  8
01
 10
788.74255354660204
 20
-73.465521495763255
 30
0.0
 11
788.84255470999983
 21
-72.965521495763255
 31
0.0
  0
LINE
  5
A537
  8
01
 10
787.24255470999969
 20
-72.965521495763255
 30
0.0
 11
788.04254540281795
 21
-76.965521495763255
 31
0.0
  0
LINE
  5
A538
  8
01
 10
788.04254540281795
 20
-76.965521495763255
 30
0.0
 11
788.14254656621551
 21
-76.465521495763255
 31
0.0
  0
LINE
  5
A539
  8
01
 10
787.1425535466019
 20
-73.465521495763255
 30
0.0
 11
787.24255470999969
 21
-72.965521495763255
 31
0.0
  0
LINE
  5
A53A
  8
01
 10
786.44254540281804
 20
-76.965521495763255
 30
0.0
 11
786.54254656621561
 21
-76.465521495763255
 31
0.0
  0
LINE
  5
A53B
  8
01
 10
791.24254540282232
 20
-76.965521495763255
 30
0.0
 11
791.34254656621943
 21
-76.465521495763255
 31
0.0
  0
LINE
  5
A53C
  8
01
 10
789.64254540281809
 20
-76.965521495763255
 30
0.0
 11
789.74254656621565
 21
-76.465521495763255
 31
0.0
  0
LINE
  5
A53D
  8
01
 10
790.34255354660195
 20
-73.465521495763255
 30
0.0
 11
790.44255470999985
 21
-72.965521495763255
 31
0.0
  0
LINE
  5
A53E
  8
01
 10
790.44255470999985
 20
-72.965521495763255
 30
0.0
 11
791.24254540282232
 21
-76.965521495763255
 31
0.0
  0
LINE
  5
A53F
  8
01
 10
788.84255470999983
 20
-72.965521495763255
 30
0.0
 11
789.64254540281809
 21
-76.965521495763255
 31
0.0
  0
LINE
  5
A540
  8
01
 10
785.64255470999967
 20
-72.965521495763255
 30
0.0
 11
786.44254540281804
 21
-76.965521495763255
 31
0.0
  0
LINE
  5
A541
  8
01
 10
784.04255470999533
 20
-72.965521495763255
 30
0.0
 11
784.84254540281347
 21
-76.965521495763255
 31
0.0
  0
LINE
  5
A542
  8
01
 10
614.2425535442519
 20
-102.6657548807229
 30
0.0
 11
614.2425535442519
 21
-127.230596184145
 31
0.0
  0
LINE
  5
A543
  8
01
 10
624.84255354425193
 20
-102.6657548807229
 30
0.0
 11
624.84255354425193
 21
-127.230596184145
 31
0.0
  0
LINE
  5
A544
  8
01
 10
610.24255354425179
 20
-125.230596184145
 30
0.0
 11
606.24255354425179
 21
-125.230596184145
 31
0.0
  0
LINE
  5
A545
  8
01
 10
628.84255354425193
 20
-125.230596184145
 30
0.0
 11
655.97588687758525
 21
-125.230596184145
 31
0.0
  0
LINE
  5
A546
  8
01
 10
614.2425535442519
 20
-125.230596184145
 30
0.0
 11
624.84255354425193
 21
-125.230596184145
 31
0.0
  0
LINE
  5
A54A
  8
01
 10
669.04255354424515
 20
-52.566317968109608
 30
0.0
 11
710.92627511769024
 21
-52.566317968109622
 31
0.0
  0
LINE
  5
A54B
  8
01
 10
669.04255354424515
 20
-102.56547488128309
 30
0.0
 11
710.92627511769024
 21
-102.56547488128309
 31
0.0
  0
LINE
  5
A54C
  8
01
 10
708.92627511769024
 20
-56.566317968109622
 30
0.0
 11
708.92627511769024
 21
-98.565474881283095
 31
0.0
  0
LINE
  5
A550
  8
01
 10
-30.457446455772612
 20
-53.065474881282633
 30
0.0
 11
-30.457446455772612
 21
-41.655153948360287
 31
0.0
  0
LINE
  5
A551
  8
01
 10
19.542553544231481
 20
-50.498133997852619
 30
0.0
 11
19.542553544231481
 21
-41.655153948360287
 31
0.0
  0
LINE
  5
A552
  8
01
 10
-26.457446455772612
 20
-43.655153948360287
 30
0.0
 11
15.542553544231479
 21
-43.655153948360287
 31
0.0
  0
TEXT
  5
A556
  8
01
 10
812.34458072950679
 20
-9.4323980352605759
 30
0.0
 40
7.0
  1
合板9mm以上
  0
TEXT
  5
A559
  8
01
 10
807.60782877129293
 20
3.1246975283486331
 30
0.0
 40
7.0
  1
P.B
  0
TEXT
  5
A55C
  8
01
 10
646.72011085157999
 20
81.979045621272107
 30
0.0
 40
7.0
  1
材質：樹脂（グレー色）
  0
TEXT
  5
A55F
  8
01
 10
643.82987510854264
 20
95.633316556091472
 30
0.0
 40
7.0
  1
材質：アルミ
  0
TEXT
  5
A562
  8
01
 10
239.34464972780069
 20
-122.1670138308754
 30
0.0
 40
7.0
  1
材質：亜鉛ダイキャスト（クロームメッキ）
  0
LINE
  5
A565
  8
01
 10
222.74274859446069
 20
-106.51672496065849
 30
0.0
 11
233.94464972780071
 21
-123.5670138308755
 31
0.0
1001
ACAD
1000
DSTYLE
1002
{
1070
    40
1040
2.0
1002
}
  0
LINE
  5
A566
  8
01
 10
233.94464972780071
 20
-123.5670138308755
 30
0.0
 11
401.27798306113402
 21
-123.5670138308755
 31
0.0
1001
ACAD
1000
DSTYLE
1002
{
1070
    40
1040
2.0
1002
}
  0
LINE
  5
A567
  8
01
  6
BYBLOCK
 10
221.84698010022549
 20
-107.10523757690579
 30
0.0
 11
220.54638958980291
 21
-103.1736713980217
 31
0.0
  0
LINE
  5
A568
  8
01
  6
BYBLOCK
 10
220.54638958980291
 20
-103.1736713980217
 30
0.0
 11
223.63851708869589
 21
-105.92821234441119
 31
0.0
  0
LINE
  5
A569
  8
01
  6
BYBLOCK
 10
220.54638958980291
 20
-103.1736713980217
 30
0.0
 11
222.74274859446069
 21
-106.51672496065849
 31
0.0
  0
LINE
  5
A56A
  8
01
 10
618.26519004488875
 20
67.235020504374546
 30
0.0
 11
638.42987510854255
 21
94.233316556091467
 31
0.0
1001
ACAD
1000
DSTYLE
1002
{
1070
    40
1040
2.0
1002
}
  0
LINE
  5
A56B
  8
01
 10
638.42987510854255
 20
94.233316556091467
 30
0.0
 11
690.49654177520927
 21
94.233316556091467
 31
0.0
1001
ACAD
1000
DSTYLE
1002
{
1070
    40
1040
2.0
1002
}
  0
LINE
  5
A56C
  8
01
  6
BYBLOCK
 10
619.12390874511618
 20
66.593654393150842
 30
0.0
 11
615.8715791098316
 21
64.030238656639085
 31
0.0
  0
LINE
  5
A56D
  8
01
  6
BYBLOCK
 10
615.8715791098316
 20
64.030238656639085
 30
0.0
 11
617.40647134466133
 21
67.876386615598264
 31
0.0
  0
LINE
  5
A56E
  8
01
  6
BYBLOCK
 10
615.8715791098316
 20
64.030238656639085
 30
0.0
 11
618.26519004488875
 21
67.235020504374546
 31
0.0
  0
LINE
  5
A56F
  8
01
 10
631.12506857862252
 20
67.151031543859006
 30
0.0
 11
641.3201108515799
 21
80.579045621272115
 31
0.0
1001
ACAD
1000
DSTYLE
1002
{
1070
    40
1040
2.0
1002
}
  0
LINE
  5
A570
  8
01
 10
641.3201108515799
 20
80.579045621272115
 30
0.0
 11
733.05344418491325
 21
80.579045621272115
 31
0.0
1001
ACAD
1000
DSTYLE
1002
{
1070
    40
1040
2.0
1002
}
  0
LINE
  5
A571
  8
01
  6
BYBLOCK
 10
631.9787063986056
 20
66.502918307579222
 30
0.0
 11
628.70627702982245
 21
63.965211799514691
 31
0.0
  0
LINE
  5
A572
  8
01
  6
BYBLOCK
 10
628.70627702982245
 20
63.965211799514691
 30
0.0
 11
630.27143075863944
 21
67.799144780138775
 31
0.0
  0
LINE
  5
A573
  8
01
  6
BYBLOCK
 10
628.70627702982245
 20
63.965211799514691
 30
0.0
 11
631.12506857862252
 21
67.151031543859006
 31
0.0
  0
LINE
  5
A574
  8
01
 10
786.65836026375644
 20
-27.711722707874809
 30
0.0
 11
803.54116210462644
 21
1.7246975283486321
 31
0.0
1001
ACAD
1000
DSTYLE
1002
{
1070
    40
1040
2.0
1002
}
  0
LINE
  5
A575
  8
01
 10
803.54116210462644
 20
1.7246975283486321
 30
0.0
 11
823.9411621046263
 21
1.7246975283486321
 31
0.0
1001
ACAD
1000
DSTYLE
1002
{
1070
    40
1040
2.0
1002
}
  0
LINE
  5
A576
  8
01
  6
BYBLOCK
 10
787.58809586214329
 20
-28.244958126652161
 30
0.0
 11
784.66829857042808
 21
-31.1815432301421
 31
0.0
  0
LINE
  5
A577
  8
01
  6
BYBLOCK
 10
784.66829857042808
 20
-31.1815432301421
 30
0.0
 11
785.72862466536947
 21
-27.178487289097461
 31
0.0
  0
LINE
  5
A578
  8
01
  6
BYBLOCK
 10
784.66829857042808
 20
-31.1815432301421
 30
0.0
 11
786.65836026375644
 21
-27.711722707874809
 31
0.0
  0
LINE
  5
A579
  8
01
 10
797.57980771914424
 20
-26.98284170614016
 30
0.0
 11
806.94458072950681
 21
-10.832398035260571
 31
0.0
1001
ACAD
1000
DSTYLE
1002
{
1070
    40
1040
2.0
1002
}
  0
LINE
  5
A57A
  8
01
 10
806.94458072950681
 20
-10.832398035260571
 30
0.0
 11
870.74458072950677
 21
-10.832398035260571
 31
0.0
1001
ACAD
1000
DSTYLE
1002
{
1070
    40
1040
2.0
1002
}
  0
LINE
  5
A57B
  8
01
  6
BYBLOCK
 10
798.50700723851457
 20
-27.52047480224369
 30
0.0
 11
795.57333367045044
 21
-30.443197452579849
 31
0.0
  0
LINE
  5
A57C
  8
01
  6
BYBLOCK
 10
795.57333367045044
 20
-30.443197452579849
 30
0.0
 11
796.65260819977391
 21
-26.44520861003663
 31
0.0
  0
LINE
  5
A57D
  8
01
  6
BYBLOCK
 10
795.57333367045044
 20
-30.443197452579849
 30
0.0
 11
797.57980771914424
 21
-26.98284170614016
 31
0.0
  0
TEXT
  5
A57E
  8
01
 10
-12.12411312243723
 20
-42.255153948360288
 30
0.0
 40
7.0
  1
50
  0
LINE
  5
A57F
  8
01
  6
BYBLOCK
 10
15.542553544231479
 20
-42.583357188360289
 30
0.0
 11
19.542553544231481
 21
-43.655153948360287
 31
0.0
  0
LINE
  5
A580
  8
01
  6
BYBLOCK
 10
19.542553544231481
 20
-43.655153948360287
 30
0.0
 11
15.542553544231479
 21
-44.726950708360292
 31
0.0
  0
LINE
  5
A581
  8
01
  6
BYBLOCK
 10
19.542553544231481
 20
-43.655153948360287
 30
0.0
 11
15.542553544231479
 21
-43.655153948360287
 31
0.0
  0
LINE
  5
A582
  8
01
  6
BYBLOCK
 10
-26.457446455772612
 20
-44.726950708360292
 30
0.0
 11
-30.457446455772612
 21
-43.655153948360287
 31
0.0
  0
LINE
  5
A583
  8
01
  6
BYBLOCK
 10
-30.457446455772612
 20
-43.655153948360287
 30
0.0
 11
-26.457446455772612
 21
-42.583357188360289
 31
0.0
  0
LINE
  5
A584
  8
01
  6
BYBLOCK
 10
-30.457446455772612
 20
-43.655153948360287
 30
0.0
 11
-26.457446455772612
 21
-43.655153948360287
 31
0.0
  0
TEXT
  5
A585
  8
01
 10
707.52627511769015
 20
-84.232563091362906
 30
0.0
 40
7.0
  1
50
 50
90.0
  0
LINE
  5
A586
  8
01
  6
BYBLOCK
 10
709.99807187769022
 20
-98.565474881283095
 30
0.0
 11
708.92627511769024
 21
-102.56547488128309
 31
0.0
  0
LINE
  5
A587
  8
01
  6
BYBLOCK
 10
708.92627511769024
 20
-102.56547488128309
 30
0.0
 11
707.85447835769025
 21
-98.565474881283095
 31
0.0
  0
LINE
  5
A588
  8
01
  6
BYBLOCK
 10
708.92627511769024
 20
-102.56547488128309
 30
0.0
 11
708.92627511769024
 21
-98.565474881283095
 31
0.0
  0
LINE
  5
A589
  8
01
  6
BYBLOCK
 10
707.85447835769025
 20
-56.566317968109622
 30
0.0
 11
708.92627511769024
 21
-52.566317968109622
 31
0.0
  0
LINE
  5
A58A
  8
01
  6
BYBLOCK
 10
708.92627511769024
 20
-52.566317968109622
 30
0.0
 11
709.99807187769022
 21
-56.566317968109622
 31
0.0
  0
LINE
  5
A58B
  8
01
  6
BYBLOCK
 10
708.92627511769024
 20
-52.566317968109622
 30
0.0
 11
708.92627511769024
 21
-56.566317968109622
 31
0.0
  0
TEXT
  5
A58C
  8
01
 10
632.24255354425202
 20
-123.83059618414499
 30
0.0
 40
7.0
  1
10.6
  0
LINE
  5
A58D
  8
01
  6
BYBLOCK
 10
628.84255354425193
 20
-126.302392944145
 30
0.0
 11
624.84255354425193
 21
-125.230596184145
 31
0.0
  0
LINE
  5
A58E
  8
01
  6
BYBLOCK
 10
624.84255354425193
 20
-125.230596184145
 30
0.0
 11
628.84255354425193
 21
-124.158799424145
 31
0.0
  0
LINE
  5
A58F
  8
01
  6
BYBLOCK
 10
624.84255354425193
 20
-125.230596184145
 30
0.0
 11
628.84255354425193
 21
-125.230596184145
 31
0.0
  0
LINE
  5
A590
  8
01
  6
BYBLOCK
 10
610.24255354425179
 20
-124.158799424145
 30
0.0
 11
614.2425535442519
 21
-125.230596184145
 31
0.0
  0
LINE
  5
A591
  8
01
  6
BYBLOCK
 10
614.2425535442519
 20
-125.230596184145
 30
0.0
 11
610.24255354425179
 21
-126.302392944145
 31
0.0
  0
LINE
  5
A592
  8
01
  6
BYBLOCK
 10
614.2425535442519
 20
-125.230596184145
 30
0.0
 11
610.24255354425179
 21
-125.230596184145
 31
0.0
  0
LINE
  5
A593
  8
01
 10
805.04255354660199
 20
-73.465521495763255
 30
0.0
 11
778.14258844847825
 21
-73.465521495763255
 31
0.0
  0
LINE
  5
A594
  8
01
 10
775.64255936380619
 20
-70.965474959865332
 30
0.0
 11
778.14258844847825
 21
-73.465521495763255
 31
0.0
  0
LINE
  5
A595
  8
01
 10
810.3425500564631
 20
-74.965521495763255
 30
0.0
 11
805.04255354660199
 21
-73.465521495763255
 31
0.0
  0
LINE
  5
A596
  8
01
 10
775.64255936380619
 20
-70.965474959865332
 30
0.0
 11
775.34255936380521
 21
-70.965474959865332
 31
0.0
  0
LINE
  5
A597
  8
01
 10
810.3425500564631
 20
-74.965521495763255
 30
0.0
 11
805.04254656621765
 21
-76.465521495763255
 31
0.0
  0
LINE
  5
A598
  8
01
 10
775.34255936380521
 20
-70.965474959865332
 30
0.0
 11
775.3425407494459
 21
-78.965474959865332
 31
0.0
  0
LINE
  5
A599
  8
01
 10
805.04254656621765
 20
-76.465521495763255
 30
0.0
 11
778.14252329811291
 21
-76.465521495763255
 31
0.0
  0
LINE
  5
A59A
  8
01
 10
775.64254074944699
 20
-78.965474959865332
 30
0.0
 11
775.3425407494459
 21
-78.965474959865332
 31
0.0
  0
LINE
  5
A59B
  8
01
 10
775.64254074944699
 20
-78.965474959865332
 30
0.0
 11
778.14252329811291
 21
-76.465521495763255
 31
0.0
  0
TEXT
  5
A59C
  8
01
 10
309.54255354424168
 20
-31.69955146959192
 30
0.0
 40
7.0
  1
700
  0
LINE
  5
A59D
  8
01
  6
BYBLOCK
 10
665.54255354424504
 20
-32.027754709591918
 30
0.0
 11
669.54255354424504
 21
-33.099551469591923
 31
0.0
  0
LINE
  5
A59E
  8
01
  6
BYBLOCK
 10
669.54255354424504
 20
-33.099551469591923
 30
0.0
 11
665.54255354424504
 21
-34.171348229591914
 31
0.0
  0
LINE
  5
A59F
  8
01
  6
BYBLOCK
 10
669.54255354424504
 20
-33.099551469591923
 30
0.0
 11
665.54255354424504
 21
-33.099551469591923
 31
0.0
  0
LINE
  5
A5A0
  8
01
  6
BYBLOCK
 10
-26.457446455761701
 20
-34.171348229591914
 30
0.0
 11
-30.457446455761701
 21
-33.099551469591923
 31
0.0
  0
LINE
  5
A5A1
  8
01
  6
BYBLOCK
 10
-30.457446455761701
 20
-33.099551469591923
 30
0.0
 11
-26.457446455761701
 21
-32.027754709591918
 31
0.0
  0
LINE
  5
A5A2
  8
01
  6
BYBLOCK
 10
-30.457446455761701
 20
-33.099551469591923
 30
0.0
 11
-26.457446455761701
 21
-33.099551469591923
 31
0.0
  0
TEXT
  5
A5A3
  8
01
 10
509.54257330180741
 20
-42.255153948360288
 30
0.0
 40
7.0
  1
200
  0
LINE
  5
A5A4
  8
01
  6
BYBLOCK
 10
615.54259305936989
 20
-42.583357188360289
 30
0.0
 11
619.54259305936989
 21
-43.655153948360287
 31
0.0
  0
LINE
  5
A5A5
  8
01
  6
BYBLOCK
 10
619.54259305936989
 20
-43.655153948360287
 30
0.0
 11
615.54259305936989
 21
-44.726950708360292
 31
0.0
  0
LINE
  5
A5A6
  8
01
  6
BYBLOCK
 10
619.54259305936989
 20
-43.655153948360287
 30
0.0
 11
615.54259305936989
 21
-43.655153948360287
 31
0.0
  0
LINE
  5
A5A7
  8
01
  6
BYBLOCK
 10
423.54255354424498
 20
-44.726950708360292
 30
0.0
 11
419.5425535442451
 21
-43.655153948360287
 31
0.0
  0
LINE
  5
A5A8
  8
01
  6
BYBLOCK
 10
419.5425535442451
 20
-43.655153948360287
 30
0.0
 11
423.54255354424498
 21
-42.583357188360289
 31
0.0
  0
LINE
  5
A5A9
  8
01
  6
BYBLOCK
 10
419.5425535442451
 20
-43.655153948360287
 30
0.0
 11
423.54255354424498
 21
-43.655153948360287
 31
0.0
  0
TEXT
  5
A5AA
  8
01
 10
309.54255354424168
 20
-42.255153948360288
 30
0.0
 40
7.0
  1
200
  0
LINE
  5
A5AB
  8
01
  6
BYBLOCK
 10
223.5425535442383
 20
-44.726950708360292
 30
0.0
 11
219.5425535442383
 21
-43.655153948360287
 31
0.0
  0
LINE
  5
A5AC
  8
01
  6
BYBLOCK
 10
219.5425535442383
 20
-43.655153948360287
 30
0.0
 11
223.5425535442383
 21
-42.583357188360289
 31
0.0
  0
LINE
  5
A5AD
  8
01
  6
BYBLOCK
 10
219.5425535442383
 20
-43.655153948360287
 30
0.0
 11
223.5425535442383
 21
-43.655153948360287
 31
0.0
  0
LINE
  5
A5AE
  8
01
  6
BYBLOCK
 10
415.5425535442451
 20
-42.583357188360289
 30
0.0
 11
419.5425535442451
 21
-43.655153948360287
 31
0.0
  0
LINE
  5
A5AF
  8
01
  6
BYBLOCK
 10
419.5425535442451
 20
-43.655153948360287
 30
0.0
 11
415.5425535442451
 21
-44.726950708360292
 31
0.0
  0
LINE
  5
A5B0
  8
01
  6
BYBLOCK
 10
419.5425535442451
 20
-43.655153948360287
 30
0.0
 11
415.5425535442451
 21
-43.655153948360287
 31
0.0
  0
TEXT
  5
A5B1
  8
01
 10
750.60921521091143
 20
-132.11244800205111
 30
0.0
 40
7.0
  1
12
  0
LINE
  5
A5B2
  8
01
  6
BYBLOCK
 10
772.34254854424466
 20
-134.5842447620511
 30
0.0
 11
768.34254854424466
 21
-133.51244800205109
 31
0.0
  0
LINE
  5
A5B3
  8
01
  6
BYBLOCK
 10
768.34254854424466
 20
-133.51244800205109
 30
0.0
 11
772.34254854424466
 21
-132.4406512420511
 31
0.0
  0
LINE
  5
A5B4
  8
01
  6
BYBLOCK
 10
768.34254854424466
 20
-133.51244800205109
 30
0.0
 11
772.34254854424466
 21
-133.51244800205109
 31
0.0
  0
LINE
  5
A5B5
  8
01
  6
BYBLOCK
 10
776.34254854424523
 20
-132.4406512420511
 30
0.0
 11
780.34254854424523
 21
-133.51244800205109
 31
0.0
  0
LINE
  5
A5B6
  8
01
  6
BYBLOCK
 10
780.34254854424523
 20
-133.51244800205109
 30
0.0
 11
776.34254854424523
 21
-134.5842447620511
 31
0.0
  0
LINE
  5
A5B7
  8
01
  6
BYBLOCK
 10
780.34254854424523
 20
-133.51244800205109
 30
0.0
 11
776.34254854424523
 21
-133.51244800205109
 31
0.0
  0
TEXT
  5
A5B8
  8
01
 10
685.67907558793206
 20
-48.166317968109482
 30
0.0
 40
7.0
  1
22.4
 50
90.0
  0
LINE
  5
A5B9
  8
01
  6
BYBLOCK
 10
686.00727882793205
 20
-56.566317968109622
 30
0.0
 11
687.07907558793204
 21
-52.566317968109608
 31
0.0
  0
LINE
  5
A5BA
  8
01
  6
BYBLOCK
 10
687.07907558793204
 20
-52.566317968109608
 30
0.0
 11
688.15087234793202
 21
-56.566317968109622
 31
0.0
  0
LINE
  5
A5BB
  8
01
  6
BYBLOCK
 10
687.07907558793204
 20
-52.566317968109608
 30
0.0
 11
687.07907558793204
 21
-56.566317968109622
 31
0.0
  0
LINE
  5
A5BC
  8
01
  6
BYBLOCK
 10
688.15087234793202
 20
-70.965474881282262
 30
0.0
 11
687.07907558793204
 21
-74.965474881282262
 31
0.0
  0
LINE
  5
A5BD
  8
01
  6
BYBLOCK
 10
687.07907558793204
 20
-74.965474881282262
 30
0.0
 11
686.00727882793205
 21
-70.965474881282262
 31
0.0
  0
LINE
  5
A5BE
  8
01
  6
BYBLOCK
 10
687.07907558793204
 20
-74.965474881282262
 30
0.0
 11
687.07907558793204
 21
-70.965474881282262
 31
0.0
  0
TEXT
  5
A5BF
  8
01
 10
695.85960845102352
 20
25.946613581577999
 30
0.0
 40
7.0
  1
使用時
 50
90.0
  0
TEXT
  5
A5C0
  8
01
 10
707.52627511769015
 20
30.946613581577999
 30
0.0
 40
7.0
  1
52
 50
90.0
  0
LINE
  5
A5C1
  8
01
  6
BYBLOCK
 10
707.85447835769025
 20
59.613280208954272
 30
0.0
 11
708.92627511769024
 21
63.613280208954272
 31
0.0
  0
LINE
  5
A5C2
  8
01
  6
BYBLOCK
 10
708.92627511769024
 20
63.613280208954272
 30
0.0
 11
709.99807187769022
 21
59.613280208954272
 31
0.0
  0
LINE
  5
A5C3
  8
01
  6
BYBLOCK
 10
708.92627511769024
 20
63.613280208954272
 30
0.0
 11
708.92627511769024
 21
59.613280208954272
 31
0.0
  0
LINE
  5
A5C4
  8
01
  6
BYBLOCK
 10
709.99807187769022
 20
15.61328028753482
 30
0.0
 11
708.92627511769024
 21
11.61328028753482
 31
0.0
  0
LINE
  5
A5C5
  8
01
  6
BYBLOCK
 10
708.92627511769024
 20
11.61328028753482
 30
0.0
 11
707.85447835769025
 21
15.61328028753482
 31
0.0
  0
LINE
  5
A5C6
  8
01
  6
BYBLOCK
 10
708.92627511769024
 20
11.61328028753482
 30
0.0
 11
708.92627511769024
 21
15.61328028753482
 31
0.0
  0
TEXT
  5
A5C7
  8
01
 10
109.54255354423481
 20
-42.255153948360288
 30
0.0
 40
7.0
  1
200
  0
LINE
  5
A5C8
  8
01
  6
BYBLOCK
 10
23.542553544231481
 20
-44.726950708360292
 30
0.0
 11
19.542553544231481
 21
-43.655153948360287
 31
0.0
  0
LINE
  5
A5C9
  8
01
  6
BYBLOCK
 10
19.542553544231481
 20
-43.655153948360287
 30
0.0
 11
23.542553544231481
 21
-42.583357188360289
 31
0.0
  0
LINE
  5
A5CA
  8
01
  6
BYBLOCK
 10
19.542553544231481
 20
-43.655153948360287
 30
0.0
 11
23.542553544231481
 21
-43.655153948360287
 31
0.0
  0
LINE
  5
A5CB
  8
01
  6
BYBLOCK
 10
215.5425535442383
 20
-42.583357188360289
 30
0.0
 11
219.5425535442383
 21
-43.655153948360287
 31
0.0
  0
LINE
  5
A5CC
  8
01
  6
BYBLOCK
 10
219.5425535442383
 20
-43.655153948360287
 30
0.0
 11
215.5425535442383
 21
-44.726950708360292
 31
0.0
  0
LINE
  5
A5CD
  8
01
  6
BYBLOCK
 10
219.5425535442383
 20
-43.655153948360287
 30
0.0
 11
215.5425535442383
 21
-43.655153948360287
 31
0.0
  0
LINE
  5
A5CE
  8
01
 10
59.519595813629948
 20
-106.59417543247331
 30
0.0
 11
63.196659771458911
 21
-124.72669498998199
 31
0.0
1001
ACAD
1000
DSTYLE
1002
{
1070
    40
1040
2.0
1002
}
  0
LINE
  5
A5CF
  8
01
 10
63.196659771458911
 20
-124.72669498998199
 30
0.0
 11
125.5299931047922
 21
-124.72669498998199
 31
0.0
1001
ACAD
1000
DSTYLE
1002
{
1070
    40
1040
2.0
1002
}
  0
LINE
  5
A5D0
  8
01
  6
BYBLOCK
 10
58.469179653866703
 20
-106.8071876059628
 30
0.0
 11
58.724623552323472
 21
-102.67396891957721
 31
0.0
  0
LINE
  5
A5D1
  8
01
  6
BYBLOCK
 10
58.724623552323472
 20
-102.67396891957721
 30
0.0
 11
60.570011973393193
 21
-106.3811632589838
 31
0.0
  0
LINE
  5
A5D2
  8
01
  6
BYBLOCK
 10
58.724623552323472
 20
-102.67396891957721
 30
0.0
 11
59.519595813629948
 21
-106.59417543247331
 31
0.0
  0
VIEWPORT
  5
57
 67
     1
  8
0
 10
-3.2124458599747072
 20
19.058801811444209
 30
0.0
 40
404.76920993459879
 41
286.59105667690801
 68
     1
 69
     1
1001
ACAD
1000
MVIEW
1002
{
1070
    16
1010
0.0
1020
0.0
1030
0.0
1010
0.0
1020
0.0
1030
1.0
1040
0.0
1040
286.59105667690801
1040
-3.2124458599747072
1040
19.058801811444209
1040
50.0
1040
0.0
1040
0.0
1070
     0
1070
   100
1070
     1
1070
     1
1070
     0
1070
     0
1070
     0
1070
     0
1040
0.0
1040
0.0
1040
0.0
1040
10.0
1040
10.0
1040
10.0
1040
10.0
1070
     0
1002
{
1002
}
1002
}
  0
ENDSEC
  0
EOF
