  0
SECTION
  2
HEADER
  9
$ACADVER
  1
AC1009
  9
$INSBASE
 10
0.0
 20
0.0
 30
0.0
  9
$EXTMIN
 10
-350.90442889188893
 20
-2240.8614898246051
 30
0.0
  9
$EXTMAX
 10
18.045571108107762
 20
-2031.5620778821401
 30
0.0
  9
$LIMMIN
 10
0.0
 20
0.0
  9
$LIMMAX
 10
420.0
 20
297.0
  9
$ORTHOMODE
 70
     0
  9
$REGENMODE
 70
     1
  9
$FILLMODE
 70
     1
  9
$QTEXTMODE
 70
     0
  9
$MIRRTEXT
 70
     1
  9
$DRAGMODE
 70
     2
  9
$LTSCALE
 40
0.5
  9
$OSMODE
 70
  2175
  9
$ATTMODE
 70
     1
  9
$TEXTSIZE
 40
4.0
  9
$TRACEWID
 40
1.0
  9
$TEXTSTYLE
  7
STANDARD
  9
$CLAYER
  8
1TEXT
  9
$CELTYPE
  6
BYLAYER
  9
$CECOLOR
 62
   256
  9
$DIMSCALE
 40
1.0
  9
$DIMASZ
 40
2.0
  9
$DIMEXO
 40
0.0
  9
$DIMDLI
 40
7.0
  9
$DIMRND
 40
0.0
  9
$DIMDLE
 40
0.0
  9
$DIMEXE
 40
1.0
  9
$DIMTP
 40
0.0
  9
$DIMTM
 40
0.0
  9
$DIMTXT
 40
3.5
  9
$DIMCEN
 40
0.0
  9
$DIMTSZ
 40
0.0
  9
$DIMTOL
 70
     0
  9
$DIMLIM
 70
     0
  9
$DIMTIH
 70
     0
  9
$DIMTOH
 70
     0
  9
$DIMSE1
 70
     0
  9
$DIMSE2
 70
     0
  9
$DIMTAD
 70
     1
  9
$DIMZIN
 70
     8
  9
$DIMBLK
  1

  9
$DIMASO
 70
     1
  9
$DIMSHO
 70
     1
  9
$DIMPOST
  1
 
  9
$DIMAPOST
  1

  9
$DIMALT
 70
     0
  9
$DIMALTD
 70
     2
  9
$DIMALTF
 40
25.399999999999999
  9
$DIMLFAC
 40
1.0
  9
$DIMTOFL
 70
     1
  9
$DIMTVP
 40
0.0
  9
$DIMTIX
 70
     0
  9
$DIMSOXD
 70
     0
  9
$DIMSAH
 70
     1
  9
$DIMBLK1
  1
OPEN30
  9
$DIMBLK2
  1
OPEN30
  9
$DIMSTYLE
  2
NEWX10
  9
$DIMCLRD
 70
   256
  9
$DIMCLRE
 70
   256
  9
$DIMCLRT
 70
   201
  9
$DIMTFAC
 40
0.7
  9
$DIMGAP
 40
0.7
  9
$LUNITS
 70
     2
  9
$LUPREC
 70
     4
  9
$SKETCHINC
 40
1.0
  9
$FILLETRAD
 40
0.0
  9
$AUNITS
 70
     0
  9
$AUPREC
 70
     2
  9
$MENU
  1
acad
  9
$ELEVATION
 40
0.0
  9
$PELEVATION
 40
0.0
  9
$THICKNESS
 40
0.0
  9
$LIMCHECK
 70
     0
  9
$BLIPMODE
 70
     0
  9
$CHAMFERA
 40
10.0
  9
$CHAMFERB
 40
10.0
  9
$SKPOLY
 70
     0
  9
$TDCREATE
 40
2453033.7326634838
  9
$TDUPDATE
 40
2455383.3836991782
  9
$TDINDWG
 40
0.250882338
  9
$TDUSRTIMER
 40
0.250882338
  9
$USRTIMER
 70
     1
  9
$ANGBASE
 50
0.0
  9
$ANGDIR
 70
     0
  9
$PDMODE
 70
     0
  9
$PDSIZE
 40
0.0
  9
$PLINEWID
 40
0.0
  9
$COORDS
 70
     2
  9
$SPLFRAME
 70
     0
  9
$SPLINETYPE
 70
     6
  9
$SPLINESEGS
 70
     8
  9
$ATTDIA
 70
     0
  9
$ATTREQ
 70
     1
  9
$HANDLING
 70
     1
  9
$HANDSEED
  5
8B31
  9
$SURFTAB1
 70
     6
  9
$SURFTAB2
 70
     6
  9
$SURFTYPE
 70
     6
  9
$SURFU
 70
     6
  9
$SURFV
 70
     6
  9
$UCSNAME
  2

  9
$UCSORG
 10
0.0
 20
0.0
 30
0.0
  9
$UCSXDIR
 10
1.0
 20
0.0
 30
0.0
  9
$UCSYDIR
 10
0.0
 20
1.0
 30
0.0
  9
$PUCSNAME
  2

  9
$PUCSORG
 10
0.0
 20
0.0
 30
0.0
  9
$PUCSXDIR
 10
1.0
 20
0.0
 30
0.0
  9
$PUCSYDIR
 10
0.0
 20
1.0
 30
0.0
  9
$USERI1
 70
     0
  9
$USERI2
 70
     0
  9
$USERI3
 70
     0
  9
$USERI4
 70
     0
  9
$USERI5
 70
     0
  9
$USERR1
 40
0.0
  9
$USERR2
 40
0.0
  9
$USERR3
 40
0.0
  9
$USERR4
 40
0.0
  9
$USERR5
 40
0.0
  9
$WORLDVIEW
 70
     1
  9
$SHADEDGE
 70
     3
  9
$SHADEDIF
 70
    70
  9
$TILEMODE
 70
     1
  9
$MAXACTVP
 70
    48
  9
$PLIMCHECK
 70
     0
  9
$PEXTMIN
 10
1.0000000000000000E+020
 20
1.0000000000000000E+020
 30
1.0000000000000000E+020
  9
$PEXTMAX
 10
-1.0000000000000000E+020
 20
-1.0000000000000000E+020
 30
-1.0000000000000000E+020
  9
$PLIMMIN
 10
0.0
 20
0.0
  9
$PLIMMAX
 10
420.0
 20
297.0
  9
$UNITMODE
 70
     0
  9
$VISRETAIN
 70
     1
  9
$PLINEGEN
 70
     0
  9
$PSLTSCALE
 70
     1
  0
ENDSEC
  0
SECTION
  2
TABLES
  0
TABLE
  2
VPORT
 70
     1
  0
VPORT
  2
*ACTIVE
 70
     0
 10
0.0
 20
0.0
 11
1.0
 21
1.0
 12
-166.42423082351061
 22
-2136.1886397053272
 13
0.0
 23
0.0
 14
10.0
 24
10.0
 15
10.0
 25
10.0
 16
0.0
 26
0.0
 36
1.0
 17
0.0
 27
0.0
 37
0.0
 40
276.4930000981314
 41
1.4123581336696089
 42
50.0
 43
0.0
 44
0.0
 50
0.0
 51
0.0
 71
     0
 72
   100
 73
     1
 74
     1
 75
     0
 76
     0
 77
     0
 78
     0
  0
ENDTAB
  0
TABLE
  2
LTYPE
 70
    14
  0
LTYPE
  2
CONTINUOUS
 70
     0
  3
Solid line
 72
    65
 73
     0
 40
0.0
  0
LTYPE
  2
XREF1|CENTER2
 70
    48
  3
Center (.5x) ___ _ ___ _ ___ _ ___ _ ___ _ ___
 72
    65
 73
     4
 40
28.574999999999999
 49
19.050000000000001
 49
-3.1749999999999989
 49
3.1749999999999989
 49
-3.1749999999999989
  0
LTYPE
  2
A3WAKUDAKE|CENTER2
 70
    48
  3
Center (.5x) ___ _ ___ _ ___ _ ___ _ ___ _ ___
 72
    65
 73
     4
 40
28.574999999999999
 49
19.050000000000001
 49
-3.1749999999999989
 49
3.1749999999999989
 49
-3.1749999999999989
  0
ENDTAB
  0
TABLE
  2
LAYER
 70
    43
  0
LAYER
  2
0
 70
     0
 62
     7
  6
CONTINUOUS
  0
LAYER
  2
1TEXT
 70
     0
 62
     7
  6
CONTINUOUS
  0
LAYER
  2
1DIM
 70
     0
 62
     7
  6
CONTINUOUS
  0
LAYER
  2
01
 70
     0
 62
     1
  6
CONTINUOUS
  0
LAYER
  2
1HATCH
 70
     0
 62
     7
  6
CONTINUOUS
  0
LAYER
  2
XREF1|1CENTER
 70
    48
 62
     7
  6
XREF1|CENTER2
  0
LAYER
  2
A3WAKUDAKE|THICK
 70
    48
 62
     7
  6
CONTINUOUS
  0
LAYER
  2
A3WAKUDAKE|POINT
 70
    48
 62
     7
  6
CONTINUOUS
  0
LAYER
  2
A3WAKUDAKE|1CENTER
 70
    48
 62
     7
  6
A3WAKUDAKE|CENTER2
  0
LAYER
  2
A3WAKUDAKE|0-6
 70
    48
 62
     7
  6
CONTINUOUS
  0
LAYER
  2
A3WAKUDAKE|1DIM
 70
    48
 62
     7
  6
CONTINUOUS
  0
ENDTAB
  0
TABLE
  2
STYLE
 70
    22
  0
STYLE
  2
STANDARD
 70
     0
 40
0.0
 41
1.0
 50
0.0
 71
     0
 42
4.0
  3
txt.shx
  4
extfont.shx
  0
ENDTAB
  0
TABLE
  2
VIEW
 70
     0
  0
ENDTAB
  0
TABLE
  2
UCS
 70
     0
  0
ENDTAB
  0
TABLE
  2
APPID
 70
    13
  0
APPID
  2
ACAD
 70
     0
  0
APPID
  2
DRAWINGVARIABLESXDATA
 70
     0
  0
APPID
  2
CONTENTTABDATA
 70
     0
  0
APPID
  2
CONTENTCURRENTTAB
 70
     0
  0
APPID
  2
CONTENTBLOCKDESCRIPTION
 70
     0
  0
APPID
  2
CONTENTBLOCKICON
 70
     0
  0
APPID
  2
CONTENTLONGBLOCKNAME
 70
     0
  0
APPID
  2
ACAD_PSEXT
 70
     0
  0
APPID
  2
ACAD_DSTYLE_DIMTEXT_FILL
 70
     0
  0
APPID
  2
ACAD_MLEADERVER
 70
     0
  0
APPID
  2
ACAD_DSTYLE_DIMRADIAL_EXTENSION
 70
     0
  0
APPID
  2
GENIUS_GENODEF_13
 70
     0
  0
APPID
  2
GENIUS_GENOBJ-N-FIL_13
 70
     0
  0
ENDTAB
  0
TABLE
  2
DIMSTYLE
 70
     9
  0
DIMSTYLE
  2
NEWX10
 70
     0
  3
 
  4

  5

  6
OPEN30
  7
OPEN30
 40
1.0
 41
2.0
 42
0.0
 43
7.0
 44
1.0
 45
0.0
 46
0.0
 47
0.0
 48
0.0
140
3.5
141
0.0
142
0.0
143
25.399999999999999
144
1.0
145
0.0
146
0.7
147
0.7
 71
     0
 72
     0
 73
     0
 74
     0
 75
     0
 76
     0
 77
     1
 78
     8
170
     0
171
     2
172
     1
173
     1
174
     0
175
     0
176
   256
177
   256
178
   201
  0
ENDTAB
  0
ENDSEC
  0
SECTION
  2
BLOCKS
  0
BLOCK
  8
0
  2
$MODEL_SPACE
 70
     0
 10
0.0
 20
0.0
 30
0.0
  3
$MODEL_SPACE
  1

  0
ENDBLK
  5
1A
  8
0
  0
BLOCK
 67
     1
  8
0
  2
$PAPER_SPACE
 70
     0
 10
0.0
 20
0.0
 30
0.0
  3
$PAPER_SPACE
  1

  0
ENDBLK
  5
17
 67
     1
  8
0
  0
BLOCK
  8
0
  2
_OPEN30
 70
     0
 10
0.0
 20
0.0
 30
0.0
  3
_OPEN30
  1

  0
LINE
  5
44
  8
0
  6
BYBLOCK
 62
     0
 10
-1.0
 20
0.26794919
 30
0.0
 11
0.0
 21
0.0
 31
0.0
  0
LINE
  5
45
  8
0
  6
BYBLOCK
 62
     0
 10
0.0
 20
0.0
 30
0.0
 11
-1.0
 21
-0.26794919
 31
0.0
  0
LINE
  5
46
  8
0
  6
BYBLOCK
 62
     0
 10
0.0
 20
0.0
 30
0.0
 11
-1.0
 21
0.0
 31
0.0
  0
ENDBLK
  5
47
  8
0
  0
BLOCK
  8
0
  2
XREF1
 70
    36
 10
0.0
 20
0.0
 30
0.0
  3
XREF1
  1
D:\ACLT\FORMAT\KAWAJUN(9)図面用.dwg
  0
ENDBLK
  5
5D
  8
0
  0
BLOCK
  8
0
  2
A3WAKUDAKE
 70
    36
 10
0.0
 20
0.0
 30
0.0
  3
A3WAKUDAKE
  1
D:\ACLT\FORMAT\A3WAKUdake.dwg
  0
ENDBLK
  5
6DC
  8
0
  0
BLOCK
  8
0
  2
*U29
 70
     1
 10
0.0
 20
0.0
 30
0.0
  3
*U29
  1

  0
TEXT
  5
8AF3
  8
0
 62
   201
 10
-63.717024855154051
 20
-3.8109119089904788
 30
0.0
 40
3.5
  1
φ5
 50
48.83031736650419
  0
ENDBLK
  5
8AF5
  8
0
  0
BLOCK
  8
0
  2
*U30
 70
     1
 10
0.0
 20
0.0
 30
0.0
  3
*U30
  1

  0
TEXT
  5
8AF7
  8
1TEXT
 62
   201
 10
21.614708555164611
 20
22.401236958861659
 30
0.0
 40
2.0
  1
二文字
  0
TEXT
  5
8AF8
  8
1TEXT
 62
   201
 10
21.614708555164611
 20
19.067903625528331
 30
0.0
 40
2.0
  1
(別途指定)
  0
TEXT
  5
8AF9
  8
1TEXT
 62
   201
 10
21.614708555164611
 20
15.73457029219499
 30
0.0
 40
2.0
  1
天地 約1.8
  0
TEXT
  5
8AFA
  8
1TEXT
 62
   201
 10
21.614708555164611
 20
12.401236958861659
 30
0.0
 40
2.0
  1
凸0.2
  0
ENDBLK
  5
8AFC
  8
0
  0
BLOCK
  8
0
  2
*U31
 70
     1
 10
0.0
 20
0.0
 30
0.0
  3
*U31
  1

  0
SOLID
  5
8AFE
  8
1DIM
 10
17.769912945885331
 20
22.805130681268722
 30
0.0
 11
17.678379796037799
 21
23.814783819854821
 31
0.0
 12
18.0924202800296
 22
22.889392953575271
 32
0.0
 13
18.0924202800296
 23
22.889392953575271
 33
0.0
  0
POLYLINE
  5
8AFF
  8
1DIM
 66
     1
 10
0.0
 20
0.0
 30
0.0
  0
VERTEX
  5
8B00
  8
1DIM
 10
17.931166612957469
 20
22.847261817422002
 30
0.0
  0
VERTEX
  5
8B01
  8
1DIM
 10
20.91703607932029
 20
11.41907722970881
 30
0.0
  0
VERTEX
  5
8B02
  8
1DIM
 10
35.143226555510758
 20
11.41907722970881
 30
0.0
  0
SEQEND
  5
8B03
  8
1DIM
  0
ENDBLK
  5
8B05
  8
0
  0
BLOCK
  8
0
  2
*U32
 70
     1
 10
0.0
 20
0.0
 30
0.0
  3
*U32
  1

  0
TEXT
  5
8B07
  8
1DIM
 62
   201
 10
8.9421530727463576
 20
19.285028579396069
 30
0.0
 40
2.0
  1
枠
  0
TEXT
  5
8B08
  8
1DIM
 62
   201
 10
7.0754864060796896
 20
15.951695246062741
 30
0.0
 40
2.0
  1
φ5
  0
TEXT
  5
8B09
  8
1DIM
 62
   201
 10
4.7421530727463583
 20
12.61836191272941
 30
0.0
 40
2.0
  1
凹0.3
  0
ENDBLK
  5
8B0B
  8
0
  0
BLOCK
  8
0
  2
*U33
 70
     1
 10
0.0
 20
0.0
 30
0.0
  3
*U33
  1

  0
SOLID
  5
8B0D
  8
1DIM
 10
14.77538895849114
 20
20.894651819020488
 30
0.0
 11
15.75963814806016
 21
22.667323431007279
 31
0.0
 12
15.403512140193291
 22
20.67125595278117
 32
0.0
 13
15.403512140193291
 23
20.67125595278117
 33
0.0
  0
POLYLINE
  5
8B0E
  8
1DIM
 66
     1
 10
0.0
 20
0.0
 30
0.0
  0
VERTEX
  5
8B0F
  8
1DIM
 10
15.089450549342221
 20
20.782953885900831
 30
0.0
  0
VERTEX
  5
8B10
  8
1DIM
 10
11.821762131327951
 20
11.59517937383526
 30
0.0
  0
VERTEX
  5
8B11
  8
1DIM
 10
2.3789049884708091
 20
11.59517937383526
 30
0.0
  0
SEQEND
  5
8B12
  8
1DIM
  0
ENDBLK
  5
8B14
  8
0
  0
BLOCK
  8
0
  2
*U34
 70
     1
 10
0.0
 20
0.0
 30
0.0
  3
*U34
  1

  0
TEXT
  5
8B17
  8
1TEXT
 10
14.9745471932972
 20
24.09947430071913
 30
0.0
 40
1.8
  1
XY
  0
ENDBLK
  5
8B19
  8
0
  0
BLOCK
  8
0
  2
*U35
 70
     1
 10
0.0
 20
0.0
 30
0.0
  3
*U35
  1

  0
TEXT
  5
8B1E
  8
1DIM
 62
   201
 10
-235.27942889188881
 20
-2229.1614898246048
 30
0.0
 40
3.5
  1
240
  0
ENDBLK
  5
8B20
  8
0
  0
BLOCK
  8
0
  2
*U36
 70
     1
 10
0.0
 20
0.0
 30
0.0
  3
*U36
  1

  0
TEXT
  5
8B22
  8
1DIM
 62
   201
 10
-38.571095558557467
 20
-2229.1614898246048
 30
0.0
 40
3.5
  1
84
  0
ENDBLK
  5
8B24
  8
0
  0
BLOCK
  8
0
  2
*U37
 70
     1
 10
0.0
 20
0.0
 30
0.0
  3
*U37
  1

  0
TEXT
  5
8B26
  8
1DIM
 62
   201
 10
-91.604428891888517
 20
-2192.3614898246042
 30
0.0
 40
3.5
  1
45.5
 50
90.0
  0
ENDBLK
  5
8B28
  8
0
  0
BLOCK
  8
0
  2
*U38
 70
     1
 10
0.0
 20
0.0
 30
0.0
  3
*U38
  1

  0
TEXT
  5
8B2A
  8
1DIM
 62
   201
 10
-94.437762225222173
 20
-2229.1614898246048
 30
0.0
 40
3.5
  1
3.5
  0
ENDBLK
  5
8B2C
  8
0
  0
BLOCK
  8
0
  2
*U39
 70
     1
 10
0.0
 20
0.0
 30
0.0
  3
*U39
  1

  0
TEXT
  5
8B2E
  8
1DIM
 62
   201
 10
-34.47109555855733
 20
-2239.1614898246048
 30
0.0
 40
3.5
  1
99
  0
ENDBLK
  5
8B30
  8
0
  0
ENDSEC
  0
SECTION
  2
ENTITIES
  0
TEXT
  5
349B
  8
1TEXT
 10
-72.622708714170585
 20
-2040.7939810281389
 30
0.0
 40
8.0
  1
KC041
  0
TEXT
  5
34CA
  8
1TEXT
 10
-65.195607022369913
 20
-2064.7974133991802
 30
0.0
 40
4.0
  1
表面処理：
 72
     1
 11
-54.547987974750868
 21
-2064.7974133991802
 31
0.0
  0
TEXT
  5
34CC
  8
1TEXT
 10
-71.347987974750851
 20
-2071.775308419165
 30
0.0
 40
4.0
  1
ブラストシルバー
 41
0.9
 72
     1
 11
-54.547987974750868
 21
-2071.775308419165
 31
0.0
  0
LINE
  5
34CD
  8
1DIM
 10
-71.947987974750504
 20
-2059.2974133991802
 30
0.0
 11
-1.9479879747505029
 21
-2059.2974133991802
 31
0.0
  0
LINE
  5
34CE
  8
1DIM
 10
-71.947987974750504
 20
-2073.2974133991802
 30
0.0
 11
-1.9479879747505029
 21
-2073.2974133991802
 31
0.0
  0
LINE
  5
34CF
  8
1DIM
 10
-71.947987974750504
 20
-2066.2974133991802
 30
0.0
 11
-1.9479879747505029
 21
-2066.2974133991802
 31
0.0
  0
LINE
  5
34D2
  8
1DIM
 10
-36.947987974750497
 20
-2059.2974133991802
 30
0.0
 11
-36.947987974750497
 21
-2073.2974133991802
 31
0.0
  0
TEXT
  5
34D4
  8
1TEXT
 10
-31.88132130808329
 20
-2072.01177038283
 30
0.0
 40
4.0
  1
KC041XS
 72
     1
 11
-19.547987974749962
 21
-2072.01177038283
 31
0.0
  0
TEXT
  5
34D5
  8
1TEXT
 10
-26.347987974750868
 20
-2064.7974133991802
 30
0.0
 40
4.0
  1
コード
 72
     1
 11
-19.547987974750871
 21
-2064.7974133991802
 31
0.0
  0
LINE
  5
34D6
  8
1DIM
 10
-71.947987974750504
 20
-2073.2974133991802
 30
0.0
 11
-71.947987974750504
 21
-2059.2974133991802
 31
0.0
  0
LINE
  5
34D7
  8
1DIM
 10
-1.9479879747505029
 20
-2073.2974133991802
 30
0.0
 11
-1.9479879747505029
 21
-2059.2974133991802
 31
0.0
  0
LINE
  5
8572
  8
01
 10
-350.90442889188881
 20
-2129.8120778821399
 30
0.0
 11
-110.9044288918888
 21
-2129.8120778821399
 31
0.0
  0
LINE
  5
8573
  8
01
  6
BYBLOCK
 10
-110.9044288918888
 20
-2033.562077882141
 30
0.0
 11
-350.90442889188881
 21
-2033.562077882141
 31
0.0
  0
LINE
  5
8574
  8
01
 10
-110.9044288918888
 20
-2031.5620778821401
 30
0.0
 11
-350.90442889188881
 21
-2031.5620778821401
 31
0.0
  0
LINE
  5
8575
  8
01
 10
-110.9044288918888
 20
-2129.8120778821399
 30
0.0
 11
-110.9044288918888
 21
-2031.5620778821401
 31
0.0
  0
LINE
  5
8576
  8
01
 10
-350.90442889188881
 20
-2129.8120778821399
 30
0.0
 11
-350.90442889188881
 21
-2031.5620778821401
 31
0.0
  0
LINE
  5
8577
  8
01
 10
-110.9044288918888
 20
-2126.3120778821399
 30
0.0
 11
-350.90442889188881
 21
-2126.3120778821399
 31
0.0
  0
LINE
  5
8578
  8
01
 10
-110.9044288918888
 20
-2042.312077882144
 30
0.0
 11
-350.90442889188881
 21
-2042.312077882144
 31
0.0
  0
TEXT
  5
8723
  8
1TEXT
 10
-70.750518001832774
 20
-2055.5313858128579
 30
0.0
 40
4.0
  1
材質：アルミ
 72
     1
 11
-57.417184668499431
 21
-2055.5313858128579
 31
0.0
  0
LINE
  5
8893
  8
01
 10
-350.90442889188893
 20
-2164.3614898246042
 30
0.0
 11
-350.90442889188881
 21
-2209.8614898246051
 31
0.0
  0
ARC
  5
8894
  8
01
 10
-347.9044288918887
 20
-2201.3614898246028
 30
0.0
 40
3.0
 50
90.0
 51
180.0
  0
LINE
  5
8895
  8
01
 10
-110.9044288918887
 20
-2164.3614898246042
 30
0.0
 11
-110.9044288918888
 21
-2209.8614898246042
 31
0.0
  0
LINE
  5
8896
  8
01
  6
BYBLOCK
 10
-110.9044288918888
 20
-2209.8614898246042
 30
0.0
 11
-350.90442889188881
 21
-2209.8614898246042
 31
0.0
  0
LINE
  5
8897
  8
01
  6
BYBLOCK
 10
-113.9044288918888
 20
-2198.3614898246028
 30
0.0
 11
-347.9044288918887
 21
-2198.3614898246028
 31
0.0
  0
ARC
  5
8898
  8
01
 10
-113.9044288918888
 20
-2201.3614898246028
 30
0.0
 40
3.0
 50
0.0
 51
90.0
  0
LINE
  5
8899
  8
01
  6
BYBLOCK
 10
-110.9044288918888
 20
-2164.3614898246042
 30
0.0
 11
-350.90442889188881
 21
-2164.3614898246042
 31
0.0
  0
LINE
  5
889F
  8
01
  6
BYBLOCK
 10
-78.154428891889097
 20
-2198.3614898246028
 30
0.0
 11
-80.654428891889097
 21
-2198.3614898246028
 31
0.0
  0
LINE
  5
88A0
  8
01
  6
BYBLOCK
 10
16.845571108107041
 20
-2209.8614898246042
 30
0.0
 11
-80.654428891889097
 21
-2209.8614898246042
 31
0.0
  0
ARC
  5
88A1
  8
01
  6
BYBLOCK
 10
-80.654428891889097
 20
-2198.8614898246028
 30
0.0
 40
0.5
 50
90.0
 51
180.0
  0
LINE
  5
88A2
  8
01
  6
BYBLOCK
 10
-81.154428891889097
 20
-2198.8614898246028
 30
0.0
 11
-81.154428891889097
 21
-2209.3614898246042
 31
0.0
  0
ARC
  5
88A3
  8
01
  6
BYBLOCK
 10
-80.654428891889097
 20
-2209.3614898246042
 30
0.0
 40
0.5
 50
180.0
 51
270.0
  0
ARC
  5
88A4
  8
01
  6
BYBLOCK
 10
-78.154428891889097
 20
-2198.8614898246028
 30
0.0
 40
0.5
 50
0.0
 51
90.0
  0
LINE
  5
88A5
  8
01
  6
BYBLOCK
 10
6.3455711081074924
 20
-2165.3614898246042
 30
0.0
 11
6.3455711081074924
 21
-2200.8614898246042
 31
0.0
  0
ARC
  5
88A6
  8
01
  6
BYBLOCK
 10
-15.65442889189069
 20
-2209.3614898246042
 30
0.0
 40
3.5
 50
61.927513064165709
 51
118.07248693583431
  0
ARC
  5
88A7
  8
01
  6
BYBLOCK
 10
-47.654428891889999
 20
-2209.3614898246042
 30
0.0
 40
3.5
 50
61.927513064165709
 51
118.07248693583431
  0
ARC
  5
88A8
  8
01
  6
BYBLOCK
 10
-63.654428891890007
 20
-2209.3614898246042
 30
0.0
 40
3.5
 50
61.927513064165709
 51
118.07248693583431
  0
ARC
  5
88A9
  8
01
  6
BYBLOCK
 10
-71.654428891890007
 20
-2209.3614898246042
 30
0.0
 40
3.5
 50
61.927513064165709
 51
118.07248693583431
  0
LINE
  5
88AA
  8
01
  6
BYBLOCK
 10
-77.654428891889097
 20
-2198.8614898246028
 30
0.0
 11
-77.654428891889097
 21
-2204.8614898246042
 31
0.0
  0
ARC
  5
88AB
  8
01
  6
BYBLOCK
 10
-75.654428891889097
 20
-2204.8614898246042
 30
0.0
 40
2.0
 50
180.0
 51
270.0
  0
ARC
  5
88AC
  8
01
  6
BYBLOCK
 10
-75.654428891890007
 20
-2201.8614898246042
 30
0.0
 40
5.0
 50
270.0
 51
298.07248693583432
  0
ARC
  5
88AD
  8
01
  6
BYBLOCK
 10
-67.654428891890007
 20
-2201.8614898246042
 30
0.0
 40
5.0
 50
241.92751306416571
 51
298.07248693583432
  0
ARC
  5
88AE
  8
01
  6
BYBLOCK
 10
-55.654428891889999
 20
-2209.3614898246042
 30
0.0
 40
3.5
 50
61.927513064165709
 51
118.07248693583431
  0
ARC
  5
88AF
  8
01
  6
BYBLOCK
 10
-59.654428891890007
 20
-2201.8614898246042
 30
0.0
 40
5.0
 50
241.92751306416571
 51
298.07248693583432
  0
ARC
  5
88B0
  8
01
  6
BYBLOCK
 10
-51.654428891890007
 20
-2201.8614898246042
 30
0.0
 40
5.0
 50
241.92751306416571
 51
298.07248693583432
  0
ARC
  5
88B1
  8
01
  6
BYBLOCK
 10
-31.65442889189001
 20
-2209.3614898246042
 30
0.0
 40
3.5
 50
61.927513064165709
 51
118.07248693583431
  0
ARC
  5
88B2
  8
01
  6
BYBLOCK
 10
-39.654428891890007
 20
-2209.3614898246042
 30
0.0
 40
3.5
 50
61.927513064165709
 51
118.07248693583431
  0
ARC
  5
88B3
  8
01
  6
BYBLOCK
 10
-43.654428891889999
 20
-2201.8614898246042
 30
0.0
 40
5.0
 50
241.92751306416571
 51
298.07248693583432
  0
ARC
  5
88B4
  8
01
  6
BYBLOCK
 10
-35.654428891890007
 20
-2201.8614898246042
 30
0.0
 40
5.0
 50
241.92751306416571
 51
298.07248693583432
  0
ARC
  5
88B5
  8
01
  6
BYBLOCK
 10
-23.65442889189001
 20
-2209.3614898246042
 30
0.0
 40
3.5
 50
61.927513064165709
 51
118.07248693583431
  0
ARC
  5
88B6
  8
01
  6
BYBLOCK
 10
-27.65442889189001
 20
-2201.8614898246042
 30
0.0
 40
5.0
 50
241.92751306416571
 51
298.07248693583432
  0
ARC
  5
88B7
  8
01
  6
BYBLOCK
 10
-19.65442889189001
 20
-2201.8614898246042
 30
0.0
 40
5.0
 50
241.92751306416571
 51
298.07248693583432
  0
ARC
  5
88B8
  8
01
  6
BYBLOCK
 10
0.3455711081074924
 20
-2209.3614898246042
 30
0.0
 40
3.5
 50
90.0
 51
118.07248693583431
  0
ARC
  5
88B9
  8
01
  6
BYBLOCK
 10
-7.6544288918915981
 20
-2209.3614898246042
 30
0.0
 40
3.5
 50
61.927513064165709
 51
118.07248693583431
  0
ARC
  5
88BA
  8
01
  6
BYBLOCK
 10
-11.65442889189069
 20
-2201.8614898246042
 30
0.0
 40
5.0
 50
241.92751306416571
 51
298.07248693583432
  0
ARC
  5
88BB
  8
01
  6
BYBLOCK
 10
-3.6544288918915981
 20
-2201.8614898246042
 30
0.0
 40
5.0
 50
241.92751306416571
 51
298.07248693583432
  0
LINE
  5
88BC
  8
01
  6
BYBLOCK
 10
15.84557110810772
 20
-2207.8614898246042
 30
0.0
 11
15.84557110810772
 21
-2198.8614898246042
 31
0.0
  0
LINE
  5
88BD
  8
01
  6
BYBLOCK
 10
17.345571108107041
 20
-2208.8614898246042
 30
0.0
 11
17.345571108107041
 21
-2209.3614898246042
 31
0.0
  0
ARC
  5
88BE
  8
01
  6
BYBLOCK
 10
16.845571108107041
 20
-2209.3614898246042
 30
0.0
 40
0.5
 50
270.0
 51
0.0
  0
ARC
  5
88BF
  8
01
  6
BYBLOCK
 10
16.845571108107041
 20
-2208.8614898246042
 30
0.0
 40
0.5
 50
0.0
 51
90.0
  0
LINE
  5
88C0
  8
01
  6
BYBLOCK
 10
16.845571108107041
 20
-2208.3614898246042
 30
0.0
 11
16.34557110810772
 21
-2208.3614898246042
 31
0.0
  0
LINE
  5
88C1
  8
01
  6
BYBLOCK
 10
8.8455711081074924
 20
-2171.259405586261
 30
0.0
 11
8.8455711081074924
 21
-2185.3709568057029
 31
0.0
  0
ARC
  5
88C2
  8
01
  6
BYBLOCK
 10
10.345571108107039
 20
-2195.8614898246042
 30
0.0
 40
1.0
 50
180.0
 51
270.0
  0
ARC
  5
88C3
  8
01
  6
BYBLOCK
 10
10.345571108107491
 20
-2189.6114898246051
 30
0.0
 40
1.0
 50
90.0
 51
180.0
  0
LINE
  5
88C4
  8
01
  6
BYBLOCK
 10
9.3455711081074924
 20
-2189.6114898246051
 30
0.0
 11
9.3455711081074924
 21
-2195.8614898246042
 31
0.0
  0
LINE
  5
88C5
  8
01
  6
BYBLOCK
 10
16.845571108107041
 20
-2196.8614898246042
 30
0.0
 11
10.345571108107039
 21
-2196.8614898246042
 31
0.0
  0
LINE
  5
88C6
  8
01
  6
BYBLOCK
 10
10.345571108107491
 20
-2188.6114898246042
 30
0.0
 11
16.845571108107489
 21
-2188.6114898246042
 31
0.0
  0
ARC
  5
88C7
  8
01
  6
BYBLOCK
 10
16.845571108107489
 20
-2188.1114898246042
 30
0.0
 40
0.5
 50
270.0
 51
0.0
  0
LINE
  5
88C8
  8
01
  6
BYBLOCK
 10
17.345571108107489
 20
-2187.1114898246042
 30
0.0
 11
17.345571108107489
 21
-2188.1114898246042
 31
0.0
  0
LINE
  5
88C9
  8
01
  6
BYBLOCK
 10
13.34557110810726
 20
-2164.3614898246042
 30
0.0
 11
7.3455711081074924
 21
-2164.3614898246042
 31
0.0
  0
LINE
  5
88CA
  8
01
  6
BYBLOCK
 10
12.845571108107491
 20
-2166.3614898246042
 30
0.0
 11
9.0872443780532421
 21
-2166.3614898246042
 31
0.0
  0
ARC
  5
88CB
  8
01
  6
BYBLOCK
 10
7.3455711081074924
 20
-2165.3614898246042
 30
0.0
 40
1.0
 50
90.0
 51
180.0
  0
ARC
  5
88CC
  8
01
  6
BYBLOCK
 10
14.34557110810726
 20
-2168.8614898246042
 30
0.0
 40
0.9999999999998864
 50
180.0
 51
0.0
  0
ARC
  5
88CD
  8
01
  6
BYBLOCK
 10
13.345571108107491
 20
-2166.3614898246042
 30
0.0
 40
2.0
 50
0.0
 51
90.0
  0
ARC
  5
88CE
  8
01
  6
BYBLOCK
 10
12.845571108107491
 20
-2166.8614898246042
 30
0.0
 40
0.5
 50
0.0
 51
90.0
  0
LINE
  5
88CF
  8
01
  6
BYBLOCK
 10
13.345571108107491
 20
-2166.8614898246042
 30
0.0
 11
13.345571108107491
 21
-2168.8614898246042
 31
0.0
  0
LINE
  5
88D0
  8
01
  6
BYBLOCK
 10
15.345571108107491
 20
-2166.3614898246042
 30
0.0
 11
15.345571108107491
 21
-2168.8614898246042
 31
0.0
  0
LINE
  5
88D1
  8
01
  6
BYBLOCK
 10
14.3455711081084
 20
-2186.6114898246042
 30
0.0
 11
16.845571108107489
 21
-2186.6114898246042
 31
0.0
  0
ARC
  5
88D2
  8
01
  6
BYBLOCK
 10
16.845571108107489
 20
-2187.1114898246042
 30
0.0
 40
0.5
 50
0.0
 51
90.0
1001
GENIUS_GENOBJ-N-FIL_13
1002
{
1000
OWNER
1000
GEN
1002
}
1001
GENIUS_GENODEF_13
1002
{
1000
HIER
1070
     0
1002
}
1002
{
1000
MANEDIT
1070
     0
1002
}
1002
{
1000
NOSEL
1070
     0
1002
}
1002
{
1000
BEHIND
1070
     0
1002
}
1002
{
1000
OTHER
1070
     0
1002
}
1002
{
1000
REACTOR
1002
}
  0
LINE
  5
88D3
  8
01
  6
BYBLOCK
 10
1.3455711081074919
 20
-2205.8614898246042
 30
0.0
 11
0.3455711081074924
 21
-2205.8614898246042
 31
0.0
  0
ARC
  5
88D4
  8
01
  6
BYBLOCK
 10
1.3455711081074919
 20
-2200.8614898246042
 30
0.0
 40
5.0
 50
270.0
 51
0.0
1001
GENIUS_GENOBJ-N-FIL_13
1002
{
1000
OWNER
1000
GEN
1002
}
1001
GENIUS_GENODEF_13
1002
{
1000
HIER
1070
     0
1002
}
1002
{
1000
MANEDIT
1070
     0
1002
}
1002
{
1000
NOSEL
1070
     0
1002
}
1002
{
1000
BEHIND
1070
     0
1002
}
1002
{
1000
OTHER
1070
     0
1002
}
1002
{
1000
REACTOR
1002
}
  0
ARC
  5
88D5
  8
01
  6
BYBLOCK
 10
16.34557110810772
 20
-2207.8614898246042
 30
0.0
 40
0.5
 50
180.0
 51
270.0
1001
GENIUS_GENOBJ-N-FIL_13
1002
{
1000
OWNER
1000
GEN
1002
}
1001
GENIUS_GENODEF_13
1002
{
1000
HIER
1070
     0
1002
}
1002
{
1000
MANEDIT
1070
     0
1002
}
1002
{
1000
NOSEL
1070
     0
1002
}
1002
{
1000
BEHIND
1070
     0
1002
}
1002
{
1000
OTHER
1070
     0
1002
}
1002
{
1000
REACTOR
1002
}
  0
ARC
  5
88D6
  8
01
  6
BYBLOCK
 10
16.845571108107041
 20
-2197.3614898246042
 30
0.0
 40
0.5
 50
0.0
 51
90.0
  0
ARC
  5
88D7
  8
01
  6
BYBLOCK
 10
16.845571108107041
 20
-2197.8614898246042
 30
0.0
 40
0.5
 50
270.0
 51
0.0
  0
LINE
  5
88D8
  8
01
  6
BYBLOCK
 10
17.345571108107041
 20
-2197.3614898246042
 30
0.0
 11
17.345571108107041
 21
-2197.8614898246042
 31
0.0
  0
LINE
  5
88D9
  8
01
  6
BYBLOCK
 10
16.845571108107041
 20
-2198.3614898246042
 30
0.0
 11
16.34557110810772
 21
-2198.3614898246042
 31
0.0
  0
ARC
  5
88DA
  8
01
  6
BYBLOCK
 10
16.34557110810772
 20
-2198.8614898246042
 30
0.0
 40
0.5
 50
90.0
 51
180.0
1001
GENIUS_GENOBJ-N-FIL_13
1002
{
1000
OWNER
1000
GEN
1002
}
1001
GENIUS_GENODEF_13
1002
{
1000
HIER
1070
     0
1002
}
1002
{
1000
MANEDIT
1070
     0
1002
}
1002
{
1000
NOSEL
1070
     0
1002
}
1002
{
1000
BEHIND
1070
     0
1002
}
1002
{
1000
OTHER
1070
     0
1002
}
1002
{
1000
REACTOR
1002
}
  0
ARC
  5
88DB
  8
01
  6
BYBLOCK
 10
14.34557110810726
 20
-2168.8614898246042
 30
0.0
 40
6.0
 50
157.29634373356151
 51
203.5564643091154
  0
ARC
  5
88DC
  8
01
  6
BYBLOCK
 10
9.0872443780532421
 20
-2166.6614898246039
 30
0.0
 40
0.3
 50
90.0
 51
157.29634373356151
  0
ARC
  5
88DD
  8
01
  6
BYBLOCK
 10
14.34557110810726
 20
-2168.8614898246042
 30
0.0
 40
17.75
 50
253.15072037719679
 51
270.0
  0
ARC
  5
88DE
  8
01
  6
BYBLOCK
 10
9.3455711081074924
 20
-2185.3709568057029
 30
0.0
 40
0.5
 50
180.0
 51
253.15072037719679
  0
LINE
  5
88DF
  8
01
 10
15.84557110810772
 20
-2199.4114898246039
 30
0.0
 11
16.34557110810772
 21
-2199.4114898246039
 31
0.0
  0
LINE
  5
88E0
  8
01
 10
16.34557110810772
 20
-2199.4114898246039
 30
0.0
 11
16.34557110810772
 21
-2207.311489824604
 31
0.0
  0
LINE
  5
88E1
  8
01
 10
15.84557110810772
 20
-2199.4114898246039
 30
0.0
 11
15.84557110810772
 21
-2207.311489824604
 31
0.0
  0
LINE
  5
88E2
  8
01
 10
15.84557110810772
 20
-2207.311489824604
 30
0.0
 11
16.34557110810772
 21
-2207.311489824604
 31
0.0
  0
ARC
  5
88E3
  8
01
 10
14.04557110810776
 20
-2203.3614898246042
 30
0.0
 40
4.0
 50
305.09963219541299
 51
54.900367804587063
  0
LINE
  5
8A9B
  8
1DIM
 10
-81.154428891889097
 20
-2209.3614898246042
 30
0.0
 11
-81.154428891889097
 21
-2230.8614898246042
 31
0.0
  0
LINE
  5
8A9C
  8
1DIM
 10
-77.654428891889097
 20
-2204.8614898246042
 30
0.0
 11
-77.654428891889097
 21
-2230.8614898246042
 31
0.0
  0
LINE
  5
8A9D
  8
1DIM
 10
-75.654428891889097
 20
-2229.8614898246042
 30
0.0
 11
-73.654428891889097
 21
-2229.8614898246042
 31
0.0
  0
LINE
  5
8A9E
  8
1DIM
 10
-83.154428891889097
 20
-2229.8614898246042
 30
0.0
 11
-95.304428891888847
 21
-2229.8614898246042
 31
0.0
  0
LINE
  5
8A9F
  8
1DIM
 10
-77.654428891889097
 20
-2229.8614898246042
 30
0.0
 11
-81.154428891889097
 21
-2229.8614898246042
 31
0.0
  0
LINE
  5
8AA3
  8
1DIM
 10
-110.9044288918888
 20
-2209.8614898246042
 30
0.0
 11
-89.904428891888884
 21
-2209.8614898246042
 31
0.0
  0
LINE
  5
8AA4
  8
1DIM
 10
-110.9044288918888
 20
-2164.3614898246042
 30
0.0
 11
-89.90442889188887
 21
-2164.3614898246042
 31
0.0
  0
LINE
  5
8AA5
  8
1DIM
 10
-90.90442889188887
 20
-2207.8614898246042
 30
0.0
 11
-90.90442889188887
 21
-2166.3614898246042
 31
0.0
  0
LINE
  5
8AA9
  8
1DIM
 10
-77.654428891889097
 20
-2204.8614898246042
 30
0.0
 11
-77.654428891889097
 21
-2230.8614898246042
 31
0.0
  0
LINE
  5
8AAA
  8
1DIM
 10
6.3455711081074924
 20
-2200.8614898246042
 30
0.0
 11
6.3455711081074897
 21
-2230.8614898246042
 31
0.0
  0
LINE
  5
8AAB
  8
1DIM
 10
-75.654428891889097
 20
-2229.8614898246042
 30
0.0
 11
4.3455711081074897
 21
-2229.8614898246042
 31
0.0
  0
LINE
  5
8AAF
  8
1DIM
 10
-81.154428891889097
 20
-2209.3614898246042
 30
0.0
 11
-81.154428891889097
 21
-2240.8614898246051
 31
0.0
  0
LINE
  5
8AB0
  8
1DIM
 10
18.045571108107762
 20
-2203.3614898246042
 30
0.0
 11
18.045571108107762
 21
-2240.8614898246051
 31
0.0
  0
LINE
  5
8AB1
  8
1DIM
 10
-79.154428891889097
 20
-2239.8614898246051
 30
0.0
 11
16.045571108107762
 21
-2239.8614898246051
 31
0.0
  0
LINE
  5
8AB5
  8
1DIM
 10
-350.90442889188881
 20
-2209.8614898246051
 30
0.0
 11
-350.90442889188881
 21
-2230.8614898246042
 31
0.0
  0
LINE
  5
8AB6
  8
1DIM
 10
-110.9044288918888
 20
-2209.8614898246042
 30
0.0
 11
-110.9044288918888
 21
-2230.8614898246042
 31
0.0
  0
LINE
  5
8AB7
  8
1DIM
 10
-348.90442889188881
 20
-2229.8614898246042
 30
0.0
 11
-112.9044288918888
 21
-2229.8614898246042
 31
0.0
  0
TEXT
  5
8ABB
  8
1HATCH
 10
-31.339553469782121
 20
-2180.5358656065519
 30
0.0
 40
3.5
  1
クリアバンポン
  0
SOLID
  5
8ABC
  8
1HATCH
 10
14.654335389335049
 20
-2198.5736411752669
 30
0.0
 11
15.702485595095711
 21
-2200.3092944405462
 31
0.0
 12
14.148077584690959
 22
-2199.0074008779611
 32
0.0
 13
14.148077584690959
 23
-2199.0074008779611
 33
0.0
  0
LINE
  5
8ABE
  8
1HATCH
 10
14.401206487013001
 20
-2198.790521026614
 30
0.0
 11
-0.6395534697822997
 21
-2181.2358656065521
 31
0.0
  0
LINE
  5
8ABF
  8
1HATCH
 10
-0.6395534697822997
 20
-2181.2358656065521
 30
0.0
 11
-36.006220136448981
 21
-2181.2358656065521
 31
0.0
  0
TEXT
  5
8AC0
  8
1DIM
 10
-235.27942889188881
 20
-2229.1614898246048
 30
0.0
 40
3.5
  1
240
  0
LINE
  5
8AC1
  8
0
  6
BYBLOCK
 10
-112.9044288918888
 20
-2229.325591444604
 30
0.0
 11
-110.9044288918888
 21
-2229.8614898246042
 31
0.0
  0
LINE
  5
8AC2
  8
0
  6
BYBLOCK
 10
-110.9044288918888
 20
-2229.8614898246042
 30
0.0
 11
-112.9044288918888
 21
-2230.3973882046039
 31
0.0
  0
LINE
  5
8AC3
  8
0
  6
BYBLOCK
 10
-110.9044288918888
 20
-2229.8614898246042
 30
0.0
 11
-112.9044288918888
 21
-2229.8614898246042
 31
0.0
  0
LINE
  5
8AC4
  8
0
  6
BYBLOCK
 10
-348.90442889188881
 20
-2230.3973882046039
 30
0.0
 11
-350.90442889188881
 21
-2229.8614898246042
 31
0.0
  0
LINE
  5
8AC5
  8
0
  6
BYBLOCK
 10
-350.90442889188881
 20
-2229.8614898246042
 30
0.0
 11
-348.90442889188881
 21
-2229.325591444604
 31
0.0
  0
LINE
  5
8AC6
  8
0
  6
BYBLOCK
 10
-350.90442889188881
 20
-2229.8614898246042
 30
0.0
 11
-348.90442889188881
 21
-2229.8614898246042
 31
0.0
  0
TEXT
  5
8AC7
  8
1DIM
 10
-34.47109555855733
 20
-2239.1614898246048
 30
0.0
 40
3.5
  1
99
  0
LINE
  5
8AC8
  8
0
  6
BYBLOCK
 10
16.045571108107762
 20
-2239.325591444604
 30
0.0
 11
18.045571108107762
 21
-2239.8614898246051
 31
0.0
  0
LINE
  5
8AC9
  8
0
  6
BYBLOCK
 10
18.045571108107762
 20
-2239.8614898246051
 30
0.0
 11
16.045571108107762
 21
-2240.3973882046048
 31
0.0
  0
LINE
  5
8ACA
  8
0
  6
BYBLOCK
 10
18.045571108107762
 20
-2239.8614898246051
 30
0.0
 11
16.045571108107762
 21
-2239.8614898246051
 31
0.0
  0
LINE
  5
8ACB
  8
0
  6
BYBLOCK
 10
-79.154428891889097
 20
-2240.3973882046048
 30
0.0
 11
-81.154428891889097
 21
-2239.8614898246051
 31
0.0
  0
LINE
  5
8ACC
  8
0
  6
BYBLOCK
 10
-81.154428891889097
 20
-2239.8614898246051
 30
0.0
 11
-79.154428891889097
 21
-2239.325591444604
 31
0.0
  0
LINE
  5
8ACD
  8
0
  6
BYBLOCK
 10
-81.154428891889097
 20
-2239.8614898246051
 30
0.0
 11
-79.154428891889097
 21
-2239.8614898246051
 31
0.0
  0
TEXT
  5
8ACE
  8
1DIM
 10
-38.571095558557467
 20
-2229.1614898246048
 30
0.0
 40
3.5
  1
84
  0
LINE
  5
8ACF
  8
0
  6
BYBLOCK
 10
4.3455711081074897
 20
-2229.325591444604
 30
0.0
 11
6.3455711081074897
 21
-2229.8614898246042
 31
0.0
  0
LINE
  5
8AD0
  8
0
  6
BYBLOCK
 10
6.3455711081074897
 20
-2229.8614898246042
 30
0.0
 11
4.3455711081074897
 21
-2230.3973882046039
 31
0.0
  0
LINE
  5
8AD1
  8
0
  6
BYBLOCK
 10
6.3455711081074897
 20
-2229.8614898246042
 30
0.0
 11
4.3455711081074897
 21
-2229.8614898246042
 31
0.0
  0
LINE
  5
8AD2
  8
0
  6
BYBLOCK
 10
-75.654428891889097
 20
-2230.3973882046039
 30
0.0
 11
-77.654428891889097
 21
-2229.8614898246042
 31
0.0
  0
LINE
  5
8AD3
  8
0
  6
BYBLOCK
 10
-77.654428891889097
 20
-2229.8614898246042
 30
0.0
 11
-75.654428891889097
 21
-2229.325591444604
 31
0.0
  0
LINE
  5
8AD4
  8
0
  6
BYBLOCK
 10
-77.654428891889097
 20
-2229.8614898246042
 30
0.0
 11
-75.654428891889097
 21
-2229.8614898246042
 31
0.0
  0
TEXT
  5
8AD5
  8
1DIM
 10
-91.604428891888517
 20
-2192.3614898246042
 30
0.0
 40
3.5
  1
45.5
 50
90.0
  0
LINE
  5
8AD6
  8
0
  6
BYBLOCK
 10
-91.440327271888876
 20
-2166.3614898246042
 30
0.0
 11
-90.90442889188887
 21
-2164.3614898246042
 31
0.0
  0
LINE
  5
8AD7
  8
0
  6
BYBLOCK
 10
-90.90442889188887
 20
-2164.3614898246042
 30
0.0
 11
-90.368530511888864
 21
-2166.3614898246042
 31
0.0
  0
LINE
  5
8AD8
  8
0
  6
BYBLOCK
 10
-90.90442889188887
 20
-2164.3614898246042
 30
0.0
 11
-90.90442889188887
 21
-2166.3614898246042
 31
0.0
  0
LINE
  5
8AD9
  8
0
  6
BYBLOCK
 10
-90.368530511888878
 20
-2207.8614898246042
 30
0.0
 11
-90.904428891888884
 21
-2209.8614898246042
 31
0.0
  0
LINE
  5
8ADA
  8
0
  6
BYBLOCK
 10
-90.904428891888884
 20
-2209.8614898246042
 30
0.0
 11
-91.44032727188889
 21
-2207.8614898246042
 31
0.0
  0
LINE
  5
8ADB
  8
0
  6
BYBLOCK
 10
-90.904428891888884
 20
-2209.8614898246042
 30
0.0
 11
-90.904428891888884
 21
-2207.8614898246042
 31
0.0
  0
TEXT
  5
8ADC
  8
1DIM
 10
-94.437762225222173
 20
-2229.1614898246048
 30
0.0
 40
3.5
  1
3.5
  0
LINE
  5
8ADD
  8
0
  6
BYBLOCK
 10
-83.154428891889097
 20
-2229.325591444604
 30
0.0
 11
-81.154428891889097
 21
-2229.8614898246042
 31
0.0
  0
LINE
  5
8ADE
  8
0
  6
BYBLOCK
 10
-81.154428891889097
 20
-2229.8614898246042
 30
0.0
 11
-83.154428891889097
 21
-2230.3973882046039
 31
0.0
  0
LINE
  5
8ADF
  8
0
  6
BYBLOCK
 10
-81.154428891889097
 20
-2229.8614898246042
 30
0.0
 11
-83.154428891889097
 21
-2229.8614898246042
 31
0.0
  0
LINE
  5
8AE0
  8
0
  6
BYBLOCK
 10
-75.654428891889097
 20
-2230.3973882046039
 30
0.0
 11
-77.654428891889097
 21
-2229.8614898246042
 31
0.0
  0
LINE
  5
8AE1
  8
0
  6
BYBLOCK
 10
-77.654428891889097
 20
-2229.8614898246042
 30
0.0
 11
-75.654428891889097
 21
-2229.325591444604
 31
0.0
  0
LINE
  5
8AE2
  8
0
  6
BYBLOCK
 10
-77.654428891889097
 20
-2229.8614898246042
 30
0.0
 11
-75.654428891889097
 21
-2229.8614898246042
 31
0.0
  0
VIEWPORT
  5
57
 67
     1
  8
0
 10
-3.5496713333164962
 20
14.18057439074232
 30
0.0
 40
411.09823948287749
 41
291.07223563385878
 68
     1
 69
     1
1001
ACAD
1000
MVIEW
1002
{
1070
    16
1010
0.0
1020
0.0
1030
0.0
1010
0.0
1020
0.0
1030
1.0
1040
0.0
1040
291.07223563385878
1040
-3.5496713333164962
1040
14.18057439074232
1040
50.0
1040
0.0
1040
0.0
1070
     0
1070
   100
1070
     1
1070
     1
1070
     0
1070
     0
1070
     0
1070
     0
1040
0.0
1040
0.0
1040
0.0
1040
10.0
1040
10.0
1040
10.0
1040
10.0
1070
     0
1002
{
1002
}
1002
}
  0
ENDSEC
  0
EOF
