  0
SECTION
  2
HEADER
  9
$ACADVER
  1
AC1009
  9
$DWGCODEPAGE
  3
ansi_932
  9
$INSBASE
 10
0.0
 20
0.0
 30
0.0
  9
$EXTMIN
 10
184.0156862752337
 20
-756.0922744802328
 30
0.0
  9
$EXTMAX
 10
814.7634808269089
 20
-467.4500854775896
 30
0.0
  9
$LIMMIN
 10
0.0
 20
0.0
  9
$LIMMAX
 10
420.0
 20
297.0
  9
$ORTHOMODE
 70
     0
  9
$REGENMODE
 70
     1
  9
$FILLMODE
 70
     1
  9
$QTEXTMODE
 70
     0
  9
$MIRRTEXT
 70
     0
  9
$DRAGMODE
 70
     2
  9
$LTSCALE
 40
0.5
  9
$OSMODE
 70
 14591
  9
$ATTMODE
 70
     1
  9
$TEXTSIZE
 40
4.0
  9
$TRACEWID
 40
1.0
  9
$TEXTSTYLE
  7
STANDARD
  9
$CLAYER
  8
1TEXT
  9
$CELTYPE
  6
BYLAYER
  9
$CECOLOR
 62
   256
  9
$DIMSCALE
 40
1.0
  9
$DIMASZ
 40
2.0
  9
$DIMEXO
 40
0.0
  9
$DIMDLI
 40
7.0
  9
$DIMRND
 40
0.0
  9
$DIMDLE
 40
0.0
  9
$DIMEXE
 40
1.0
  9
$DIMTP
 40
0.0
  9
$DIMTM
 40
0.0
  9
$DIMTXT
 40
3.5
  9
$DIMCEN
 40
0.0
  9
$DIMTSZ
 40
0.0
  9
$DIMTOL
 70
     0
  9
$DIMLIM
 70
     0
  9
$DIMTIH
 70
     0
  9
$DIMTOH
 70
     0
  9
$DIMSE1
 70
     0
  9
$DIMSE2
 70
     0
  9
$DIMTAD
 70
     1
  9
$DIMZIN
 70
     8
  9
$DIMBLK
  1

  9
$DIMASO
 70
     1
  9
$DIMSHO
 70
     1
  9
$DIMPOST
  1
 
  9
$DIMAPOST
  1

  9
$DIMALT
 70
     0
  9
$DIMALTD
 70
     2
  9
$DIMALTF
 40
25.4
  9
$DIMLFAC
 40
1.0
  9
$DIMTOFL
 70
     1
  9
$DIMTVP
 40
0.0
  9
$DIMTIX
 70
     0
  9
$DIMSOXD
 70
     0
  9
$DIMSAH
 70
     1
  9
$DIMBLK1
  1
OPEN30
  9
$DIMBLK2
  1
OPEN30
  9
$DIMSTYLE
  2
NEWX10
  9
$DIMCLRD
 70
   256
  9
$DIMCLRE
 70
   256
  9
$DIMCLRT
 70
   201
  9
$DIMTFAC
 40
0.7
  9
$DIMGAP
 40
0.7
  9
$LUNITS
 70
     2
  9
$LUPREC
 70
     4
  9
$SKETCHINC
 40
1.0
  9
$FILLETRAD
 40
0.0
  9
$AUNITS
 70
     0
  9
$AUPREC
 70
     2
  9
$MENU
  1
acad
  9
$ELEVATION
 40
0.0
  9
$PELEVATION
 40
0.0
  9
$THICKNESS
 40
0.0
  9
$LIMCHECK
 70
     0
  9
$CHAMFERA
 40
1.0
  9
$CHAMFERB
 40
1.0
  9
$SKPOLY
 70
     0
  9
$TDCREATE
 40
2453033.732663484
  9
$TDUPDATE
 40
2459783.683239514
  9
$TDINDWG
 40
2.7370917593
  9
$TDUSRTIMER
 40
2.7370917708
  9
$USRTIMER
 70
     1
  9
$ANGBASE
 50
0.0
  9
$ANGDIR
 70
     0
  9
$PDMODE
 70
     0
  9
$PDSIZE
 40
0.0
  9
$PLINEWID
 40
0.0
  9
$COORDS
 70
     2
  9
$SPLFRAME
 70
     0
  9
$SPLINETYPE
 70
     6
  9
$SPLINESEGS
 70
     8
  9
$ATTDIA
 70
     0
  9
$ATTREQ
 70
     1
  9
$HANDLING
 70
     1
  9
$HANDSEED
  5
26DFC
  9
$SURFTAB1
 70
     6
  9
$SURFTAB2
 70
     6
  9
$SURFTYPE
 70
     6
  9
$SURFU
 70
     6
  9
$SURFV
 70
     6
  9
$UCSNAME
  2

  9
$UCSORG
 10
0.0
 20
0.0
 30
0.0
  9
$UCSXDIR
 10
1.0
 20
0.0
 30
0.0
  9
$UCSYDIR
 10
0.0
 20
1.0
 30
0.0
  9
$PUCSNAME
  2

  9
$PUCSORG
 10
0.0
 20
0.0
 30
0.0
  9
$PUCSXDIR
 10
1.0
 20
0.0
 30
0.0
  9
$PUCSYDIR
 10
0.0
 20
1.0
 30
0.0
  9
$USERI1
 70
     0
  9
$USERI2
 70
     0
  9
$USERI3
 70
     0
  9
$USERI4
 70
     0
  9
$USERI5
 70
     0
  9
$USERR1
 40
0.0
  9
$USERR2
 40
0.0
  9
$USERR3
 40
0.0
  9
$USERR4
 40
0.0
  9
$USERR5
 40
0.0
  9
$WORLDVIEW
 70
     1
  9
$SHADEDGE
 70
     3
  9
$SHADEDIF
 70
    70
  9
$TILEMODE
 70
     1
  9
$MAXACTVP
 70
    48
  9
$PLIMCHECK
 70
     0
  9
$PEXTMIN
 10
1.000000000000000E+20
 20
1.000000000000000E+20
 30
1.000000000000000E+20
  9
$PEXTMAX
 10
-1.000000000000000E+20
 20
-1.000000000000000E+20
 30
-1.000000000000000E+20
  9
$PLIMMIN
 10
0.0
 20
0.0
  9
$PLIMMAX
 10
420.0
 20
297.0
  9
$UNITMODE
 70
     0
  9
$VISRETAIN
 70
     1
  9
$PLINEGEN
 70
     0
  9
$PSLTSCALE
 70
     1
  0
ENDSEC
  0
SECTION
  2
TABLES
  0
TABLE
  2
VPORT
 70
     1
  0
VPORT
  2
*ACTIVE
 70
     0
 10
0.0
 20
0.0
 11
1.0
 21
1.0
 12
499.3895835510714
 22
-611.7711799789113
 13
0.0
 23
0.0
 14
10.0
 24
10.0
 15
10.0
 25
10.0
 16
0.0
 26
0.0
 36
1.0
 17
0.0
 27
0.0
 37
0.0
 40
362.8144035283473
 41
1.866585067319461
 42
50.0
 43
0.0
 44
0.0
 50
0.0
 51
0.0
 71
    16
 72
   100
 73
     1
 74
     1
 75
     0
 76
     0
 77
     0
 78
     0
  0
ENDTAB
  0
TABLE
  2
LTYPE
 70
    18
  0
LTYPE
  2
CONTINUOUS
 70
     0
  3
Solid line
 72
    65
 73
     0
 40
0.0
  0
LTYPE
  2
CENTER2
 70
     0
  3
Center (.5x) ___ _ ___ _ ___ _ ___ _ ___ _ ___
 72
    65
 73
     4
 40
28.575
 49
19.05
 49
-3.175
 49
3.175
 49
-3.175
  0
LTYPE
  2
PHANTOM2
 70
     0
  3
Phantom (0.5x) ___ _ _ ___ _ _ ___ _ _ ___ _ _
 72
    65
 73
     6
 40
31.75
 49
15.875
 49
-3.175
 49
3.175
 49
-3.175
 49
3.175
 49
-3.175
  0
ENDTAB
  0
TABLE
  2
LAYER
 70
    45
  0
LAYER
  2
0
 70
     0
 62
     7
  6
CONTINUOUS
  0
LAYER
  2
1CENTER
 70
     0
 62
     7
  6
CENTER2
  0
LAYER
  2
1TEXT
 70
     0
 62
     7
  6
CONTINUOUS
  0
LAYER
  2
1DIM
 70
     0
 62
     7
  6
CONTINUOUS
  0
LAYER
  2
1PHANTOM
 70
     0
 62
     7
  6
PHANTOM2
  0
LAYER
  2
01
 70
     0
 62
     1
  6
CONTINUOUS
  0
LAYER
  2
1DIM1
 70
     0
 62
     7
  6
CONTINUOUS
  0
LAYER
  2
1HATCH
 70
     0
 62
     7
  6
CONTINUOUS
  0
ENDTAB
  0
TABLE
  2
STYLE
 70
    25
  0
STYLE
  2
STANDARD
 70
     0
 40
0.0
 41
1.0
 50
0.0
 71
     0
 42
4.0
  3
txt.shx
  4
extfont.shx
  0
ENDTAB
  0
TABLE
  2
VIEW
 70
     0
  0
ENDTAB
  0
TABLE
  2
UCS
 70
     0
  0
ENDTAB
  0
TABLE
  2
APPID
 70
    17
  0
APPID
  2
ACAD
 70
     0
  0
APPID
  2
DRAWINGVARIABLESXDATA
 70
     0
  0
APPID
  2
CONTENTTABDATA
 70
     0
  0
APPID
  2
CONTENTCURRENTTAB
 70
     0
  0
APPID
  2
CONTENTBLOCKDESCRIPTION
 70
     0
  0
APPID
  2
CONTENTBLOCKICON
 70
     0
  0
APPID
  2
CONTENTLONGBLOCKNAME
 70
     0
  0
APPID
  2
ACAD_PSEXT
 70
     0
  0
APPID
  2
ACAD_DSTYLE_DIMTEXT_FILL
 70
     0
  0
APPID
  2
ACAD_MLEADERVER
 70
     0
  0
APPID
  2
ACAD_DSTYLE_DIMRADIAL_EXTE
 70
     0
  0
APPID
  2
ACADANNOTATIVE
 70
     0
  0
APPID
  2
ACAD_EXEMPT_FROM_CAD_STAND
 70
     0
  0
APPID
  2
ACDBBLOCKREPETAG
 70
     0
  0
APPID
  2
ACAD_OBJECT_CHANGE_GUID
 70
     0
  0
APPID
  2
ACAD_NAV_VCDISPLAY
 70
     0
  0
APPID
  2
ACLAYERTOOLS
 70
     0
  0
ENDTAB
  0
TABLE
  2
DIMSTYLE
 70
    11
  0
DIMSTYLE
  2
NEWX10
 70
     0
  3
 
  4

  5

  6
OPEN30
  7
OPEN30
 40
1.0
 41
2.0
 42
0.0
 43
7.0
 44
1.0
 45
0.0
 46
0.0
 47
0.0
 48
0.0
140
3.5
141
0.0
142
0.0
143
25.4
144
1.0
145
0.0
146
0.7
147
0.7
 71
     0
 72
     0
 73
     0
 74
     0
 75
     0
 76
     0
 77
     1
 78
     8
170
     0
171
     2
172
     1
173
     1
174
     0
175
     0
176
   256
177
   256
178
   201
  0
DIMSTYLE
  2
ISO-25
 70
     0
  3

  4

  5

  6

  7

 40
1.0
 41
20.0
 42
3.0
 43
3.75
 44
2.0
 45
0.0
 46
0.0
 47
0.0
 48
0.0
140
30.0
141
5.0
142
0.0
143
0.03937
144
1.0
145
0.0
146
1.0
147
8.0
 71
     0
 72
     0
 73
     0
 74
     0
 75
     0
 76
     0
 77
     1
 78
     8
170
     0
171
     3
172
     1
173
     0
174
     0
175
     0
176
     1
177
     1
178
     1
  0
ENDTAB
  0
ENDSEC
  0
SECTION
  2
BLOCKS
  0
BLOCK
  8
0
  2
$MODEL_SPACE
 70
     0
 10
0.0
 20
0.0
 30
0.0
  3
$MODEL_SPACE
  1

  0
ENDBLK
  5
1A
  8
0
  0
BLOCK
 67
     1
  8
0
  2
$PAPER_SPACE
 70
     0
 10
0.0
 20
0.0
 30
0.0
  3
$PAPER_SPACE
  1

  0
ENDBLK
  5
17
 67
     1
  8
0
  0
BLOCK
  8
0
  2
_OPEN30
 70
     0
 10
0.0
 20
0.0
 30
0.0
  3
_OPEN30
  1

  0
LINE
  5
44
  8
0
  6
BYBLOCK
 62
     0
 10
-1.0
 20
0.26794919
 30
0.0
 11
0.0
 21
0.0
 31
0.0
  0
LINE
  5
45
  8
0
  6
BYBLOCK
 62
     0
 10
0.0
 20
0.0
 30
0.0
 11
-1.0
 21
-0.26794919
 31
0.0
  0
LINE
  5
46
  8
0
  6
BYBLOCK
 62
     0
 10
0.0
 20
0.0
 30
0.0
 11
-1.0
 21
0.0
 31
0.0
  0
ENDBLK
  5
47
  8
0
  0
BLOCK
  8
0
  2
A3WAKUKAWAJUN2017_HYOUDAI_
 70
     0
 10
0.0
 20
0.0
 30
0.0
  3
A3WAKUKAWAJUN2017_HYOUDAI_
  1

  0
LINE
  5
20318
  8
0
 10
13.26299999998673
 20
-0.0001000000000317
 30
0.0
 11
9.236999999990758
 21
8.999899999990987
 31
0.0
1001
ACAD
1000
ASC_BOUNDS
1002
{
1070
    19
1005
20359
1002
}
  0
LINE
  5
20319
  8
0
 10
5.657999999994331
 20
0.9999999999989768
 30
0.0
 11
9.236999999990758
 21
8.999999999991019
 31
0.0
1001
ACAD
1000
ASC_BOUNDS
1002
{
1070
    19
1005
20359
1002
}
  0
LINE
  5
2031A
  8
0
 10
18.59199999998134
 20
-0.2368999999997641
 30
0.0
 11
16.46099999998353
 21
5.432899999994561
 31
0.0
1001
ACAD
1000
ASC_BOUNDS
1002
{
1070
    19
1005
2035A
1002
}
  0
LINE
  5
2031B
  8
0
 10
18.59199999998134
 20
-0.2368999999997641
 30
0.0
 11
22.38199999997767
 21
8.763099999991255
 31
0.0
1001
ACAD
1000
ASC_BOUNDS
1002
{
1070
    19
1005
2035A
1002
}
  0
LINE
  5
2031C
  8
0
 10
14.32899999998563
 20
-0.2368999999997641
 30
0.0
 11
16.46099999998353
 21
5.432899999994561
 31
0.0
1001
ACAD
1000
ASC_BOUNDS
1002
{
1070
    19
1005
2035A
1002
}
  0
LINE
  5
2031D
  8
0
 10
14.32899999998563
 20
-0.2368999999997641
 30
0.0
 11
10.53899999998941
 21
8.763099999991255
 31
0.0
1001
ACAD
1000
ASC_BOUNDS
1002
{
1070
    19
1005
2035A
1002
}
  0
LINE
  5
2031E
  8
0
 10
19.53899999998043
 20
-0.0001000000000317
 30
0.0
 11
23.56599999997638
 21
8.999899999990987
 31
0.0
1001
ACAD
1000
ASC_BOUNDS
1002
{
1070
    19
1005
2035B
1002
}
  0
LINE
  5
2031F
  8
0
 10
26.97358892824991
 20
1.383099999991202
 30
0.0
 11
23.56599999997638
 21
8.999899999990987
 31
0.0
1001
ACAD
1000
ASC_BOUNDS
1002
{
1070
    19
1005
2035B
1002
}
  0
LINE
  5
20320
  8
0
 10
5.657999999994331
 20
0.9999999999989768
 30
0.0
 11
3.181999999996833
 21
4.668599999995308
 31
0.0
1001
ACAD
1000
ASC_BOUNDS
1002
{
1070
    19
1005
20359
1002
}
  0
LINE
  5
20321
  8
0
 10
4.617999999995391
 20
-0.0001000000000317
 30
0.0
 11
1.420999999998571
 21
4.736799999995242
 31
0.0
1001
ACAD
1000
ASC_BOUNDS
1002
{
1070
    19
1005
20359
1002
}
  0
LINE
  5
20322
  8
0
 10
1.420999999998571
 20
8.763099999991255
 30
0.0
 11
1.420999999998571
 21
0.0
 31
0.0
1001
ACAD
1000
ASC_BOUNDS
1002
{
1070
    19
1005
2035E
1002
}
  0
LINE
  5
20323
  8
0
 10
0.0
 20
8.763099999991255
 30
0.0
 11
0.0
 21
0.0
 31
0.0
1001
ACAD
1000
ASC_BOUNDS
1002
{
1070
    19
1005
2035E
1002
}
  0
LINE
  5
20324
  8
0
 10
6.766999999993232
 20
-0.0001000000000317
 30
0.0
 11
7.826999999992154
 21
2.368399999997621
 31
0.0
1001
ACAD
1000
ASC_BOUNDS
1002
{
1070
    19
1005
20359
1002
}
  0
LINE
  5
20325
  8
0
 10
0.0
 20
0.0
 30
0.0
 11
1.420999999998571
 21
0.0
 31
0.0
1001
ACAD
1000
ASC_BOUNDS
1002
{
1070
    19
1005
2035E
1002
}
  0
LINE
  5
20326
  8
0
 10
4.617999999995391
 20
0.0
 30
0.0
 11
6.766999999993232
 21
0.0
 31
0.0
1001
ACAD
1000
ASC_BOUNDS
1002
{
1070
    19
1005
20359
1002
}
  0
LINE
  5
20327
  8
0
 10
11.70599999998831
 20
-0.0001000000000317
 30
0.0
 11
10.64699999998936
 21
2.368399999997621
 31
0.0
1001
ACAD
1000
ASC_BOUNDS
1002
{
1070
    19
1005
20359
1002
}
  0
LINE
  5
20328
  8
0
 10
7.826999999992154
 20
2.368399999997621
 30
0.0
 11
10.64699999998936
 21
2.368399999997621
 31
0.0
1001
ACAD
1000
ASC_BOUNDS
1002
{
1070
    19
1005
20359
1002
}
  0
LINE
  5
20329
  8
0
 10
11.70599999998831
 20
0.0
 30
0.0
 11
13.26299999998673
 21
0.0
 31
0.0
1001
ACAD
1000
ASC_BOUNDS
1002
{
1070
    19
1005
20359
1002
}
  0
LINE
  5
2032A
  8
0
 10
22.15599999997789
 20
2.368399999997621
 30
0.0
 11
24.97599999997499
 21
2.368399999997621
 31
0.0
1001
ACAD
1000
ASC_BOUNDS
1002
{
1070
    19
1005
2035B
1002
}
  0
LINE
  5
2032B
  8
0
 10
19.53899999998043
 20
0.0
 30
0.0
 11
21.09599999997886
 21
0.0
 31
0.0
1001
ACAD
1000
ASC_BOUNDS
1002
{
1070
    19
1005
2035B
1002
}
  0
LINE
  5
2032C
  8
0
 10
21.09599999997886
 20
-0.0001000000000317
 30
0.0
 11
22.15599999997789
 21
2.368399999997621
 31
0.0
1001
ACAD
1000
ASC_BOUNDS
1002
{
1070
    19
1005
2035B
1002
}
  0
LINE
  5
2032D
  8
0
 10
26.02015566812236
 20
0.0330999999912365
 30
0.0
 11
24.97599999997499
 21
2.368399999997621
 31
0.0
1001
ACAD
1000
ASC_BOUNDS
1002
{
1070
    19
1005
2035B
1002
}
  0
LINE
  5
2032E
  8
0
 10
14.32399999998563
 20
3.315799999996671
 30
0.0
 11
16.46099999998353
 21
8.999899999990987
 31
0.0
1001
ACAD
1000
ASC_BOUNDS
1002
{
1070
    19
1005
2035A
1002
}
  0
LINE
  5
2032F
  8
0
 10
6.432999999993513
 20
8.763099999991255
 30
0.0
 11
3.181999999996833
 21
4.668599999995308
 31
0.0
1001
ACAD
1000
ASC_BOUNDS
1002
{
1070
    19
1005
20359
1002
}
  0
LINE
  5
20330
  8
0
 10
4.617999999995391
 20
8.763099999991255
 30
0.0
 11
1.420999999998571
 21
4.736799999995242
 31
0.0
1001
ACAD
1000
ASC_BOUNDS
1002
{
1070
    19
1005
20359
1002
}
  0
LINE
  5
20331
  8
0
 10
0.0
 20
8.763099999991255
 30
0.0
 11
1.420999999998571
 21
8.763099999991255
 31
0.0
1001
ACAD
1000
ASC_BOUNDS
1002
{
1070
    19
1005
2035E
1002
}
  0
LINE
  5
20332
  8
0
 10
4.617999999995391
 20
8.763099999991255
 30
0.0
 11
6.432999999993513
 21
8.763099999991255
 31
0.0
1001
ACAD
1000
ASC_BOUNDS
1002
{
1070
    19
1005
20359
1002
}
  0
LINE
  5
20333
  8
0
 10
14.32399999998563
 20
3.315799999996671
 30
0.0
 11
12.02999999998792
 21
8.763099999991255
 31
0.0
1001
ACAD
1000
ASC_BOUNDS
1002
{
1070
    19
1005
2035A
1002
}
  0
LINE
  5
20334
  8
0
 10
10.06399999998996
 20
3.670999999996297
 30
0.0
 11
9.236999999990758
 21
5.5200999999945
 31
0.0
1001
ACAD
1000
ASC_BOUNDS
1002
{
1070
    19
1005
20359
1002
}
  0
LINE
  5
20335
  8
0
 10
8.409999999991555
 20
3.670999999996297
 30
0.0
 11
9.236999999990758
 21
5.5200999999945
 31
0.0
1001
ACAD
1000
ASC_BOUNDS
1002
{
1070
    19
1005
20359
1002
}
  0
LINE
  5
20336
  8
0
 10
8.409999999991555
 20
3.670999999996297
 30
0.0
 11
10.06399999998996
 21
3.670999999996297
 31
0.0
1001
ACAD
1000
ASC_BOUNDS
1002
{
1070
    19
1005
20359
1002
}
  0
LINE
  5
20337
  8
0
 10
10.53899999998941
 20
8.763099999991255
 30
0.0
 11
12.02999999998792
 21
8.763099999991255
 31
0.0
1001
ACAD
1000
ASC_BOUNDS
1002
{
1070
    19
1005
2035A
1002
}
  0
LINE
  5
20338
  8
0
 10
22.7389999999773
 20
3.670999999996297
 30
0.0
 11
23.56599999997638
 21
5.5200999999945
 31
0.0
1001
ACAD
1000
ASC_BOUNDS
1002
{
1070
    19
1005
2035B
1002
}
  0
LINE
  5
20339
  8
0
 10
22.7389999999773
 20
3.670999999996297
 30
0.0
 11
24.39299999997559
 21
3.670999999996297
 31
0.0
1001
ACAD
1000
ASC_BOUNDS
1002
{
1070
    19
1005
2035B
1002
}
  0
LINE
  5
2033A
  8
0
 10
18.59799999998143
 20
3.315799999996671
 30
0.0
 11
20.89099999997916
 21
8.763099999991255
 31
0.0
1001
ACAD
1000
ASC_BOUNDS
1002
{
1070
    19
1005
2035A
1002
}
  0
LINE
  5
2033B
  8
0
 10
18.59799999998143
 20
3.315799999996671
 30
0.0
 11
16.46099999998353
 21
8.999899999990987
 31
0.0
1001
ACAD
1000
ASC_BOUNDS
1002
{
1070
    19
1005
2035A
1002
}
  0
LINE
  5
2033C
  8
0
 10
20.89099999997916
 20
8.763099999991255
 30
0.0
 11
22.38199999997767
 21
8.763099999991255
 31
0.0
1001
ACAD
1000
ASC_BOUNDS
1002
{
1070
    19
1005
2035A
1002
}
  0
LINE
  5
2033D
  8
0
 10
24.39299999997559
 20
3.670999999996297
 30
0.0
 11
23.56599999997638
 21
5.5200999999945
 31
0.0
1001
ACAD
1000
ASC_BOUNDS
1002
{
1070
    19
1005
2035B
1002
}
  0
LINE
  5
2033E
  8
0
 10
44.99999999995498
 20
-0.2368999999997641
 30
0.0
 11
40.02599999995994
 21
5.341799999994635
 31
0.0
1001
ACAD
1000
ASC_BOUNDS
1002
{
1070
    19
1005
2035D
1002
}
  0
LINE
  5
2033F
  8
0
 10
40.02599999995994
 20
5.341799999994635
 30
0.0
 11
40.02599999995994
 21
0.0
 31
0.0
1001
ACAD
1000
ASC_BOUNDS
1002
{
1070
    19
1005
2035D
1002
}
  0
LINE
  5
20340
  8
0
 10
38.60499999996136
 20
8.999999999991019
 30
0.0
 11
38.60499999996136
 21
0.0
 31
0.0
1001
ACAD
1000
ASC_BOUNDS
1002
{
1070
    19
1005
2035D
1002
}
  0
LINE
  5
20341
  8
0
 10
44.99999999995498
 20
8.763099999991255
 30
0.0
 11
44.99999999995498
 21
-0.2368999999997641
 31
0.0
1001
ACAD
1000
ASC_BOUNDS
1002
{
1070
    19
1005
2035D
1002
}
  0
LINE
  5
20342
  8
0
 10
38.60499999996136
 20
0.0
 30
0.0
 11
40.02599999995994
 21
0.0
 31
0.0
1001
ACAD
1000
ASC_BOUNDS
1002
{
1070
    19
1005
2035D
1002
}
  0
LINE
  5
20343
  8
0
 10
43.57899999995641
 20
3.421199999996588
 30
0.0
 11
38.60499999996136
 21
8.999899999990987
 31
0.0
1001
ACAD
1000
ASC_BOUNDS
1002
{
1070
    19
1005
2035D
1002
}
  0
LINE
  5
20344
  8
0
 10
43.57899999995641
 20
8.763099999991255
 30
0.0
 11
43.57899999995641
 21
3.421199999996588
 31
0.0
1001
ACAD
1000
ASC_BOUNDS
1002
{
1070
    19
1005
2035D
1002
}
  0
LINE
  5
20345
  8
0
 10
43.57899999995641
 20
8.763099999991255
 30
0.0
 11
44.99999999995498
 21
8.763099999991255
 31
0.0
1001
ACAD
1000
ASC_BOUNDS
1002
{
1070
    19
1005
2035D
1002
}
  0
LINE
  5
20346
  8
0
 10
37.67199999996831
 20
8.763099999991255
 30
0.0
 11
36.23199999996837
 21
8.763099999991255
 31
0.0
  0
LINE
  5
20347
  8
0
 10
31.64199999996833
 20
8.763099999991255
 30
0.0
 11
31.64199999996833
 21
2.481619422925121
 31
0.0
  0
LINE
  5
20348
  8
0
 10
37.67199999996831
 20
8.763099999991255
 30
0.0
 11
37.67199999996831
 21
2.481619422925121
 31
0.0
  0
LINE
  5
20349
  8
0
 10
36.23199999996837
 20
8.763099999991255
 30
0.0
 11
36.23199999996837
 21
2.481619422925064
 31
0.0
  0
LINE
  5
2034A
  8
0
 10
33.08199999996839
 20
8.763099999991255
 30
0.0
 11
33.08199999996839
 21
2.481619422925121
 31
0.0
  0
ARC
  5
2034B
  8
0
 10
34.65699999996832
 20
3.183099999991214
 30
0.0
 40
3.420000000000007
 50
240.0000000000255
 51
299.9999999999766
  0
ARC
  5
2034C
  8
0
 10
34.65699999996832
 20
3.183099999991214
 30
0.0
 40
1.97999999999999
 50
240.000000000026
 51
299.9999999999703
  0
LINE
  5
2034D
  8
0
 10
33.08199999996828
 20
8.763099999991255
 30
0.0
 11
31.64199999996833
 21
8.763099999991255
 31
0.0
  0
ARC
  5
2034E
  8
0
 10
35.06199999996829
 20
2.481619422925064
 30
0.0
 40
1.17
 50
299.9999999999699
 51
0.0
  0
ARC
  5
2034F
  8
0
 10
34.25199999996835
 20
2.481619422925121
 30
0.0
 40
1.17
 50
180.0
 51
240.0000000000238
  0
ARC
  5
20350
  8
0
 10
35.06199999996841
 20
2.481619422925121
 30
0.0
 40
2.61
 50
299.9999999999756
 51
0.0
  0
ARC
  5
20351
  8
0
 10
34.25199999996835
 20
2.481619422925121
 30
0.0
 40
2.61
 50
180.0
 51
240.0000000000244
  0
LINE
  5
20352
  8
0
 10
29.30199999996933
 20
8.763099999991255
 30
0.0
 11
30.74199999996927
 21
8.763099999991255
 31
0.0
1001
ACAD
1000
ASC_BOUNDS
1002
{
1070
    19
1005
2035B
1002
}
  0
LINE
  5
20353
  8
0
 10
30.74199999996927
 20
8.763099999991255
 30
0.0
 11
30.74199999996927
 21
2.373099999991211
 31
0.0
1001
ACAD
1000
ASC_BOUNDS
1002
{
1070
    19
1005
2035B
1002
}
  0
LINE
  5
20354
  8
0
 10
26.02015566812236
 20
0.0330999999912365
 30
0.0
 11
28.40199999996923
 21
0.0330999999912365
 31
0.0
1001
ACAD
1000
ASC_BOUNDS
1002
{
1070
    19
1005
2035B
1002
}
  0
LINE
  5
20355
  8
0
 10
29.30199999996933
 20
8.763099999991255
 30
0.0
 11
29.30199999996933
 21
2.283099999991236
 31
0.0
1001
ACAD
1000
ASC_BOUNDS
1002
{
1070
    19
1005
2035B
1002
}
  0
LINE
  5
20356
  8
0
 10
26.97358892824991
 20
1.383099999991202
 30
0.0
 11
28.40199999996923
 21
1.383099999991202
 31
0.0
1001
ACAD
1000
ASC_BOUNDS
1002
{
1070
    19
1005
2035B
1002
}
  0
ARC
  5
20357
  8
0
 10
28.40199999996923
 20
2.283099999991236
 30
0.0
 40
0.9
 50
270.0
 51
0.0
1001
ACAD
1000
ASC_BOUNDS
1002
{
1070
    19
1005
2035B
1002
}
  0
ARC
  5
20358
  8
0
 10
28.40199999996923
 20
2.373099999991211
 30
0.0
 40
2.34
 50
270.0
 51
0.0
1001
ACAD
1000
ASC_BOUNDS
1002
{
1070
    19
1005
2035B
1002
}
  0
INSERT
  5
20359
  8
0
  2
*X258
 10
0.0
 20
0.0
 30
0.0
1001
ACAD
1000
HATCH
1002
{
1070
    19
1000
ANSI37
1040
0.15
1040
0.0
1000
ASC_BOUNDS
1070
     2
1070
     2
1070
    12
1005
20318
1005
20319
1005
20320
1005
2032F
1005
20332
1005
20330
1005
20321
1005
20326
1005
20324
1005
20328
1005
20327
1005
20329
1070
     2
1070
     3
1005
20334
1005
20336
1005
20335
1000
ASC_SEEDPOINT
1011
3.614004224891801
1021
2.996669441146025
1031
0.0
1021
2.996669441146025
1031
0.0
1000
R14_HATCH_DATA
1000
20359
1011
1.0
1021
0.0
1031
0.0
1021
0.0
1031
0.0
1011
0.0
1021
1.0
1031
0.0
1021
1.0
1031
0.0
1011
0.0
1021
0.0
1031
1.0
1021
0.0
1031
1.0
1040
0.0
1010
0.0
1020
0.0
1030
1.0
1000
ANSI37
1070
     0
1070
     1
1071
        2
1071
        7
1070
     0
1070
     1
1071
       17
1040
13.26299999998673
1040
-0.0001000000000317
1040
9.236999999990758
1040
8.999899999990987
1040
9.236999999990758
1040
8.999999999991019
1040
5.657999999994331
1040
0.9999999999989768
1040
3.181999999996833
1040
4.668599999995308
1040
6.432999999993513
1040
8.763099999991255
1040
4.617999999995391
1040
8.763099999991255
1040
1.420999999998571
1040
4.736799999995242
1040
4.617999999995391
1040
-0.0001000000000317
1040
4.617999999995391
1040
0.0
1040
6.766999999993232
1040
0.0
1040
6.766999999993232
1040
-0.0001000000000317
1040
7.826999999992154
1040
2.368399999997621
1040
10.64699999998936
1040
2.368399999997621
1040
11.70599999998831
1040
-0.0001000000000317
1040
11.70599999998831
1040
0.0
1040
13.26299999998673
1040
0.0
1071
       12
1005
20318
1005
20319
1005
20320
1005
2032F
1005
20332
1005
20330
1005
20321
1005
20326
1005
20324
1005
20328
1005
20327
1005
20329
1071
       22
1070
     0
1070
     1
1071
        3
1040
9.236999999990758
1040
5.5200999999945
1040
10.06399999998996
1040
3.670999999996297
1040
8.409999999991555
1040
3.670999999996297
1071
        3
1005
20334
1005
20336
1005
20335
1070
     0
1070
     1
1040
0.0
1040
0.15
1070
     0
1070
     2
1040
0.7853981633974483
1040
49.29960901727088
1040
-10.17736998311392
1040
-0.3367596045400932
1040
0.3367596045400932
1070
     0
1040
2.356194490192345
1040
49.29960901727088
1040
-10.17736998311392
1040
-0.3367596045400932
1040
-0.3367596045400932
1070
     0
1040
0.0110235143455945
1071
        2
1040
3.614004224891801
1040
2.996669441146025
1040
0.0
1040
3.614004224891801
1040
2.996669441146025
1040
0.0
1002
}
  0
INSERT
  5
2035A
  8
0
  2
*X259
 10
0.0
 20
0.0
 30
0.0
1001
ACAD
1000
HATCH
1002
{
1070
    19
1000
ANSI37
1040
0.15
1040
0.0
1000
ASC_BOUNDS
1070
     1
1070
     2
1070
    10
1005
2031A
1005
2031B
1005
2033C
1005
2033A
1005
2033B
1005
2032E
1005
20333
1005
20337
1005
2031D
1005
2031C
1000
ASC_SEEDPOINT
1011
14.73245321214324
1021
2.798246178283421
1031
0.0
1021
2.798246178283421
1031
0.0
1000
R14_HATCH_DATA
1000
2035A
1011
1.0
1021
0.0
1031
0.0
1021
0.0
1031
0.0
1011
0.0
1021
1.0
1031
0.0
1021
1.0
1031
0.0
1011
0.0
1021
0.0
1031
1.0
1021
0.0
1031
1.0
1040
0.0
1010
0.0
1020
0.0
1030
1.0
1000
ANSI37
1070
     0
1070
     1
1071
        1
1071
        7
1070
     0
1070
     1
1071
       10
1040
16.46099999998353
1040
5.432899999994561
1040
18.59199999998134
1040
-0.2368999999997641
1040
22.38199999997767
1040
8.763099999991255
1040
20.89099999997916
1040
8.763099999991255
1040
18.59799999998143
1040
3.315799999996671
1040
16.46099999998353
1040
8.999899999990987
1040
14.32399999998563
1040
3.315799999996671
1040
12.02999999998792
1040
8.763099999991255
1040
10.53899999998941
1040
8.763099999991255
1040
14.32899999998563
1040
-0.2368999999997641
1071
       10
1005
2031A
1005
2031B
1005
2033C
1005
2033A
1005
2033B
1005
2032E
1005
20333
1005
20337
1005
2031D
1005
2031C
1070
     0
1070
     1
1040
0.0
1040
0.15
1070
     0
1070
     2
1040
0.7853981633974483
1040
49.29960901727088
1040
-10.17736998311392
1040
-0.3367596045400932
1040
0.3367596045400932
1070
     0
1040
2.356194490192345
1040
49.29960901727088
1040
-10.17736998311392
1040
-0.3367596045400932
1040
-0.3367596045400932
1070
     0
1040
0.0110235143455945
1071
        1
1040
14.73245321214324
1040
2.798246178283421
1040
0.0
1002
}
  0
INSERT
  5
2035B
  8
0
  2
*X260
 10
0.0
 20
0.0
 30
0.0
1001
ACAD
1000
HATCH
1002
{
1070
    19
1000
ANSI37
1040
0.15
1040
0.0
1000
ASC_BOUNDS
1070
     2
1070
     2
1070
    13
1005
2031E
1005
2032B
1005
2032C
1005
2032A
1005
2032D
1005
20354
1005
20358
1005
20353
1005
20352
1005
20355
1005
20357
1005
20356
1005
2031F
1070
     2
1070
     3
1005
20338
1005
2033D
1005
20339
1000
ASC_SEEDPOINT
1011
21.97929957367762
1021
3.294304244259308
1031
0.0
1021
3.294304244259308
1031
0.0
1000
R14_HATCH_DATA
1000
2035B
1011
1.0
1021
0.0
1031
0.0
1021
0.0
1031
0.0
1011
0.0
1021
1.0
1031
0.0
1021
1.0
1031
0.0
1011
0.0
1021
0.0
1031
1.0
1021
0.0
1031
1.0
1040
0.0
1010
0.0
1020
0.0
1030
1.0
1000
ANSI37
1070
     0
1070
     1
1071
        2
1071
        7
1070
     1
1070
     1
1071
       15
1040
23.56599999997638
1040
8.999899999990987
1040
0.0
1040
19.53899999998043
1040
-0.0001000000000317
1040
0.0
1040
19.53899999998043
1040
0.0
1040
0.0
1040
21.09599999997886
1040
0.0
1040
0.0
1040
21.09599999997886
1040
-0.0001000000000317
1040
0.0
1040
22.15599999997789
1040
2.368399999997621
1040
0.0
1040
24.97599999997499
1040
2.368399999997621
1040
0.0
1040
26.02015566812236
1040
0.0330999999912365
1040
0.0
1040
28.40199999996923
1040
0.0330999999912365
1040
0.414213562373095
1040
30.74199999996923
1040
2.373099999991211
1040
0.0
1040
30.74199999996927
1040
8.763099999991255
1040
0.0
1040
29.30199999996933
1040
8.763099999991255
1040
0.0
1040
29.30199999996933
1040
2.283099999991236
1040
-0.414213562373095
1040
28.40199999996923
1040
1.383099999991237
1040
0.0
1040
26.97358892824991
1040
1.383099999991202
1040
0.0
1071
       13
1005
2031E
1005
2032B
1005
2032C
1005
2032A
1005
2032D
1005
20354
1005
20358
1005
20353
1005
20352
1005
20355
1005
20357
1005
20356
1005
2031F
1071
       22
1070
     0
1070
     1
1071
        3
1040
22.7389999999773
1040
3.670999999996297
1040
23.56599999997638
1040
5.5200999999945
1040
24.39299999997559
1040
3.670999999996297
1071
        3
1005
20338
1005
2033D
1005
20339
1070
     0
1070
     1
1040
0.0
1040
0.15
1070
     0
1070
     2
1040
0.7853981633974483
1040
49.29960901727088
1040
-10.17736998311392
1040
-0.3367596045400932
1040
0.3367596045400932
1070
     0
1040
2.356194490192345
1040
49.29960901727088
1040
-10.17736998311392
1040
-0.3367596045400932
1040
-0.3367596045400932
1070
     0
1040
0.0110235143455945
1071
        2
1040
21.97929957367762
1040
3.294304244259308
1040
0.0
1040
21.97929957367762
1040
3.294304244259308
1040
0.0
1002
}
  0
INSERT
  5
2035C
  8
0
  2
*X261
 10
0.0
 20
0.0
 30
0.0
1001
ACAD
1000
HATCH
1002
{
1070
    19
1000
ANSI37
1040
0.15
1040
0.0
1000
R14_HATCH_DATA
1000
2035C
1011
1.0
1021
0.0
1031
0.0
1021
0.0
1031
0.0
1011
0.0
1021
1.0
1031
0.0
1021
1.0
1031
0.0
1011
0.0
1021
0.0
1031
1.0
1021
0.0
1031
1.0
1040
0.0
1010
0.0
1020
0.0
1030
1.0
1000
ANSI37
1070
     0
1070
     1
1071
        1
1071
        7
1070
     1
1070
     1
1071
       12
1040
31.64199999996833
1040
2.481619422925121
1040
0.2679491924310942
1040
32.94699999997067
1040
0.2212931190493919
1040
0.2679491924301353
1040
36.36699999995983
1040
0.2212931190459813
1040
0.2679491924321411
1040
37.67199999996831
1040
2.481619422928361
1040
0.0
1040
37.67199999996831
1040
8.763099999991255
1040
0.0
1040
36.23199999996837
1040
8.763099999991255
1040
0.0
1040
36.23199999996837
1040
2.481619422925064
1040
-0.2679491924310291
1040
35.64699999996708
1040
1.468369700498386
1040
-0.267949192430519
1040
33.66699999997093
1040
1.468369700497703
1040
-0.267949192431809
1040
33.08199999996839
1040
2.481619422926997
1040
0.0
1040
33.08199999996839
1040
8.763099999991255
1040
0.0
1040
31.64199999996833
1040
8.763099999991255
1040
0.0
1071
        0
1070
     0
1070
     1
1040
0.0
1040
0.15
1070
     0
1070
     2
1040
0.7853981633974483
1040
49.29960901727088
1040
-10.17736998311392
1040
-0.3367596045400932
1040
0.3367596045400932
1070
     0
1040
2.356194490192345
1040
49.29960901727088
1040
-10.17736998311392
1040
-0.3367596045400932
1040
-0.3367596045400932
1070
     0
1040
0.0110235143455945
1071
        1
1040
32.30357378967278
1040
3.988785755459219
1040
0.0
1002
}
  0
INSERT
  5
2035D
  8
0
  2
*X262
 10
0.0
 20
0.0
 30
0.0
1001
ACAD
1000
HATCH
1002
{
1070
    19
1000
ANSI37
1040
0.15
1040
0.0
1000
ASC_BOUNDS
1070
     1
1070
     2
1070
     8
1005
2033E
1005
20341
1005
20345
1005
20344
1005
20343
1005
20340
1005
20342
1005
2033F
1000
ASC_SEEDPOINT
1011
39.74896370716704
1021
4.484843821435049
1031
0.0
1021
4.484843821435049
1031
0.0
1000
R14_HATCH_DATA
1000
2035D
1011
1.0
1021
0.0
1031
0.0
1021
0.0
1031
0.0
1011
0.0
1021
1.0
1031
0.0
1021
1.0
1031
0.0
1011
0.0
1021
0.0
1031
1.0
1021
0.0
1031
1.0
1040
0.0
1010
0.0
1020
0.0
1030
1.0
1000
ANSI37
1070
     0
1070
     1
1071
        1
1071
        7
1070
     0
1070
     1
1071
        9
1040
40.02599999995994
1040
5.341799999994635
1040
44.99999999995498
1040
-0.2368999999997641
1040
44.99999999995498
1040
8.763099999991255
1040
43.57899999995641
1040
8.763099999991255
1040
43.57899999995641
1040
3.421199999996588
1040
38.60499999996136
1040
8.999899999990987
1040
38.60499999996136
1040
8.999999999991019
1040
38.60499999996136
1040
0.0
1040
40.02599999995994
1040
0.0
1071
        8
1005
2033E
1005
20341
1005
20345
1005
20344
1005
20343
1005
20340
1005
20342
1005
2033F
1070
     0
1070
     1
1040
0.0
1040
0.15
1070
     0
1070
     2
1040
0.7853981633974483
1040
49.29960901727088
1040
-10.17736998311392
1040
-0.3367596045400932
1040
0.3367596045400932
1070
     0
1040
2.356194490192345
1040
49.29960901727088
1040
-10.17736998311392
1040
-0.3367596045400932
1040
-0.3367596045400932
1070
     0
1040
0.0110235143455945
1071
        1
1040
39.74896370716704
1040
4.484843821435049
1040
0.0
1002
}
  0
INSERT
  5
2035E
  8
0
  2
*X263
 10
0.0
 20
0.0
 30
0.0
1001
ACAD
1000
HATCH
1002
{
1070
    19
1000
ANSI37
1040
0.15
1040
0.0
1000
ASC_BOUNDS
1070
     1
1070
     2
1070
     4
1005
20322
1005
20331
1005
20323
1005
20325
1000
ASC_SEEDPOINT
1011
1.079051535452663
1021
4.148538732891836
1031
0.0
1021
4.148538732891836
1031
0.0
1000
R14_HATCH_DATA
1000
2035E
1011
1.0
1021
0.0
1031
0.0
1021
0.0
1031
0.0
1011
0.0
1021
1.0
1031
0.0
1021
1.0
1031
0.0
1011
0.0
1021
0.0
1031
1.0
1021
0.0
1031
1.0
1040
0.0
1010
0.0
1020
0.0
1030
1.0
1000
ANSI37
1070
     0
1070
     1
1071
        1
1071
        7
1070
     0
1070
     1
1071
        4
1040
1.420999999998571
1040
0.0
1040
1.420999999998571
1040
8.763099999991255
1040
0.0
1040
8.763099999991255
1040
0.0
1040
0.0
1071
        4
1005
20322
1005
20331
1005
20323
1005
20325
1070
     0
1070
     1
1040
0.0
1040
0.15
1070
     0
1070
     2
1040
0.7853981633974483
1040
49.29960901727088
1040
-10.17736998311392
1040
-0.3367596045400932
1040
0.3367596045400932
1070
     0
1040
2.356194490192345
1040
49.29960901727088
1040
-10.17736998311392
1040
-0.3367596045400932
1040
-0.3367596045400932
1070
     0
1040
0.0053004257112761
1071
        1
1040
1.079051535452663
1040
4.148538732891836
1040
0.0
1002
}
  0
ENDBLK
  5
20A16
  8
0
  0
BLOCK
  8
0
  2
*X258
 70
     1
 10
0.0
 20
0.0
 30
0.0
  3
*X258
  1

  0
LINE
  5
26C63
  8
0
  6
CONTINUOUS
 10
3.418023043697893
 20
7.251849696850613
 30
0.0
 11
4.929273346838536
 21
8.763099999991255
 31
0.0
  0
LINE
  5
26C64
  8
0
  6
CONTINUOUS
 10
1.483656411257782
 20
4.643963855330318
 30
0.0
 11
5.60279255591872
 21
8.763099999991255
 31
0.0
  0
LINE
  5
26C65
  8
0
  6
CONTINUOUS
 10
1.755053947328235
 20
4.241842182320584
 30
0.0
 11
6.276311764998907
 21
8.763099999991255
 31
0.0
  0
LINE
  5
26C66
  8
0
  6
CONTINUOUS
 10
2.026451483398688
 20
3.839720509310849
 30
0.0
 11
4.441040904851878
 21
6.254309930764039
 31
0.0
  0
LINE
  5
26C67
  8
0
  6
CONTINUOUS
 10
2.297849019469139
 20
3.437598836301114
 30
0.0
 11
3.321765168359338
 21
4.461514985191313
 31
0.0
  0
LINE
  5
26C68
  8
0
  6
CONTINUOUS
 10
2.569246555539591
 20
3.03547716329138
 30
0.0
 11
3.593163397972743
 21
4.059394005724531
 31
0.0
  0
LINE
  5
26C69
  8
0
  6
CONTINUOUS
 10
2.840644091610043
 20
2.633355490281646
 30
0.0
 11
3.864561627586149
 21
3.657273026257751
 31
0.0
  0
LINE
  5
26C6A
  8
0
  6
CONTINUOUS
 10
3.112041627680496
 20
2.231233817271911
 30
0.0
 11
4.135959857199554
 21
3.25515204679097
 31
0.0
  0
LINE
  5
26C6B
  8
0
  6
CONTINUOUS
 10
3.383439163750948
 20
1.829112144262177
 30
0.0
 11
4.40735808681296
 21
2.853031067324189
 31
0.0
  0
LINE
  5
26C6C
  8
0
  6
CONTINUOUS
 10
3.654836699821399
 20
1.426990471252442
 30
0.0
 11
4.678756316426365
 21
2.450910087857407
 31
0.0
  0
LINE
  5
26C6D
  8
0
  6
CONTINUOUS
 10
3.926234235891853
 20
1.024868798242709
 30
0.0
 11
4.95015454603977
 21
2.048789108390626
 31
0.0
  0
LINE
  5
26C6E
  8
0
  6
CONTINUOUS
 10
4.197631771962304
 20
0.6227471252329737
 30
0.0
 11
5.221552775653176
 21
1.646668128923846
 31
0.0
  0
LINE
  5
26C6F
  8
0
  6
CONTINUOUS
 10
8.715877546767851
 20
7.835069736359266
 30
0.0
 11
9.435953450375058
 21
8.555145639966472
 31
0.0
  0
LINE
  5
26C70
  8
0
  6
CONTINUOUS
 10
8.170620868422267
 20
6.616293848933497
 30
0.0
 11
9.644120833743461
 21
8.08979381425469
 31
0.0
  0
LINE
  5
26C71
  8
0
  6
CONTINUOUS
 10
7.625364190076684
 20
5.397517961507727
 30
0.0
 11
9.852288217111864
 21
7.624441988542907
 31
0.0
  0
LINE
  5
26C72
  8
0
  6
CONTINUOUS
 10
7.080107511731101
 20
4.178742074081957
 30
0.0
 11
10.06045560048027
 21
7.159090162831124
 31
0.0
  0
LINE
  5
26C73
  8
0
  6
CONTINUOUS
 10
6.534850833385518
 20
2.959966186656187
 30
0.0
 11
10.26862298384867
 21
6.693738337119342
 31
0.0
  0
LINE
  5
26C74
  8
0
  6
CONTINUOUS
 10
4.469029308032756
 20
0.2206254522232385
 30
0.0
 11
5.492951005266582
 21
1.244547149457064
 31
0.0
  0
LINE
  5
26C75
  8
0
  6
CONTINUOUS
 10
5.989594155039935
 20
1.741190299230417
 30
0.0
 11
8.806950407233131
 21
4.558546551423613
 31
0.0
  0
LINE
  5
26C76
  8
0
  6
CONTINUOUS
 10
9.401251593263643
 20
5.152847737454126
 30
0.0
 11
10.47679036721708
 21
6.228386511407559
 31
0.0
  0
LINE
  5
26C77
  8
0
  6
CONTINUOUS
 10
4.921837203428691
 20
-0.0000858614610131
 30
0.0
 11
8.592923064886001
 21
3.670999999996297
 31
0.0
  0
LINE
  5
26C78
  8
0
  6
CONTINUOUS
 10
9.609390446785305
 20
4.6874673818956
 30
0.0
 11
10.68495775058548
 21
5.763034685695775
 31
0.0
  0
LINE
  5
26C79
  8
0
  6
CONTINUOUS
 10
5.595387755019432
 20
-0.0000545189504582
 30
0.0
 11
7.716137258923768
 21
2.120694984953879
 31
0.0
  0
LINE
  5
26C7A
  8
0
  6
CONTINUOUS
 10
6.268938306610172
 20
-0.000023176439905
 30
0.0
 11
7.170485805526503
 21
0.9015243224764267
 31
0.0
  0
LINE
  5
26C7B
  8
0
  6
CONTINUOUS
 10
7.963842273967511
 20
2.368399999997621
 30
0.0
 11
9.266442273966188
 21
3.670999999996297
 31
0.0
  0
LINE
  5
26C7C
  8
0
  6
CONTINUOUS
 10
8.637361483047696
 20
2.368399999997621
 30
0.0
 11
9.939961483046375
 21
3.670999999996297
 31
0.0
  0
LINE
  5
26C7D
  8
0
  6
CONTINUOUS
 10
9.817529300306965
 20
4.222087026337075
 30
0.0
 11
10.89312513395388
 21
5.297682859983993
 31
0.0
  0
LINE
  5
26C7E
  8
0
  6
CONTINUOUS
 10
10.02566815382863
 20
3.756706670778549
 30
0.0
 11
11.10129251732229
 21
4.832331034272211
 31
0.0
  0
LINE
  5
26C7F
  8
0
  6
CONTINUOUS
 10
9.310880692127883
 20
2.368399999997621
 30
0.0
 11
11.30945990069069
 21
4.366979208560428
 31
0.0
  0
LINE
  5
26C80
  8
0
  6
CONTINUOUS
 10
9.98439990120807
 20
2.36839999999762
 30
0.0
 11
11.5176272840591
 21
3.901627382848645
 31
0.0
  0
LINE
  5
26C81
  8
0
  6
CONTINUOUS
 10
10.65037369446246
 20
2.36085458417182
 30
0.0
 11
11.7257946674275
 21
3.436275557136862
 31
0.0
  0
LINE
  5
26C82
  8
0
  6
CONTINUOUS
 10
10.85847197087848
 20
1.895433651507656
 30
0.0
 11
11.9339620507959
 21
2.97092373142508
 31
0.0
  0
LINE
  5
26C83
  8
0
  6
CONTINUOUS
 10
11.0665702472945
 20
1.430012718843491
 30
0.0
 11
12.14212943416431
 21
2.505571905713296
 31
0.0
  0
LINE
  5
26C84
  8
0
  6
CONTINUOUS
 10
11.27466852371052
 20
0.9645917861793256
 30
0.0
 11
12.35029681753271
 21
2.040220080001513
 31
0.0
  0
LINE
  5
26C85
  8
0
  6
CONTINUOUS
 10
11.48276680012654
 20
0.4991708535151611
 30
0.0
 11
12.55846420090111
 21
1.57486825428973
 31
0.0
  0
LINE
  5
26C86
  8
0
  6
CONTINUOUS
 10
11.69086507654257
 20
0.0337499208509957
 30
0.0
 11
12.76663158426952
 21
1.109516428577947
 31
0.0
  0
LINE
  5
26C87
  8
0
  6
CONTINUOUS
 10
12.33057447873954
 20
-0.0000598860322123
 30
0.0
 11
12.97479896763792
 21
0.6441646028661663
 31
0.0
  0
LINE
  5
26C88
  8
0
  6
CONTINUOUS
 10
13.00413694809395
 20
-0.0000166257579952
 30
0.0
 11
13.18296635100632
 21
0.1788127771543824
 31
0.0
  0
LINE
  5
26C89
  8
0
  6
CONTINUOUS
 10
4.772852165289667
 20
-0.000092794222212
 30
0.0
 11
4.296495091028902
 21
0.4762642800385528
 31
0.0
  0
LINE
  5
26C8A
  8
0
  6
CONTINUOUS
 10
5.446340034776103
 20
-0.0000614546284616
 30
0.0
 11
2.898195908335625
 21
2.548082671812017
 31
0.0
  0
LINE
  5
26C8B
  8
0
  6
CONTINUOUS
 10
6.119827904262539
 20
-0.0000301150347113
 30
0.0
 11
1.499896725642348
 21
4.61990106358548
 31
0.0
  0
LINE
  5
26C8C
  8
0
  6
CONTINUOUS
 10
6.775136745476159
 20
0.0181802528318542
 30
0.0
 11
5.699826040202669
 21
1.093490958105344
 31
0.0
  0
LINE
  5
26C8D
  8
0
  6
CONTINUOUS
 10
6.983376846288489
 20
0.4834593610997118
 30
0.0
 11
5.908008617934405
 21
1.558827589453796
 31
0.0
  0
LINE
  5
26C8E
  8
0
  6
CONTINUOUS
 10
5.377063484962296
 20
1.416253513345719
 30
0.0
 11
1.702276957014131
 21
5.091040041293883
 31
0.0
  0
LINE
  5
26C8F
  8
0
  6
CONTINUOUS
 10
3.978745891735324
 20
3.488090315652877
 30
0.0
 11
2.000373521109399
 21
5.466462686278803
 31
0.0
  0
LINE
  5
26C90
  8
0
  6
CONTINUOUS
 10
7.191616947100819
 20
0.948738469367568
 30
0.0
 11
6.11619119566614
 21
2.024164220802247
 31
0.0
  0
LINE
  5
26C91
  8
0
  6
CONTINUOUS
 10
7.399857047913149
 20
1.414017577635424
 30
0.0
 11
6.324373773397875
 21
2.489500852150698
 31
0.0
  0
LINE
  5
26C92
  8
0
  6
CONTINUOUS
 10
7.608097148725479
 20
1.879296685903281
 30
0.0
 11
6.53255635112961
 21
2.95483748349915
 31
0.0
  0
LINE
  5
26C93
  8
0
  6
CONTINUOUS
 10
7.816337249537808
 20
2.344575794171138
 30
0.0
 11
6.740738928861345
 21
3.420174114847601
 31
0.0
  0
LINE
  5
26C94
  8
0
  6
CONTINUOUS
 10
3.310241080789734
 20
4.830114335678653
 30
0.0
 11
2.298470085204666
 21
5.84188533126372
 31
0.0
  0
LINE
  5
26C95
  8
0
  6
CONTINUOUS
 10
3.60832983563551
 20
5.205544789913063
 30
0.0
 11
2.596566649299935
 21
6.217307976248638
 31
0.0
  0
LINE
  5
26C96
  8
0
  6
CONTINUOUS
 10
3.906418590481286
 20
5.580975244147473
 30
0.0
 11
2.894663213395203
 21
6.592730621233557
 31
0.0
  0
LINE
  5
26C97
  8
0
  6
CONTINUOUS
 10
4.204507345327062
 20
5.956405698381884
 30
0.0
 11
3.192759777490472
 21
6.968153266218474
 31
0.0
  0
LINE
  5
26C98
  8
0
  6
CONTINUOUS
 10
8.466032252791512
 20
2.368399999997621
 30
0.0
 11
6.948921506593081
 21
3.885510746196053
 31
0.0
  0
LINE
  5
26C99
  8
0
  6
CONTINUOUS
 10
9.139551461871699
 20
2.36839999999762
 30
0.0
 11
7.157104084324816
 21
4.350847377544504
 31
0.0
  0
LINE
  5
26C9A
  8
0
  6
CONTINUOUS
 10
4.502596100172839
 20
6.331836152616295
 30
0.0
 11
3.49085634158574
 21
7.343575911203393
 31
0.0
  0
LINE
  5
26C9B
  8
0
  6
CONTINUOUS
 10
4.800684855018615
 20
6.707266606850705
 30
0.0
 11
3.788952905681008
 21
7.718998556188312
 31
0.0
  0
LINE
  5
26C9C
  8
0
  6
CONTINUOUS
 10
12.18154012887317
 20
-0.0000694579236642
 30
0.0
 11
11.32140332908496
 21
0.8600673418645499
 31
0.0
  0
LINE
  5
26C9D
  8
0
  6
CONTINUOUS
 10
12.85501608323566
 20
-0.0000262032059659
 30
0.0
 11
10.77672456435345
 21
2.078265315676246
 31
0.0
  0
LINE
  5
26C9E
  8
0
  6
CONTINUOUS
 10
9.813070670951886
 20
2.36839999999762
 30
0.0
 11
8.51047067095321
 21
3.670999999996297
 31
0.0
  0
LINE
  5
26C9F
  8
0
  6
CONTINUOUS
 10
10.48658988003207
 20
2.36839999999762
 30
0.0
 11
9.183989880033396
 21
3.670999999996297
 31
0.0
  0
LINE
  5
26CA0
  8
0
  6
CONTINUOUS
 10
8.441048632286794
 20
3.740422038662712
 30
0.0
 11
7.365286662056551
 21
4.816184008892956
 31
0.0
  0
LINE
  5
26CA1
  8
0
  6
CONTINUOUS
 10
8.649187485808454
 20
4.205802394221237
 30
0.0
 11
7.573469239788285
 21
5.281520640241407
 31
0.0
  0
LINE
  5
26CA2
  8
0
  6
CONTINUOUS
 10
5.098773609864391
 20
7.082697061085115
 30
0.0
 11
4.087049469776277
 21
8.09442120117323
 31
0.0
  0
LINE
  5
26CA3
  8
0
  6
CONTINUOUS
 10
5.396862364710167
 20
7.458127515319526
 30
0.0
 11
4.385146033871544
 21
8.469843846158149
 31
0.0
  0
LINE
  5
26CA4
  8
0
  6
CONTINUOUS
 10
13.04801363231285
 20
0.4804954567970334
 30
0.0
 11
9.85750908911358
 21
3.670999999996297
 31
0.0
  0
LINE
  5
26CA5
  8
0
  6
CONTINUOUS
 10
8.857326339330116
 20
4.671182749779763
 30
0.0
 11
7.781651817520021
 21
5.746857271589858
 31
0.0
  0
LINE
  5
26CA6
  8
0
  6
CONTINUOUS
 10
5.694951119555943
 20
7.833557969553937
 30
0.0
 11
4.765409089118624
 21
8.763099999991255
 31
0.0
  0
LINE
  5
26CA7
  8
0
  6
CONTINUOUS
 10
12.50286117236978
 20
1.699167125820288
 30
0.0
 11
9.68611877250287
 21
4.515909525687196
 31
0.0
  0
LINE
  5
26CA8
  8
0
  6
CONTINUOUS
 10
9.065465192851777
 20
5.136563105338288
 30
0.0
 11
7.989834395251757
 21
6.21219390293831
 31
0.0
  0
LINE
  5
26CA9
  8
0
  6
CONTINUOUS
 10
5.993039874401719
 20
8.208988423788346
 30
0.0
 11
5.43892829819881
 21
8.763099999991255
 31
0.0
  0
LINE
  5
26CAA
  8
0
  6
CONTINUOUS
 10
11.95770871242671
 20
2.917838794843543
 30
0.0
 11
8.19801697298349
 21
6.677530534286761
 31
0.0
  0
LINE
  5
26CAB
  8
0
  6
CONTINUOUS
 10
6.291128629247495
 20
8.584418878022756
 30
0.0
 11
6.112447507278997
 21
8.763099999991255
 31
0.0
  0
LINE
  5
26CAC
  8
0
  6
CONTINUOUS
 10
11.41255625248364
 20
4.136510463866797
 30
0.0
 11
8.406199550715227
 21
7.142867165635211
 31
0.0
  0
LINE
  5
26CAD
  8
0
  6
CONTINUOUS
 10
10.86740379254057
 20
5.355182132890051
 30
0.0
 11
8.614382128446962
 21
7.608203796983664
 31
0.0
  0
LINE
  5
26CAE
  8
0
  6
CONTINUOUS
 10
10.3222513325975
 20
6.573853801913305
 30
0.0
 11
8.822564706178696
 21
8.073540428332114
 31
0.0
  0
LINE
  5
26CAF
  8
0
  6
CONTINUOUS
 10
9.777098872654436
 20
7.792525470936562
 30
0.0
 11
9.030747283910433
 21
8.538877059680566
 31
0.0
  0
ENDBLK
  5
26DF1
  8
0
  0
BLOCK
  8
0
  2
*X259
 70
     1
 10
0.0
 20
0.0
 30
0.0
  3
*X259
  1

  0
LINE
  5
26CB1
  8
0
  6
CONTINUOUS
 10
10.67292308101235
 20
8.445076852443387
 30
0.0
 11
10.99094622856022
 21
8.763099999991255
 31
0.0
  0
LINE
  5
26CB2
  8
0
  6
CONTINUOUS
 10
10.87250383178748
 20
7.971138394138331
 30
0.0
 11
11.6644654376404
 21
8.763099999991255
 31
0.0
  0
LINE
  5
26CB3
  8
0
  6
CONTINUOUS
 10
11.07208458256261
 20
7.497199935833273
 30
0.0
 11
12.12126590876355
 21
8.546381262034211
 31
0.0
  0
LINE
  5
26CB4
  8
0
  6
CONTINUOUS
 10
11.27166533333774
 20
7.023261477528216
 30
0.0
 11
12.32085164573666
 21
8.072447789927136
 31
0.0
  0
LINE
  5
26CB5
  8
0
  6
CONTINUOUS
 10
11.47124608411287
 20
6.549323019223158
 30
0.0
 11
12.52043738270977
 21
7.59851431782006
 31
0.0
  0
LINE
  5
26CB6
  8
0
  6
CONTINUOUS
 10
11.670826834888
 20
6.075384560918101
 30
0.0
 11
12.72002311968288
 21
7.124580845712984
 31
0.0
  0
LINE
  5
26CB7
  8
0
  6
CONTINUOUS
 10
11.87040758566313
 20
5.601446102613043
 30
0.0
 11
12.91960885665599
 21
6.650647373605907
 31
0.0
  0
LINE
  5
26CB8
  8
0
  6
CONTINUOUS
 10
12.06998833643825
 20
5.127507644307986
 30
0.0
 11
13.1191945936291
 21
6.176713901498832
 31
0.0
  0
LINE
  5
26CB9
  8
0
  6
CONTINUOUS
 10
12.26956908721338
 20
4.65356918600293
 30
0.0
 11
13.31878033060221
 21
5.702780429391757
 31
0.0
  0
LINE
  5
26CBA
  8
0
  6
CONTINUOUS
 10
12.46914983798851
 20
4.179630727697873
 30
0.0
 11
13.51836606757532
 21
5.228846957284683
 31
0.0
  0
LINE
  5
26CBB
  8
0
  6
CONTINUOUS
 10
12.66873058876364
 20
3.705692269392816
 30
0.0
 11
13.71795180454843
 21
4.754913485177607
 31
0.0
  0
LINE
  5
26CBC
  8
0
  6
CONTINUOUS
 10
12.86831133953877
 20
3.231753811087759
 30
0.0
 11
13.91753754152154
 21
4.280980013070531
 31
0.0
  0
LINE
  5
26CBD
  8
0
  6
CONTINUOUS
 10
13.0678920903139
 20
2.757815352782702
 30
0.0
 11
14.11712327849465
 21
3.807046540963456
 31
0.0
  0
LINE
  5
26CBE
  8
0
  6
CONTINUOUS
 10
13.26747284108903
 20
2.283876894477644
 30
0.0
 11
14.31670901546777
 21
3.333113068856379
 31
0.0
  0
LINE
  5
26CBF
  8
0
  6
CONTINUOUS
 10
16.36767838827179
 20
8.751678487061342
 30
0.0
 11
16.50332410898388
 21
8.887324207773432
 31
0.0
  0
LINE
  5
26CC0
  8
0
  6
CONTINUOUS
 10
15.96190732182191
 20
7.67238821153127
 30
0.0
 11
16.68735328004734
 21
8.397834169756699
 31
0.0
  0
LINE
  5
26CC1
  8
0
  6
CONTINUOUS
 10
15.55613625537202
 20
6.593097936001196
 30
0.0
 11
16.87138245111079
 21
7.908344131739965
 31
0.0
  0
LINE
  5
26CC2
  8
0
  6
CONTINUOUS
 10
15.15036518892213
 20
5.513807660471122
 30
0.0
 11
17.05541162217424
 21
7.418854093723231
 31
0.0
  0
LINE
  5
26CC3
  8
0
  6
CONTINUOUS
 10
14.74459412247225
 20
4.434517384941048
 30
0.0
 11
17.2394407932377
 21
6.929364055706499
 31
0.0
  0
LINE
  5
26CC4
  8
0
  6
CONTINUOUS
 10
14.33882305602236
 20
3.355227109410975
 30
0.0
 11
17.42346996430115
 21
6.439874017689766
 31
0.0
  0
LINE
  5
26CC5
  8
0
  6
CONTINUOUS
 10
13.46705359186416
 20
1.809938436172586
 30
0.0
 11
16.0819338255367
 21
4.424818669845129
 31
0.0
  0
LINE
  5
26CC6
  8
0
  6
CONTINUOUS
 10
16.63283254238972
 20
4.975717386698149
 30
0.0
 11
17.60749913536461
 21
5.950383979673033
 31
0.0
  0
LINE
  5
26CC7
  8
0
  6
CONTINUOUS
 10
13.66663434263929
 20
1.335999977867529
 30
0.0
 11
15.67604797733754
 21
3.345413612565779
 31
0.0
  0
LINE
  5
26CC8
  8
0
  6
CONTINUOUS
 10
13.86621509341442
 20
0.8620615195624723
 30
0.0
 11
15.27016212913838
 21
2.26600855528643
 31
0.0
  0
LINE
  5
26CC9
  8
0
  6
CONTINUOUS
 10
16.81682257348267
 20
4.486188208710908
 30
0.0
 11
17.79152830642806
 21
5.460893941656299
 31
0.0
  0
LINE
  5
26CCA
  8
0
  6
CONTINUOUS
 10
17.00081260457561
 20
3.996659030723667
 30
0.0
 11
17.97555747749151
 21
4.971403903639565
 31
0.0
  0
LINE
  5
26CCB
  8
0
  6
CONTINUOUS
 10
20.74362343514722
 20
8.412989070375462
 30
0.0
 11
21.09373436476302
 21
8.763099999991256
 31
0.0
  0
LINE
  5
26CCC
  8
0
  6
CONTINUOUS
 10
20.25401257174777
 20
7.249858997895826
 30
0.0
 11
21.7672535738432
 21
8.763099999991255
 31
0.0
  0
LINE
  5
26CCD
  8
0
  6
CONTINUOUS
 10
14.06579584418955
 20
0.3881230612574149
 30
0.0
 11
14.86427628093921
 21
1.186603498007082
 31
0.0
  0
LINE
  5
26CCE
  8
0
  6
CONTINUOUS
 10
14.26537659496467
 20
-0.0858153970476412
 30
0.0
 11
14.45839043274005
 21
0.1071984407277329
 31
0.0
  0
LINE
  5
26CCF
  8
0
  6
CONTINUOUS
 10
17.18480263566856
 20
3.507129852736426
 30
0.0
 11
18.15958664855496
 21
4.481913865622833
 31
0.0
  0
LINE
  5
26CD0
  8
0
  6
CONTINUOUS
 10
17.3687926667615
 20
3.017600674749186
 30
0.0
 11
18.34361581961842
 21
3.9924238276061
 31
0.0
  0
LINE
  5
26CD1
  8
0
  6
CONTINUOUS
 10
19.76440170834832
 20
6.086728925416191
 30
0.0
 11
22.33924590259489
 21
8.661573119662755
 31
0.0
  0
LINE
  5
26CD2
  8
0
  6
CONTINUOUS
 10
19.27479084494887
 20
4.923598852936555
 30
0.0
 11
21.84929622842713
 21
7.498104236414807
 31
0.0
  0
LINE
  5
26CD3
  8
0
  6
CONTINUOUS
 10
17.55278269785445
 20
2.528071496761945
 30
0.0
 11
18.52764499068187
 21
3.502933789589366
 31
0.0
  0
LINE
  5
26CD4
  8
0
  6
CONTINUOUS
 10
18.78517998154942
 20
3.760468780456919
 30
0.0
 11
21.35934655425936
 21
6.33463535316686
 31
0.0
  0
LINE
  5
26CD5
  8
0
  6
CONTINUOUS
 10
17.73677272894739
 20
2.038542318774704
 30
0.0
 11
20.8693968800916
 21
5.171166469918914
 31
0.0
  0
LINE
  5
26CD6
  8
0
  6
CONTINUOUS
 10
17.92076276004034
 20
1.549013140787464
 30
0.0
 11
20.37944720592384
 21
4.007697586670968
 31
0.0
  0
LINE
  5
26CD7
  8
0
  6
CONTINUOUS
 10
18.10475279113329
 20
1.059483962800223
 30
0.0
 11
19.88949753175608
 21
2.84422870342302
 31
0.0
  0
LINE
  5
26CD8
  8
0
  6
CONTINUOUS
 10
18.28874282222623
 20
0.5699547848129822
 30
0.0
 11
19.39954785758832
 21
1.680759820175074
 31
0.0
  0
LINE
  5
26CD9
  8
0
  6
CONTINUOUS
 10
18.47273285331918
 20
0.0804256068257416
 30
0.0
 11
18.90959818342056
 21
0.517290936927127
 31
0.0
  0
LINE
  5
26CDA
  8
0
  6
CONTINUOUS
 10
14.3590401358224
 20
-0.1570118376323384
 30
0.0
 11
14.24903296539946
 21
-0.0470046672093929
 31
0.0
  0
LINE
  5
26CDB
  8
0
  6
CONTINUOUS
 10
14.54309291258661
 20
0.332454594683643
 30
0.0
 11
13.75908329123172
 21
1.116464216038529
 31
0.0
  0
LINE
  5
26CDC
  8
0
  6
CONTINUOUS
 10
14.72714568935081
 20
0.8219210269996244
 30
0.0
 11
13.26913361706399
 21
2.27993309928645
 31
0.0
  0
LINE
  5
26CDD
  8
0
  6
CONTINUOUS
 10
14.91119846611502
 20
1.311387459315606
 30
0.0
 11
12.77918394289625
 21
3.443401982534371
 31
0.0
  0
LINE
  5
26CDE
  8
0
  6
CONTINUOUS
 10
15.09525124287922
 20
1.800853891631587
 30
0.0
 11
12.28923426872852
 21
4.606870865782293
 31
0.0
  0
LINE
  5
26CDF
  8
0
  6
CONTINUOUS
 10
15.27930401964343
 20
2.290320323947569
 30
0.0
 11
11.79928459456078
 21
5.770339749030213
 31
0.0
  0
LINE
  5
26CE0
  8
0
  6
CONTINUOUS
 10
15.46335679640763
 20
2.77978675626355
 30
0.0
 11
14.48885470994921
 21
3.754288842721972
 31
0.0
  0
LINE
  5
26CE1
  8
0
  6
CONTINUOUS
 10
13.88507249233704
 20
4.358071060334137
 30
0.0
 11
11.30933492039305
 21
6.933808632278135
 31
0.0
  0
LINE
  5
26CE2
  8
0
  6
CONTINUOUS
 10
18.75840522805855
 20
0.1582575336928151
 30
0.0
 11
18.25383727664818
 21
0.6628254851031863
 31
0.0
  0
LINE
  5
26CE3
  8
0
  6
CONTINUOUS
 10
15.64740957317184
 20
3.269253188579531
 30
0.0
 11
14.67288388101266
 21
4.243778880738705
 31
0.0
  0
LINE
  5
26CE4
  8
0
  6
CONTINUOUS
 10
13.39509276772158
 20
5.521569994029786
 30
0.0
 11
10.81938524622531
 21
8.097277515526056
 31
0.0
  0
LINE
  5
26CE5
  8
0
  6
CONTINUOUS
 10
18.95798597883369
 20
0.6321959919978686
 30
0.0
 11
17.84825644852853
 21
1.741925522303024
 31
0.0
  0
LINE
  5
26CE6
  8
0
  6
CONTINUOUS
 10
19.15756672960882
 20
1.106134450302922
 30
0.0
 11
17.44267562040888
 21
2.821025559502861
 31
0.0
  0
LINE
  5
26CE7
  8
0
  6
CONTINUOUS
 10
15.83146234993604
 20
3.758719620895513
 30
0.0
 11
14.85691305207612
 21
4.733268918755439
 31
0.0
  0
LINE
  5
26CE8
  8
0
  6
CONTINUOUS
 10
16.01551512670025
 20
4.248186053211494
 30
0.0
 11
15.04094222313957
 21
5.222758956772172
 31
0.0
  0
LINE
  5
26CE9
  8
0
  6
CONTINUOUS
 10
12.90511304310612
 20
6.685068927725435
 30
0.0
 11
10.8270819708403
 21
8.763099999991255
 31
0.0
  0
LINE
  5
26CEA
  8
0
  6
CONTINUOUS
 10
12.41513331849066
 20
7.848567861421083
 30
0.0
 11
11.50060117992049
 21
8.763099999991255
 31
0.0
  0
LINE
  5
26CEB
  8
0
  6
CONTINUOUS
 10
19.35714748038395
 20
1.580072908607975
 30
0.0
 11
17.03709479228923
 21
3.900125596702697
 31
0.0
  0
LINE
  5
26CEC
  8
0
  6
CONTINUOUS
 10
19.55672823115909
 20
2.054011366913028
 30
0.0
 11
16.63151396416958
 21
4.979225633902534
 31
0.0
  0
LINE
  5
26CED
  8
0
  6
CONTINUOUS
 10
16.19956790346445
 20
4.737652485527476
 30
0.0
 11
15.22497139420302
 21
5.712248994788904
 31
0.0
  0
LINE
  5
26CEE
  8
0
  6
CONTINUOUS
 10
16.38362068022866
 20
5.227118917843457
 30
0.0
 11
15.40900056526648
 21
6.201739032805637
 31
0.0
  0
LINE
  5
26CEF
  8
0
  6
CONTINUOUS
 10
19.75630898193422
 20
2.527949825218081
 30
0.0
 11
18.70774536448286
 21
3.576513442669441
 31
0.0
  0
LINE
  5
26CF0
  8
0
  6
CONTINUOUS
 10
19.95588973270936
 20
3.001888283523134
 30
0.0
 11
18.90726987211446
 21
4.050508144118028
 31
0.0
  0
LINE
  5
26CF1
  8
0
  6
CONTINUOUS
 10
20.15547048348449
 20
3.475826741828186
 30
0.0
 11
19.10679437974606
 21
4.524502845566614
 31
0.0
  0
LINE
  5
26CF2
  8
0
  6
CONTINUOUS
 10
20.35505123425962
 20
3.94976520013324
 30
0.0
 11
19.30631888737766
 21
4.998497547015201
 31
0.0
  0
LINE
  5
26CF3
  8
0
  6
CONTINUOUS
 10
20.55463198503475
 20
4.423703658438292
 30
0.0
 11
19.50584339500926
 21
5.472492248463787
 31
0.0
  0
LINE
  5
26CF4
  8
0
  6
CONTINUOUS
 10
18.37481191085755
 20
3.909446896294752
 30
0.0
 11
15.59302973632993
 21
6.691229070822371
 31
0.0
  0
LINE
  5
26CF5
  8
0
  6
CONTINUOUS
 10
17.96904084440766
 20
4.988737171824825
 30
0.0
 11
15.77705890739338
 21
7.180719108839104
 31
0.0
  0
LINE
  5
26CF6
  8
0
  6
CONTINUOUS
 10
17.56326977795777
 20
6.068027447354899
 30
0.0
 11
15.96108807845684
 21
7.670209146855838
 31
0.0
  0
LINE
  5
26CF7
  8
0
  6
CONTINUOUS
 10
17.15749871150789
 20
7.147317722884972
 30
0.0
 11
16.14511724952029
 21
8.15969918487257
 31
0.0
  0
LINE
  5
26CF8
  8
0
  6
CONTINUOUS
 10
16.751727645058
 20
8.226607998415046
 30
0.0
 11
16.32914642058374
 21
8.649189222889303
 31
0.0
  0
LINE
  5
26CF9
  8
0
  6
CONTINUOUS
 10
20.75421273580989
 20
4.897642116743345
 30
0.0
 11
19.70536790264086
 21
5.946486949912374
 31
0.0
  0
LINE
  5
26CFA
  8
0
  6
CONTINUOUS
 10
20.95379348658502
 20
5.371580575048398
 30
0.0
 11
19.90489241027246
 21
6.42048165136096
 31
0.0
  0
LINE
  5
26CFB
  8
0
  6
CONTINUOUS
 10
21.15337423736015
 20
5.845519033353452
 30
0.0
 11
20.10441691790406
 21
6.894476352809547
 31
0.0
  0
LINE
  5
26CFC
  8
0
  6
CONTINUOUS
 10
21.35295498813529
 20
6.319457491658505
 30
0.0
 11
20.30394142553566
 21
7.368471054258134
 31
0.0
  0
LINE
  5
26CFD
  8
0
  6
CONTINUOUS
 10
21.55253573891042
 20
6.793395949963558
 30
0.0
 11
20.50346593316726
 21
7.842465755706721
 31
0.0
  0
LINE
  5
26CFE
  8
0
  6
CONTINUOUS
 10
21.75211648968556
 20
7.267334408268612
 30
0.0
 11
20.70299044079886
 21
8.316460457155308
 31
0.0
  0
LINE
  5
26CFF
  8
0
  6
CONTINUOUS
 10
21.95169724046069
 20
7.741272866573663
 30
0.0
 11
20.9298701070431
 21
8.763099999991256
 31
0.0
  0
LINE
  5
26D00
  8
0
  6
CONTINUOUS
 10
22.15127799123582
 20
8.215211324878716
 30
0.0
 11
21.60338931612328
 21
8.763099999991256
 31
0.0
  0
LINE
  5
26D01
  8
0
  6
CONTINUOUS
 10
22.35085874201096
 20
8.689149783183769
 30
0.0
 11
22.27690852520347
 21
8.763099999991255
 31
0.0
  0
ENDBLK
  5
26DF3
  8
0
  0
BLOCK
  8
0
  2
*X260
 70
     1
 10
0.0
 20
0.0
 30
0.0
  3
*X260
  1

  0
LINE
  5
26D03
  8
0
  6
CONTINUOUS
 10
23.19462913593892
 20
8.169917934846424
 30
0.0
 11
23.70775465517246
 21
8.683043454079957
 31
0.0
  0
LINE
  5
26D04
  8
0
  6
CONTINUOUS
 10
22.64923161835078
 20
6.951001208178088
 30
0.0
 11
23.9159364069932
 21
8.217705996820516
 31
0.0
  0
LINE
  5
26D05
  8
0
  6
CONTINUOUS
 10
22.10383410076263
 20
5.732084481509751
 30
0.0
 11
24.12411815881395
 21
7.752368539561078
 31
0.0
  0
LINE
  5
26D06
  8
0
  6
CONTINUOUS
 10
21.55843658317447
 20
4.513167754841414
 30
0.0
 11
24.3322999106347
 21
7.287031082301639
 31
0.0
  0
LINE
  5
26D07
  8
0
  6
CONTINUOUS
 10
21.01303906558632
 20
3.294251028173077
 30
0.0
 11
24.54048166245544
 21
6.821693625042199
 31
0.0
  0
LINE
  5
26D08
  8
0
  6
CONTINUOUS
 10
20.46764154799817
 20
2.075334301504738
 30
0.0
 11
23.28571549467848
 21
4.89340824818505
 31
0.0
  0
LINE
  5
26D09
  8
0
  6
CONTINUOUS
 10
19.92224403041002
 20
0.8564175748364002
 30
0.0
 11
22.74075865492779
 21
3.674932199354171
 31
0.0
  0
LINE
  5
26D0A
  8
0
  6
CONTINUOUS
 10
23.67305085490148
 20
5.280743608408048
 30
0.0
 11
24.74866341427619
 21
6.356356167782759
 31
0.0
  0
LINE
  5
26D0B
  8
0
  6
CONTINUOUS
 10
23.88118970842314
 20
4.815363252849522
 30
0.0
 11
24.95684516609694
 21
5.89101871052332
 31
0.0
  0
LINE
  5
26D0C
  8
0
  6
CONTINUOUS
 10
19.73925852647308
 20
-0.0000871381807288
 30
0.0
 11
23.4103456646501
 21
3.670999999996297
 31
0.0
  0
LINE
  5
26D0D
  8
0
  6
CONTINUOUS
 10
24.0893285619448
 20
4.349982897290997
 30
0.0
 11
25.16502691791769
 21
5.42568125326388
 31
0.0
  0
LINE
  5
26D0E
  8
0
  6
CONTINUOUS
 10
20.41282099582748
 20
-0.0000438779065108
 30
0.0
 11
21.64944178675636
 21
1.236576913022366
 31
0.0
  0
LINE
  5
26D0F
  8
0
  6
CONTINUOUS
 10
22.78126487373161
 20
2.36839999999762
 30
0.0
 11
24.08386487373029
 21
3.670999999996297
 31
0.0
  0
LINE
  5
26D10
  8
0
  6
CONTINUOUS
 10
24.29746741546646
 20
3.884602541732471
 30
0.0
 11
25.37320866973843
 21
4.960343796004441
 31
0.0
  0
LINE
  5
26D11
  8
0
  6
CONTINUOUS
 10
21.08638346518189
 20
-0.0000006176322938
 30
0.0
 11
21.10379033335899
 21
0.0174062505448083
 31
0.0
  0
LINE
  5
26D12
  8
0
  6
CONTINUOUS
 10
23.4547840828118
 20
2.36839999999762
 30
0.0
 11
25.58139042155918
 21
4.495006338745002
 31
0.0
  0
LINE
  5
26D13
  8
0
  6
CONTINUOUS
 10
29.30199999996933
 20
8.215615917155148
 30
0.0
 11
29.84948408280543
 21
8.763099999991255
 31
0.0
  0
LINE
  5
26D14
  8
0
  6
CONTINUOUS
 10
24.12830329189199
 20
2.36839999999762
 30
0.0
 11
25.78957217337993
 21
4.029668881485562
 31
0.0
  0
LINE
  5
26D15
  8
0
  6
CONTINUOUS
 10
29.30199999996933
 20
7.54209670807496
 30
0.0
 11
30.52300329188562
 21
8.763099999991255
 31
0.0
  0
LINE
  5
26D16
  8
0
  6
CONTINUOUS
 10
24.80182250097217
 20
2.36839999999762
 30
0.0
 11
25.99775392520067
 21
3.564331424226122
 31
0.0
  0
LINE
  5
26D17
  8
0
  6
CONTINUOUS
 10
29.30199999996933
 20
6.868577498994774
 30
0.0
 11
30.74199999996926
 21
8.308577498994712
 31
0.0
  0
LINE
  5
26D18
  8
0
  6
CONTINUOUS
 10
25.13028238392013
 20
2.023340673865392
 30
0.0
 11
26.20593567702142
 21
3.098993966966683
 31
0.0
  0
LINE
  5
26D19
  8
0
  6
CONTINUOUS
 10
25.33838066033617
 20
1.557919741201244
 30
0.0
 11
26.41411742884217
 21
2.633656509707244
 31
0.0
  0
LINE
  5
26D1A
  8
0
  6
CONTINUOUS
 10
25.54647893675221
 20
1.092498808537098
 30
0.0
 11
26.62229918066291
 21
2.168319052447804
 31
0.0
  0
LINE
  5
26D1B
  8
0
  6
CONTINUOUS
 10
25.75457721316825
 20
0.62707787587295
 30
0.0
 11
26.83048093248366
 21
1.702981595188365
 31
0.0
  0
LINE
  5
26D1C
  8
0
  6
CONTINUOUS
 10
29.30199999996933
 20
6.195058289914587
 30
0.0
 11
30.74199999996926
 21
7.635058289914522
 31
0.0
  0
LINE
  5
26D1D
  8
0
  6
CONTINUOUS
 10
29.30199999996933
 20
5.521539080834401
 30
0.0
 11
30.74199999996926
 21
6.961539080834331
 31
0.0
  0
LINE
  5
26D1E
  8
0
  6
CONTINUOUS
 10
29.30199999996933
 20
4.848019871754214
 30
0.0
 11
30.74199999996925
 21
6.288019871754143
 31
0.0
  0
LINE
  5
26D1F
  8
0
  6
CONTINUOUS
 10
29.30199999996933
 20
4.174500662674028
 30
0.0
 11
30.74199999996925
 21
5.614500662673953
 31
0.0
  0
LINE
  5
26D20
  8
0
  6
CONTINUOUS
 10
25.96267548958429
 20
0.1616569432088024
 30
0.0
 11
27.18411854636669
 21
1.383099999991207
 31
0.0
  0
LINE
  5
26D21
  8
0
  6
CONTINUOUS
 10
29.30199999996933
 20
3.500981453593841
 30
0.0
 11
30.74199999996925
 21
4.940981453593762
 31
0.0
  0
LINE
  5
26D22
  8
0
  6
CONTINUOUS
 10
26.50763775544691
 20
0.0330999999912356
 30
0.0
 11
27.85763775544689
 21
1.383099999991223
 31
0.0
  0
LINE
  5
26D23
  8
0
  6
CONTINUOUS
 10
29.30199999996933
 20
2.827462244513656
 30
0.0
 11
30.74199999996925
 21
4.267462244513574
 31
0.0
  0
LINE
  5
26D24
  8
0
  6
CONTINUOUS
 10
27.18115696452709
 20
0.0330999999912356
 30
0.0
 11
28.6224847300034
 21
1.474427765467545
 31
0.0
  0
LINE
  5
26D25
  8
0
  6
CONTINUOUS
 10
29.21067223449293
 20
2.062615269957069
 30
0.0
 11
30.74199999996924
 21
3.593943035433383
 31
0.0
  0
LINE
  5
26D26
  8
0
  6
CONTINUOUS
 10
27.85467617360728
 20
0.0330999999912356
 30
0.0
 11
30.74199999996924
 21
2.920423826353195
 31
0.0
  0
LINE
  5
26D27
  8
0
  6
CONTINUOUS
 10
28.57438609860264
 20
0.0792907159064073
 30
0.0
 11
30.69580928405405
 21
2.200713901357819
 31
0.0
  0
LINE
  5
26D28
  8
0
  6
CONTINUOUS
 10
29.49443044814297
 20
0.3258158563665496
 30
0.0
 11
30.44928414359389
 21
1.280669551817477
 31
0.0
  0
LINE
  5
26D29
  8
0
  6
CONTINUOUS
 10
19.59027867740337
 20
-0.0000967065718083
 30
0.0
 11
19.55485265190471
 21
0.035329318926844
 31
0.0
  0
LINE
  5
26D2A
  8
0
  6
CONTINUOUS
 10
20.26375463176586
 20
-0.0000534518541091
 30
0.0
 11
19.76305575737534
 21
0.5006454225364014
 31
0.0
  0
LINE
  5
26D2B
  8
0
  6
CONTINUOUS
 10
20.93723058612834
 20
-0.0000101971364099
 30
0.0
 11
19.97125886284597
 21
0.965961526145958
 31
0.0
  0
LINE
  5
26D2C
  8
0
  6
CONTINUOUS
 10
21.25514828313686
 20
0.355591314935257
 30
0.0
 11
20.1794619683166
 21
1.431277629755512
 31
0.0
  0
LINE
  5
26D2D
  8
0
  6
CONTINUOUS
 10
21.46338838394921
 20
0.8208704232030986
 30
0.0
 11
20.38766507378723
 21
1.896593733365069
 31
0.0
  0
LINE
  5
26D2E
  8
0
  6
CONTINUOUS
 10
21.67162848476155
 20
1.28614953147094
 30
0.0
 11
20.59586817925786
 21
2.361909836974626
 31
0.0
  0
LINE
  5
26D2F
  8
0
  6
CONTINUOUS
 10
21.8798685855739
 20
1.751428639738782
 30
0.0
 11
20.80407128472849
 21
2.827225940584183
 31
0.0
  0
LINE
  5
26D30
  8
0
  6
CONTINUOUS
 10
22.08810868638624
 20
2.216707748006623
 30
0.0
 11
21.01227439019912
 21
3.292542044193739
 31
0.0
  0
LINE
  5
26D31
  8
0
  6
CONTINUOUS
 10
22.60993564347543
 20
2.36839999999762
 30
0.0
 11
21.22047749566975
 21
3.757858147803296
 31
0.0
  0
LINE
  5
26D32
  8
0
  6
CONTINUOUS
 10
23.28345485255561
 20
2.36839999999762
 30
0.0
 11
21.42868060114038
 21
4.223174251412853
 31
0.0
  0
LINE
  5
26D33
  8
0
  6
CONTINUOUS
 10
26.29227406164219
 20
0.0330999999912356
 30
0.0
 11
25.80009199592872
 21
0.5252820657046957
 31
0.0
  0
LINE
  5
26D34
  8
0
  6
CONTINUOUS
 10
23.9569740616358
 20
2.36839999999762
 30
0.0
 11
21.63688370661101
 21
4.688490355022409
 31
0.0
  0
LINE
  5
26D35
  8
0
  6
CONTINUOUS
 10
26.96579327072237
 20
0.0330999999912356
 30
0.0
 11
25.2554132311971
 21
1.743480039516508
 31
0.0
  0
LINE
  5
26D36
  8
0
  6
CONTINUOUS
 10
24.63049327071599
 20
2.36839999999762
 30
0.0
 11
23.32789327071731
 21
3.670999999996297
 31
0.0
  0
LINE
  5
26D37
  8
0
  6
CONTINUOUS
 10
22.92098674744635
 20
4.077906523267254
 30
0.0
 11
21.84508681208164
 21
5.153806458631966
 31
0.0
  0
LINE
  5
26D38
  8
0
  6
CONTINUOUS
 10
27.63931247980256
 20
0.0330999999912356
 30
0.0
 11
24.0014124797975
 21
3.670999999996297
 31
0.0
  0
LINE
  5
26D39
  8
0
  6
CONTINUOUS
 10
23.129125600968
 20
4.5432868788258
 30
0.0
 11
22.05328991755227
 21
5.619122562241522
 31
0.0
  0
LINE
  5
26D3A
  8
0
  6
CONTINUOUS
 10
28.31283168888275
 20
0.0330999999912356
 30
0.0
 11
24.16488385994816
 21
4.181047828925828
 31
0.0
  0
LINE
  5
26D3B
  8
0
  6
CONTINUOUS
 10
23.33726445448964
 20
5.008667234384345
 30
0.0
 11
22.2614930230229
 21
6.084438665851079
 31
0.0
  0
LINE
  5
26D3C
  8
0
  6
CONTINUOUS
 10
28.86286302309502
 20
0.1565878748591523
 30
0.0
 11
27.63635089796295
 21
1.383099999991217
 31
0.0
  0
LINE
  5
26D3D
  8
0
  6
CONTINUOUS
 10
26.43704649509776
 20
2.582404402856405
 30
0.0
 11
23.61992702019732
 21
5.399523877756844
 31
0.0
  0
LINE
  5
26D3E
  8
0
  6
CONTINUOUS
 10
23.54540330801128
 20
5.47404758994289
 30
0.0
 11
22.46969612849353
 21
6.549754769460635
 31
0.0
  0
LINE
  5
26D3F
  8
0
  6
CONTINUOUS
 10
29.39405087596853
 20
0.2989192310658284
 30
0.0
 11
28.30987010704312
 21
1.383099999991234
 31
0.0
  0
LINE
  5
26D40
  8
0
  6
CONTINUOUS
 10
25.89179548232307
 20
3.801174624711282
 30
0.0
 11
22.67789923396416
 21
7.015070873070191
 31
0.0
  0
LINE
  5
26D41
  8
0
  6
CONTINUOUS
 10
29.79594438047407
 20
0.570544935640473
 30
0.0
 11
28.81310432793121
 21
1.553384988183336
 31
0.0
  0
LINE
  5
26D42
  8
0
  6
CONTINUOUS
 10
25.34654446954838
 20
5.01994484656616
 30
0.0
 11
22.88610233943479
 21
7.480386976679748
 31
0.0
  0
LINE
  5
26D43
  8
0
  6
CONTINUOUS
 10
30.13270398501416
 20
0.9073045401805646
 30
0.0
 11
29.14234640337737
 21
1.897662121817355
 31
0.0
  0
LINE
  5
26D44
  8
0
  6
CONTINUOUS
 10
24.80129345677369
 20
6.238715068421037
 30
0.0
 11
23.09430544490542
 21
7.945703080289305
 31
0.0
  0
LINE
  5
26D45
  8
0
  6
CONTINUOUS
 10
30.44581292956759
 20
1.26771480470732
 30
0.0
 11
29.30199999996933
 21
2.411527734305588
 31
0.0
  0
LINE
  5
26D46
  8
0
  6
CONTINUOUS
 10
30.58814428577427
 20
1.798902657580827
 30
0.0
 11
29.30199999996933
 21
3.085046943385775
 31
0.0
  0
LINE
  5
26D47
  8
0
  6
CONTINUOUS
 10
24.256042443999
 20
7.457485290275915
 30
0.0
 11
23.30250855037605
 21
8.411019183898862
 31
0.0
  0
LINE
  5
26D48
  8
0
  6
CONTINUOUS
 10
23.71079143122431
 20
8.676255512130794
 30
0.0
 11
23.51071165584668
 21
8.876335287508418
 31
0.0
  0
LINE
  5
26D49
  8
0
  6
CONTINUOUS
 10
30.73047564198095
 20
2.330090510454333
 30
0.0
 11
29.30199999996933
 21
3.758566152465961
 31
0.0
  0
LINE
  5
26D4A
  8
0
  6
CONTINUOUS
 10
30.74199999996924
 20
2.992085361546236
 30
0.0
 11
29.30199999996933
 21
4.432085361546148
 31
0.0
  0
LINE
  5
26D4B
  8
0
  6
CONTINUOUS
 10
30.74199999996924
 20
3.665604570626419
 30
0.0
 11
29.30199999996933
 21
5.105604570626333
 31
0.0
  0
LINE
  5
26D4C
  8
0
  6
CONTINUOUS
 10
30.74199999996925
 20
4.339123779706602
 30
0.0
 11
29.30199999996933
 21
5.77912377970652
 31
0.0
  0
LINE
  5
26D4D
  8
0
  6
CONTINUOUS
 10
30.74199999996925
 20
5.012642988786785
 30
0.0
 11
29.30199999996933
 21
6.452642988786707
 31
0.0
  0
LINE
  5
26D4E
  8
0
  6
CONTINUOUS
 10
30.74199999996925
 20
5.68616219786697
 30
0.0
 11
29.30199999996933
 21
7.126162197866894
 31
0.0
  0
LINE
  5
26D4F
  8
0
  6
CONTINUOUS
 10
30.74199999996925
 20
6.359681406947153
 30
0.0
 11
29.30199999996933
 21
7.799681406947081
 31
0.0
  0
LINE
  5
26D50
  8
0
  6
CONTINUOUS
 10
30.74199999996926
 20
7.033200616027337
 30
0.0
 11
29.30199999996933
 21
8.473200616027269
 31
0.0
  0
LINE
  5
26D51
  8
0
  6
CONTINUOUS
 10
30.74199999996926
 20
7.706719825107518
 30
0.0
 11
29.68561982508552
 21
8.763099999991255
 31
0.0
  0
LINE
  5
26D52
  8
0
  6
CONTINUOUS
 10
30.74199999996926
 20
8.380239034187703
 30
0.0
 11
30.35913903416571
 21
8.763099999991255
 31
0.0
  0
ENDBLK
  5
26DF5
  8
0
  0
BLOCK
  8
0
  2
*X261
 70
     1
 10
0.0
 20
0.0
 30
0.0
  3
*X261
  1

  0
LINE
  5
26D54
  8
0
  6
CONTINUOUS
 10
31.64199999996833
 20
8.5350582899136
 30
0.0
 11
31.87004171004599
 21
8.763099999991255
 31
0.0
  0
LINE
  5
26D55
  8
0
  6
CONTINUOUS
 10
31.64199999996833
 20
7.861539080833413
 30
0.0
 11
32.54356091912618
 21
8.763099999991255
 31
0.0
  0
LINE
  5
26D56
  8
0
  6
CONTINUOUS
 10
31.64199999996833
 20
7.188019871753227
 30
0.0
 11
33.08199999996839
 21
8.628019871753281
 31
0.0
  0
LINE
  5
26D57
  8
0
  6
CONTINUOUS
 10
31.64199999996833
 20
6.514500662673041
 30
0.0
 11
33.08199999996839
 21
7.954500662673095
 31
0.0
  0
LINE
  5
26D58
  8
0
  6
CONTINUOUS
 10
31.64199999996833
 20
5.840981453592855
 30
0.0
 11
33.08199999996839
 21
7.28098145359291
 31
0.0
  0
LINE
  5
26D59
  8
0
  6
CONTINUOUS
 10
31.64199999996833
 20
5.167462244512668
 30
0.0
 11
33.08199999996839
 21
6.607462244512723
 31
0.0
  0
LINE
  5
26D5A
  8
0
  6
CONTINUOUS
 10
31.64199999996833
 20
4.493943035432482
 30
0.0
 11
33.08199999996839
 21
5.933943035432536
 31
0.0
  0
LINE
  5
26D5B
  8
0
  6
CONTINUOUS
 10
31.64199999996833
 20
3.820423826352294
 30
0.0
 11
33.08199999996839
 21
5.260423826352349
 31
0.0
  0
LINE
  5
26D5C
  8
0
  6
CONTINUOUS
 10
31.64199999996833
 20
3.146904617272108
 30
0.0
 11
33.08199999996839
 21
4.586904617272163
 31
0.0
  0
LINE
  5
26D5D
  8
0
  6
CONTINUOUS
 10
36.23199999996837
 20
8.410423826352327
 30
0.0
 11
36.58467617360729
 21
8.763099999991255
 31
0.0
  0
LINE
  5
26D5E
  8
0
  6
CONTINUOUS
 10
36.23199999996837
 20
7.73690461727214
 30
0.0
 11
37.25819538268748
 21
8.763099999991255
 31
0.0
  0
LINE
  5
26D5F
  8
0
  6
CONTINUOUS
 10
31.64323424774199
 20
2.474619655965573
 30
0.0
 11
33.08199999996839
 21
3.913385408191976
 31
0.0
  0
LINE
  5
26D60
  8
0
  6
CONTINUOUS
 10
31.74419223861915
 20
1.902058437762552
 30
0.0
 11
33.08199999996839
 21
3.239866199111789
 31
0.0
  0
LINE
  5
26D61
  8
0
  6
CONTINUOUS
 10
36.23199999996837
 20
7.063385408191953
 30
0.0
 11
37.67199999996831
 21
8.503385408191894
 31
0.0
  0
LINE
  5
26D62
  8
0
  6
CONTINUOUS
 10
36.23199999996837
 20
6.389866199111767
 30
0.0
 11
37.67199999996831
 21
7.829866199111708
 31
0.0
  0
LINE
  5
26D63
  8
0
  6
CONTINUOUS
 10
31.91111233414976
 20
1.39545932421297
 30
0.0
 11
33.08199999996839
 21
2.566346990031603
 31
0.0
  0
LINE
  5
26D64
  8
0
  6
CONTINUOUS
 10
36.23199999996837
 20
5.71634699003158
 30
0.0
 11
37.67199999996831
 21
7.156346990031522
 31
0.0
  0
LINE
  5
26D65
  8
0
  6
CONTINUOUS
 10
32.1576374746103
 20
0.9684652555933289
 30
0.0
 11
33.20642631446081
 21
2.017254095443838
 31
0.0
  0
LINE
  5
26D66
  8
0
  6
CONTINUOUS
 10
36.23199999996837
 20
5.042827780951393
 30
0.0
 11
37.67199999996831
 21
6.482827780951334
 31
0.0
  0
LINE
  5
26D67
  8
0
  6
CONTINUOUS
 10
32.47774023927325
 20
0.6150488111760914
 30
0.0
 11
33.49903056428258
 21
1.636339136185419
 31
0.0
  0
LINE
  5
26D68
  8
0
  6
CONTINUOUS
 10
36.23199999996837
 20
4.369308571871207
 30
0.0
 11
37.67199999996831
 21
5.809308571871148
 31
0.0
  0
LINE
  5
26D69
  8
0
  6
CONTINUOUS
 10
32.84396249154443
 20
0.3077518543670883
 30
0.0
 11
33.93324121824649
 21
1.397030581069146
 31
0.0
  0
LINE
  5
26D6A
  8
0
  6
CONTINUOUS
 10
36.23199999996837
 20
3.695789362791021
 30
0.0
 11
37.67199999996831
 21
5.135789362790963
 31
0.0
  0
LINE
  5
26D6B
  8
0
  6
CONTINUOUS
 10
33.30186329036846
 20
0.0921334441109263
 30
0.0
 11
34.46442907112041
 21
1.254699224862875
 31
0.0
  0
LINE
  5
26D6C
  8
0
  6
CONTINUOUS
 10
36.23199999996837
 20
3.022270153710834
 30
0.0
 11
37.67199999996831
 21
4.462270153710776
 31
0.0
  0
LINE
  5
26D6D
  8
0
  6
CONTINUOUS
 10
33.79565647746294
 20
-0.0875925778747773
 30
0.0
 11
35.24350171668284
 21
1.360252661345124
 31
0.0
  0
LINE
  5
26D6E
  8
0
  6
CONTINUOUS
 10
36.18336676155003
 20
2.300117706212308
 30
0.0
 11
37.67199999996831
 21
3.788750944630589
 31
0.0
  0
LINE
  5
26D6F
  8
0
  6
CONTINUOUS
 10
34.37182574910968
 20
-0.184942515308224
 30
0.0
 11
37.67199999996831
 21
3.115231735550402
 31
0.0
  0
LINE
  5
26D70
  8
0
  6
CONTINUOUS
 10
35.0453449581892
 20
-0.1849425153088955
 30
0.0
 11
37.66345697088136
 21
2.433169497383271
 31
0.0
  0
LINE
  5
26D71
  8
0
  6
CONTINUOUS
 10
35.98667157609191
 20
0.0828648935136398
 30
0.0
 11
37.51927401744566
 21
1.615467334867382
 31
0.0
  0
LINE
  5
26D72
  8
0
  6
CONTINUOUS
 10
32.27747408544484
 20
0.7830920669904482
 30
0.0
 11
32.24716210471949
 21
0.8134040477157893
 31
0.0
  0
LINE
  5
26D73
  8
0
  6
CONTINUOUS
 10
33.83656881101902
 20
-0.1024834495035494
 30
0.0
 11
31.72538911593758
 21
2.008696245577891
 31
0.0
  0
LINE
  5
26D74
  8
0
  6
CONTINUOUS
 10
34.5925470859041
 20
-0.1849425153084434
 30
0.0
 11
31.64199999996833
 21
2.765604570627322
 31
0.0
  0
LINE
  5
26D75
  8
0
  6
CONTINUOUS
 10
35.26201302775981
 20
-0.1808892480839752
 30
0.0
 11
31.64199999996833
 21
3.439123779707508
 31
0.0
  0
LINE
  5
26D76
  8
0
  6
CONTINUOUS
 10
35.75580621485512
 20
-0.0011632260990879
 30
0.0
 11
34.51294304365551
 21
1.241699945100514
 31
0.0
  0
LINE
  5
26D77
  8
0
  6
CONTINUOUS
 10
33.08199999996839
 20
2.672642988787641
 30
0.0
 11
31.64199999996833
 21
4.112642988787695
 31
0.0
  0
LINE
  5
26D78
  8
0
  6
CONTINUOUS
 10
36.24959940195042
 20
0.1785627958857976
 30
0.0
 11
35.10501653033629
 21
1.323145667499924
 31
0.0
  0
LINE
  5
26D79
  8
0
  6
CONTINUOUS
 10
33.08199999996839
 20
3.346162197867827
 30
0.0
 11
31.64199999996833
 21
4.786162197867881
 31
0.0
  0
LINE
  5
26D7A
  8
0
  6
CONTINUOUS
 10
36.64615197150552
 20
0.4555294354108876
 30
0.0
 11
35.6362043832099
 21
1.465477023706505
 31
0.0
  0
LINE
  5
26D7B
  8
0
  6
CONTINUOUS
 10
33.08199999996839
 20
4.019681406948013
 30
0.0
 11
31.64199999996833
 21
5.459681406948068
 31
0.0
  0
LINE
  5
26D7C
  8
0
  6
CONTINUOUS
 10
37.0123742237774
 20
0.7628263922191891
 30
0.0
 11
35.97691545773309
 21
1.798285158263504
 31
0.0
  0
LINE
  5
26D7D
  8
0
  6
CONTINUOUS
 10
33.08199999996839
 20
4.6932006160282
 30
0.0
 11
31.64199999996833
 21
6.133200616028255
 31
0.0
  0
LINE
  5
26D7E
  8
0
  6
CONTINUOUS
 10
37.27491524157143
 20
1.173804583505349
 30
0.0
 11
36.17602012811361
 21
2.272699696963169
 31
0.0
  0
LINE
  5
26D7F
  8
0
  6
CONTINUOUS
 10
33.08199999996839
 20
5.366719825108387
 30
0.0
 11
31.64199999996833
 21
6.806719825108441
 31
0.0
  0
LINE
  5
26D80
  8
0
  6
CONTINUOUS
 10
37.51739996707661
 20
1.604839067080355
 30
0.0
 11
36.23199999996837
 21
2.890239034188595
 31
0.0
  0
LINE
  5
26D81
  8
0
  6
CONTINUOUS
 10
37.6183579579535
 20
2.177400285283649
 30
0.0
 11
36.23199999996837
 21
3.563758243268782
 31
0.0
  0
LINE
  5
26D82
  8
0
  6
CONTINUOUS
 10
33.08199999996839
 20
6.040239034188573
 30
0.0
 11
31.64199999996833
 21
7.480239034188628
 31
0.0
  0
LINE
  5
26D83
  8
0
  6
CONTINUOUS
 10
33.08199999996839
 20
6.713758243268759
 30
0.0
 11
31.64199999996833
 21
8.153758243268815
 31
0.0
  0
LINE
  5
26D84
  8
0
  6
CONTINUOUS
 10
37.67199999996831
 20
2.797277452349027
 30
0.0
 11
36.23199999996837
 21
4.237277452348969
 31
0.0
  0
LINE
  5
26D85
  8
0
  6
CONTINUOUS
 10
37.67199999996831
 20
3.470796661429214
 30
0.0
 11
36.23199999996837
 21
4.910796661429155
 31
0.0
  0
LINE
  5
26D86
  8
0
  6
CONTINUOUS
 10
37.67199999996831
 20
4.1443158705094
 30
0.0
 11
36.23199999996837
 21
5.584315870509341
 31
0.0
  0
LINE
  5
26D87
  8
0
  6
CONTINUOUS
 10
33.08199999996839
 20
7.387277452348946
 30
0.0
 11
31.70617745232608
 21
8.763099999991255
 31
0.0
  0
LINE
  5
26D88
  8
0
  6
CONTINUOUS
 10
33.08199999996839
 20
8.060796661429134
 30
0.0
 11
32.37969666140626
 21
8.763099999991255
 31
0.0
  0
LINE
  5
26D89
  8
0
  6
CONTINUOUS
 10
33.08199999996839
 20
8.734315870509318
 30
0.0
 11
33.05321587048645
 21
8.763099999991255
 31
0.0
  0
LINE
  5
26D8A
  8
0
  6
CONTINUOUS
 10
37.67199999996831
 20
4.817835079589586
 30
0.0
 11
36.23199999996837
 21
6.257835079589528
 31
0.0
  0
LINE
  5
26D8B
  8
0
  6
CONTINUOUS
 10
37.67199999996831
 20
5.491354288669772
 30
0.0
 11
36.23199999996837
 21
6.931354288669715
 31
0.0
  0
LINE
  5
26D8C
  8
0
  6
CONTINUOUS
 10
37.67199999996831
 20
6.164873497749959
 30
0.0
 11
36.23199999996837
 21
7.6048734977499
 31
0.0
  0
LINE
  5
26D8D
  8
0
  6
CONTINUOUS
 10
37.67199999996831
 20
6.838392706830145
 30
0.0
 11
36.23199999996837
 21
8.278392706830086
 31
0.0
  0
LINE
  5
26D8E
  8
0
  6
CONTINUOUS
 10
37.67199999996831
 20
7.511911915910333
 30
0.0
 11
36.42081191588738
 21
8.763099999991255
 31
0.0
  0
LINE
  5
26D8F
  8
0
  6
CONTINUOUS
 10
37.67199999996831
 20
8.185431124990519
 30
0.0
 11
37.09433112496757
 21
8.763099999991255
 31
0.0
  0
ENDBLK
  5
26DF7
  8
0
  0
BLOCK
  8
0
  2
*X262
 70
     1
 10
0.0
 20
0.0
 30
0.0
  3
*X262
  1

  0
LINE
  5
26D91
  8
0
  6
CONTINUOUS
 10
38.60499999996136
 20
8.762866199104765
 30
0.0
 11
38.71672554182345
 21
8.874591740966855
 31
0.0
  0
LINE
  5
26D92
  8
0
  6
CONTINUOUS
 10
38.60499999996136
 20
8.089346990024577
 30
0.0
 11
39.03418785440363
 21
8.518534844466847
 31
0.0
  0
LINE
  5
26D93
  8
0
  6
CONTINUOUS
 10
38.60499999996136
 20
7.41582778094439
 30
0.0
 11
39.35165016698382
 21
8.16247794796684
 31
0.0
  0
LINE
  5
26D94
  8
0
  6
CONTINUOUS
 10
38.60499999996136
 20
6.742308571864204
 30
0.0
 11
39.66911247956399
 21
7.806421051466834
 31
0.0
  0
LINE
  5
26D95
  8
0
  6
CONTINUOUS
 10
38.60499999996136
 20
6.068789362784018
 30
0.0
 11
39.98657479214418
 21
7.450364154966827
 31
0.0
  0
LINE
  5
26D96
  8
0
  6
CONTINUOUS
 10
38.60499999996136
 20
5.395270153703832
 30
0.0
 11
40.30403710472435
 21
7.09430725846682
 31
0.0
  0
LINE
  5
26D97
  8
0
  6
CONTINUOUS
 10
38.60499999996136
 20
4.721750944623645
 30
0.0
 11
40.62149941730453
 21
6.738250361966813
 31
0.0
  0
LINE
  5
26D98
  8
0
  6
CONTINUOUS
 10
38.60499999996136
 20
4.048231735543458
 30
0.0
 11
40.93896172988471
 21
6.382193465466806
 31
0.0
  0
LINE
  5
26D99
  8
0
  6
CONTINUOUS
 10
38.60499999996136
 20
3.374712526463272
 30
0.0
 11
40.02599999995994
 21
4.795712526461843
 31
0.0
  0
LINE
  5
26D9A
  8
0
  6
CONTINUOUS
 10
38.60499999996136
 20
2.701193317383085
 30
0.0
 11
40.02599999995994
 21
4.122193317381657
 31
0.0
  0
LINE
  5
26D9B
  8
0
  6
CONTINUOUS
 10
40.28339754687704
 20
5.053110073378947
 30
0.0
 11
41.25642404246489
 21
6.026136568966799
 31
0.0
  0
LINE
  5
26D9C
  8
0
  6
CONTINUOUS
 10
40.60085985945722
 20
4.697053176878939
 30
0.0
 11
41.57388635504507
 21
5.670079672466793
 31
0.0
  0
LINE
  5
26D9D
  8
0
  6
CONTINUOUS
 10
43.57899999995641
 20
8.348712526458318
 30
0.0
 11
43.99338747348935
 21
8.763099999991255
 31
0.0
  0
LINE
  5
26D9E
  8
0
  6
CONTINUOUS
 10
43.57899999995641
 20
7.675193317378131
 30
0.0
 11
44.66690668256953
 21
8.763099999991255
 31
0.0
  0
LINE
  5
26D9F
  8
0
  6
CONTINUOUS
 10
38.60499999996136
 20
2.027674108302898
 30
0.0
 11
40.02599999995994
 21
3.44867410830147
 31
0.0
  0
LINE
  5
26DA0
  8
0
  6
CONTINUOUS
 10
38.60499999996136
 20
1.354154899222712
 30
0.0
 11
40.02599999995994
 21
2.775154899221284
 31
0.0
  0
LINE
  5
26DA1
  8
0
  6
CONTINUOUS
 10
38.60499999996136
 20
0.6806356901425255
 30
0.0
 11
40.02599999995994
 21
2.101635690141098
 31
0.0
  0
LINE
  5
26DA2
  8
0
  6
CONTINUOUS
 10
38.60499999996136
 20
0.0071164810623383
 30
0.0
 11
40.02599999995994
 21
1.428116481060911
 31
0.0
  0
LINE
  5
26DA3
  8
0
  6
CONTINUOUS
 10
40.9183221720374
 20
4.340996280378933
 30
0.0
 11
41.89134866762525
 21
5.314022775966786
 31
0.0
  0
LINE
  5
26DA4
  8
0
  6
CONTINUOUS
 10
41.23578448461758
 20
3.984939383878926
 30
0.0
 11
42.20881098020543
 21
4.957965879466778
 31
0.0
  0
LINE
  5
26DA5
  8
0
  6
CONTINUOUS
 10
41.55324679719776
 20
3.628882487378919
 30
0.0
 11
42.52627329278561
 21
4.601908982966772
 31
0.0
  0
LINE
  5
26DA6
  8
0
  6
CONTINUOUS
 10
41.87070910977793
 20
3.272825590878912
 30
0.0
 11
42.84373560536579
 21
4.245852086466765
 31
0.0
  0
LINE
  5
26DA7
  8
0
  6
CONTINUOUS
 10
43.57899999995641
 20
7.001674108297943
 30
0.0
 11
44.99999999995498
 21
8.422674108296516
 31
0.0
  0
LINE
  5
26DA8
  8
0
  6
CONTINUOUS
 10
43.57899999995641
 20
6.328154899217758
 30
0.0
 11
44.99999999995498
 21
7.749154899216329
 31
0.0
  0
LINE
  5
26DA9
  8
0
  6
CONTINUOUS
 10
43.57899999995641
 20
5.654635690137571
 30
0.0
 11
44.99999999995498
 21
7.075635690136142
 31
0.0
  0
LINE
  5
26DAA
  8
0
  6
CONTINUOUS
 10
43.57899999995641
 20
4.981116481057384
 30
0.0
 11
44.99999999995498
 21
6.402116481055955
 31
0.0
  0
LINE
  5
26DAB
  8
0
  6
CONTINUOUS
 10
39.27140272797921
 20
-0.0000000000000009
 30
0.0
 11
40.02599999995994
 21
0.7545972719807246
 31
0.0
  0
LINE
  5
26DAC
  8
0
  6
CONTINUOUS
 10
39.9449219370594
 20
-0.0000000000000009
 30
0.0
 11
40.02599999995994
 21
0.0810780629005379
 31
0.0
  0
LINE
  5
26DAD
  8
0
  6
CONTINUOUS
 10
42.18817142235812
 20
2.916768694378905
 30
0.0
 11
43.16119791794597
 21
3.889795189966758
 31
0.0
  0
LINE
  5
26DAE
  8
0
  6
CONTINUOUS
 10
42.50563373493829
 20
2.560711797878898
 30
0.0
 11
43.47866023052615
 21
3.533738293466751
 31
0.0
  0
LINE
  5
26DAF
  8
0
  6
CONTINUOUS
 10
43.57899999995641
 20
4.307597271977198
 30
0.0
 11
44.99999999995498
 21
5.728597271975769
 31
0.0
  0
LINE
  5
26DB0
  8
0
  6
CONTINUOUS
 10
43.57899999995641
 20
3.634078062897011
 30
0.0
 11
44.99999999995498
 21
5.055078062895582
 31
0.0
  0
LINE
  5
26DB1
  8
0
  6
CONTINUOUS
 10
42.82309604751848
 20
2.204654901378891
 30
0.0
 11
44.99999999995498
 21
4.381558853815395
 31
0.0
  0
LINE
  5
26DB2
  8
0
  6
CONTINUOUS
 10
43.14055836009865
 20
1.848598004878885
 30
0.0
 11
44.99999999995498
 21
3.70803964473521
 31
0.0
  0
LINE
  5
26DB3
  8
0
  6
CONTINUOUS
 10
43.45802067267883
 20
1.492541108378878
 30
0.0
 11
44.99999999995498
 21
3.034520435655023
 31
0.0
  0
LINE
  5
26DB4
  8
0
  6
CONTINUOUS
 10
43.77548298525902
 20
1.136484211878871
 30
0.0
 11
44.99999999995498
 21
2.361001226574837
 31
0.0
  0
LINE
  5
26DB5
  8
0
  6
CONTINUOUS
 10
44.09294529783919
 20
0.7804273153788639
 30
0.0
 11
44.99999999995498
 21
1.687482017494649
 31
0.0
  0
LINE
  5
26DB6
  8
0
  6
CONTINUOUS
 10
44.41040761041938
 20
0.4243704188788566
 30
0.0
 11
44.99999999995498
 21
1.013962808414463
 31
0.0
  0
LINE
  5
26DB7
  8
0
  6
CONTINUOUS
 10
44.72786992299955
 20
0.0683135223788494
 30
0.0
 11
44.99999999995498
 21
0.340443599334276
 31
0.0
  0
LINE
  5
26DB8
  8
0
  6
CONTINUOUS
 10
39.12223903415696
 20
-0.0000000000000009
 30
0.0
 11
38.60499999996136
 21
0.5172390341955961
 31
0.0
  0
LINE
  5
26DB9
  8
0
  6
CONTINUOUS
 10
39.79575824323715
 20
-0.0000000000000009
 30
0.0
 11
38.60499999996136
 21
1.190758243275783
 31
0.0
  0
LINE
  5
26DBA
  8
0
  6
CONTINUOUS
 10
40.02599999995994
 20
0.443277452357397
 30
0.0
 11
38.60499999996136
 21
1.864277452355969
 31
0.0
  0
LINE
  5
26DBB
  8
0
  6
CONTINUOUS
 10
40.02599999995994
 20
1.116796661437583
 30
0.0
 11
38.60499999996136
 21
2.537796661436155
 31
0.0
  0
LINE
  5
26DBC
  8
0
  6
CONTINUOUS
 10
40.02599999995994
 20
1.79031587051777
 30
0.0
 11
38.60499999996136
 21
3.211315870516341
 31
0.0
  0
LINE
  5
26DBD
  8
0
  6
CONTINUOUS
 10
40.02599999995994
 20
2.463835079597956
 30
0.0
 11
38.60499999996136
 21
3.884835079596527
 31
0.0
  0
LINE
  5
26DBE
  8
0
  6
CONTINUOUS
 10
40.02599999995994
 20
3.137354288678143
 30
0.0
 11
38.60499999996136
 21
4.558354288676714
 31
0.0
  0
LINE
  5
26DBF
  8
0
  6
CONTINUOUS
 10
40.02599999995994
 20
3.810873497758329
 30
0.0
 11
38.60499999996136
 21
5.2318734977569
 31
0.0
  0
LINE
  5
26DC0
  8
0
  6
CONTINUOUS
 10
40.02599999995994
 20
4.484392706838515
 30
0.0
 11
38.60499999996136
 21
5.905392706837086
 31
0.0
  0
LINE
  5
26DC1
  8
0
  6
CONTINUOUS
 10
44.99999999995498
 20
0.183911915923658
 30
0.0
 11
41.53858364506288
 21
3.64532827081576
 31
0.0
  0
LINE
  5
26DC2
  8
0
  6
CONTINUOUS
 10
40.02599999995994
 20
5.157911915918703
 30
0.0
 11
38.60499999996136
 21
6.578911915917274
 31
0.0
  0
LINE
  5
26DC3
  8
0
  6
CONTINUOUS
 10
44.99999999995498
 20
0.8574311250038447
 30
0.0
 11
38.60499999996136
 21
7.25243112499746
 31
0.0
  0
LINE
  5
26DC4
  8
0
  6
CONTINUOUS
 10
44.99999999995498
 20
1.530950334084031
 30
0.0
 11
38.60499999996136
 21
7.925950334077647
 31
0.0
  0
LINE
  5
26DC5
  8
0
  6
CONTINUOUS
 10
44.99999999995498
 20
2.204469543164218
 30
0.0
 11
43.57899999995641
 21
3.625469543162789
 31
0.0
  0
LINE
  5
26DC6
  8
0
  6
CONTINUOUS
 10
41.89876730984767
 20
5.305702233271528
 30
0.0
 11
38.60499999996136
 21
8.599469543157834
 31
0.0
  0
LINE
  5
26DC7
  8
0
  6
CONTINUOUS
 10
44.99999999995498
 20
2.877988752244405
 30
0.0
 11
43.57899999995641
 21
4.298988752242975
 31
0.0
  0
LINE
  5
26DC8
  8
0
  6
CONTINUOUS
 10
44.99999999995498
 20
3.551507961324591
 30
0.0
 11
43.57899999995641
 21
4.972507961323163
 31
0.0
  0
LINE
  5
26DC9
  8
0
  6
CONTINUOUS
 10
44.99999999995498
 20
4.225027170404777
 30
0.0
 11
43.57899999995641
 21
5.646027170403348
 31
0.0
  0
LINE
  5
26DCA
  8
0
  6
CONTINUOUS
 10
44.99999999995498
 20
4.898546379484964
 30
0.0
 11
43.57899999995641
 21
6.319546379483535
 31
0.0
  0
LINE
  5
26DCB
  8
0
  6
CONTINUOUS
 10
44.99999999995498
 20
5.572065588565151
 30
0.0
 11
43.57899999995641
 21
6.993065588563722
 31
0.0
  0
LINE
  5
26DCC
  8
0
  6
CONTINUOUS
 10
44.99999999995498
 20
6.245584797645336
 30
0.0
 11
43.57899999995641
 21
7.666584797643908
 31
0.0
  0
LINE
  5
26DCD
  8
0
  6
CONTINUOUS
 10
44.99999999995498
 20
6.919104006725522
 30
0.0
 11
43.57899999995641
 21
8.340104006724093
 31
0.0
  0
LINE
  5
26DCE
  8
0
  6
CONTINUOUS
 10
44.99999999995498
 20
7.592623215805709
 30
0.0
 11
43.82952321576943
 21
8.763099999991255
 31
0.0
  0
LINE
  5
26DCF
  8
0
  6
CONTINUOUS
 10
44.99999999995498
 20
8.266142424885896
 30
0.0
 11
44.50304242484962
 21
8.763099999991255
 31
0.0
  0
ENDBLK
  5
26DF9
  8
0
  0
BLOCK
  8
0
  2
*X263
 70
     1
 10
0.0
 20
0.0
 30
0.0
  3
*X263
  1

  0
LINE
  5
26DD1
  8
0
  6
CONTINUOUS
 10
0.0
 20
8.548461116714023
 30
0.0
 11
0.2146388832772324
 21
8.763099999991255
 31
0.0
  0
LINE
  5
26DD2
  8
0
  6
CONTINUOUS
 10
-0.0000000000000002
 20
7.874941907633837
 30
0.0
 11
0.8881580923574184
 21
8.763099999991255
 31
0.0
  0
LINE
  5
26DD3
  8
0
  6
CONTINUOUS
 10
0.0
 20
7.20142269855365
 30
0.0
 11
1.420999999998572
 21
8.622422698552223
 31
0.0
  0
LINE
  5
26DD4
  8
0
  6
CONTINUOUS
 10
-0.0000000000000001
 20
6.527903489473465
 30
0.0
 11
1.420999999998571
 21
7.948903489472036
 31
0.0
  0
LINE
  5
26DD5
  8
0
  6
CONTINUOUS
 10
-0.0000000000000002
 20
5.854384280393278
 30
0.0
 11
1.420999999998571
 21
7.275384280391849
 31
0.0
  0
LINE
  5
26DD6
  8
0
  6
CONTINUOUS
 10
-0.0000000000000002
 20
5.180865071313091
 30
0.0
 11
1.420999999998571
 21
6.601865071311663
 31
0.0
  0
LINE
  5
26DD7
  8
0
  6
CONTINUOUS
 10
0.0
 20
4.507345862232905
 30
0.0
 11
1.420999999998571
 21
5.928345862231477
 31
0.0
  0
LINE
  5
26DD8
  8
0
  6
CONTINUOUS
 10
-0.0000000000000003
 20
3.833826653152718
 30
0.0
 11
1.420999999998571
 21
5.25482665315129
 31
0.0
  0
LINE
  5
26DD9
  8
0
  6
CONTINUOUS
 10
-0.0000000000000002
 20
3.160307444072532
 30
0.0
 11
1.420999999998571
 21
4.581307444071103
 31
0.0
  0
LINE
  5
26DDA
  8
0
  6
CONTINUOUS
 10
-0.0000000000000001
 20
2.486788234992345
 30
0.0
 11
1.420999999998571
 21
3.907788234990917
 31
0.0
  0
LINE
  5
26DDB
  8
0
  6
CONTINUOUS
 10
-0.0000000000000006
 20
1.813269025912159
 30
0.0
 11
1.420999999998571
 21
3.234269025910731
 31
0.0
  0
LINE
  5
26DDC
  8
0
  6
CONTINUOUS
 10
0.0
 20
1.139749816831973
 30
0.0
 11
1.420999999998571
 21
2.560749816830544
 31
0.0
  0
LINE
  5
26DDD
  8
0
  6
CONTINUOUS
 10
0.0000000000000002
 20
0.466230607751787
 30
0.0
 11
1.420999999998571
 21
1.887230607750358
 31
0.0
  0
LINE
  5
26DDE
  8
0
  6
CONTINUOUS
 10
0.2072886013284003
 20
-0.0000000000000009
 30
0.0
 11
1.420999999998571
 21
1.213711398670171
 31
0.0
  0
LINE
  5
26DDF
  8
0
  6
CONTINUOUS
 10
0.8808078104085864
 20
-0.0000000000000009
 30
0.0
 11
1.420999999998571
 21
0.5401921895899839
 31
0.0
  0
LINE
  5
26DE0
  8
0
  6
CONTINUOUS
 10
0.0581249075061505
 20
-0.0000000000000009
 30
0.0
 11
-0.0000000000000002
 21
0.0581249075061496
 31
0.0
  0
LINE
  5
26DE1
  8
0
  6
CONTINUOUS
 10
0.7316441165863372
 20
-0.0000000000000009
 30
0.0
 11
-0.0000000000000002
 21
0.7316441165863363
 31
0.0
  0
LINE
  5
26DE2
  8
0
  6
CONTINUOUS
 10
1.405163325666523
 20
-0.0000000000000009
 30
0.0
 11
-0.0000000000000002
 21
1.405163325666523
 31
0.0
  0
LINE
  5
26DE3
  8
0
  6
CONTINUOUS
 10
1.420999999998572
 20
0.6576825347481381
 30
0.0
 11
-0.0000000000000001
 21
2.07868253474671
 31
0.0
  0
LINE
  5
26DE4
  8
0
  6
CONTINUOUS
 10
1.420999999998571
 20
1.331201743828324
 30
0.0
 11
-0.0000000000000001
 21
2.752201743826896
 31
0.0
  0
LINE
  5
26DE5
  8
0
  6
CONTINUOUS
 10
1.420999999998571
 20
2.004720952908511
 30
0.0
 11
-0.0000000000000002
 21
3.425720952907082
 31
0.0
  0
LINE
  5
26DE6
  8
0
  6
CONTINUOUS
 10
1.420999999998571
 20
2.678240161988697
 30
0.0
 11
-0.0000000000000001
 21
4.099240161987269
 31
0.0
  0
LINE
  5
26DE7
  8
0
  6
CONTINUOUS
 10
1.420999999998572
 20
3.351759371068884
 30
0.0
 11
0.0
 21
4.772759371067455
 31
0.0
  0
LINE
  5
26DE8
  8
0
  6
CONTINUOUS
 10
1.420999999998571
 20
4.02527858014907
 30
0.0
 11
-0.0000000000000003
 21
5.446278580147642
 31
0.0
  0
LINE
  5
26DE9
  8
0
  6
CONTINUOUS
 10
1.420999999998571
 20
4.698797789229257
 30
0.0
 11
0.0
 21
6.119797789227828
 31
0.0
  0
LINE
  5
26DEA
  8
0
  6
CONTINUOUS
 10
1.420999999998571
 20
5.372316998309444
 30
0.0
 11
-0.0000000000000001
 21
6.793316998308015
 31
0.0
  0
LINE
  5
26DEB
  8
0
  6
CONTINUOUS
 10
1.420999999998572
 20
6.045836207389629
 30
0.0
 11
-0.0000000000000004
 21
7.466836207388202
 31
0.0
  0
LINE
  5
26DEC
  8
0
  6
CONTINUOUS
 10
1.420999999998571
 20
6.719355416469816
 30
0.0
 11
0.0
 21
8.140355416468388
 31
0.0
  0
LINE
  5
26DED
  8
0
  6
CONTINUOUS
 10
1.420999999998571
 20
7.392874625550003
 30
0.0
 11
0.0507746255573185
 21
8.763099999991255
 31
0.0
  0
LINE
  5
26DEE
  8
0
  6
CONTINUOUS
 10
1.420999999998571
 20
8.06639383463019
 30
0.0
 11
0.7242938346375052
 21
8.763099999991255
 31
0.0
  0
LINE
  5
26DEF
  8
0
  6
CONTINUOUS
 10
1.420999999998571
 20
8.739913043710375
 30
0.0
 11
1.397813043717691
 21
8.763099999991255
 31
0.0
  0
ENDBLK
  5
26DFB
  8
0
  0
ENDSEC
  0
SECTION
  2
ENTITIES
  0
TEXT
  5
1DB93
  8
1TEXT
 10
511.149574948698
 20
-485.9500854775896
 30
0.0
 40
4.0
  1
表面処理
 72
     1
 11
520.4162416153647
 21
-485.9500854775896
 31
0.0
  0
LINE
  5
1DB94
  8
1DIM
 10
503.0162416153646
 20
-480.4500854775896
 30
0.0
 11
573.0162416153646
 21
-480.4500854775896
 31
0.0
  0
LINE
  5
1DB95
  8
1DIM
 10
503.0162416153646
 20
-494.4500854775896
 30
0.0
 11
573.0162416153646
 21
-494.4500854775896
 31
0.0
  0
LINE
  5
1DB96
  8
1DIM
 10
503.0162416153646
 20
-487.4500854775896
 30
0.0
 11
573.0162416153646
 21
-487.4500854775896
 31
0.0
  0
LINE
  5
1DB97
  8
1DIM
 10
538.0162416153646
 20
-480.4500854775896
 30
0.0
 11
538.0162416153642
 21
-494.4500854775896
 31
0.0
  0
TEXT
  5
1DB98
  8
1TEXT
 10
548.549574948698
 20
-485.9500854775896
 30
0.0
 40
4.0
  1
コード
 72
     1
 11
555.4162416153647
 21
-485.9500854775896
 31
0.0
  0
LINE
  5
1DB9A
  8
1DIM
 10
573.0162416153644
 20
-494.4500854775896
 30
0.0
 11
573.0162416153646
 21
-480.4500854775896
 31
0.0
  0
TEXT
  5
1DB9B
  8
1TEXT
 10
503.0162416153646
 20
-475.4500854775896
 30
0.0
 40
8.0
  1
KH-73-XX2
  0
TEXT
  5
1DB9C
  8
1TEXT
 10
516.0829082820313
 20
-492.7853741371139
 30
0.0
 40
4.0
  1
鏡面
 72
     1
 11
520.4162416153647
 21
-492.7853741371139
 31
0.0
  0
TEXT
  5
1DB9D
  8
1TEXT
 10
541.5495749486983
 20
-493.1644424612389
 30
0.0
 40
4.0
  1
KH-73-XP2
 41
0.8
 72
     1
 11
555.4162416153649
 21
-493.1644424612389
 31
0.0
  0
LINE
  5
1DBA4
  8
01
 10
775.5162416153653
 20
-618.5931567659834
 30
0.0
 11
775.5162416153653
 21
-693.0495039365471
 31
0.0
  0
LINE
  5
1DBA6
  8
01
 10
763.0162416153653
 20
-618.5931567659834
 30
0.0
 11
763.0162416153653
 21
-693.0495039365471
 31
0.0
  0
LINE
  5
230E1
  8
1DIM
 10
503.0162416153646
 20
-494.4500854775896
 30
0.0
 11
503.0162416153646
 21
-480.4500854775896
 31
0.0
  0
LINE
  5
23D0F
  8
01
 10
188.5162069926425
 20
-600.2000100077073
 30
0.0
 11
188.5162069926434
 21
-544.8213303512664
 31
0.0
  0
LINE
  5
23D10
  8
01
 10
213.5162069926444
 20
-544.8213303512664
 30
0.0
 11
213.5162069926453
 21
-575.2000100077105
 31
0.0
  0
LINE
  5
23D11
  8
01
 10
189.2233310852196
 20
-599.4928859151389
 30
0.0
 11
212.8091175228544
 21
-575.9070994774959
 31
0.0
  0
LINE
  5
23D12
  8
01
 10
191.3446514287796
 20
-601.6142062586985
 30
0.0
 11
214.9304378664146
 21
-578.0284198210552
 31
0.0
  0
LINE
  5
23D13
  8
01
 10
189.0111990508647
 20
-602.8162877867155
 30
0.0
 11
188.021249557203
 21
-601.8263382930543
 31
0.0
  0
LINE
  5
23D14
  8
01
 10
216.1325193944315
 20
-575.6949674431391
 30
0.0
 11
215.1425699007698
 21
-574.7050179494781
 31
0.0
  0
LINE
  5
23D15
  8
01
 10
188.0338682814488
 20
-600.6823487189099
 30
0.0
 11
188.0347998543164
 21
-600.6814171460426
 31
0.0
  0
LINE
  5
23D16
  8
01
 10
188.0385964227016
 20
-600.6776205776571
 30
0.0
 11
188.0396393070425
 21
-600.6765776933164
 31
0.0
  0
LINE
  5
23D17
  8
01
 10
188.0440534437898
 20
-600.6721635565689
 30
0.0
 11
188.0451943457849
 21
-600.6710226545738
 31
0.0
  0
LINE
  5
23D18
  8
01
 10
188.0502314224509
 20
-600.6659855779078
 30
0.0
 11
188.0514572385762
 21
-600.6647597617825
 31
0.0
  0
LINE
  5
23D19
  8
01
 10
188.0571224364219
 20
-600.6590945639368
 30
0.0
 11
188.0584202534642
 21
-600.6577967468945
 31
0.0
  0
LINE
  5
23D1A
  8
01
 10
188.0647185634398
 20
-600.6514984369189
 30
0.0
 11
188.0660756585025
 21
-600.6501413418564
 31
0.0
  0
LINE
  5
23D1B
  8
01
 10
188.0730118812419
 20
-600.6432051191168
 30
0.0
 11
188.2250853933106
 21
-600.4911316070481
 31
0.0
  0
LINE
  5
23D1C
  8
01
 10
188.2406647444125
 20
-600.475552255946
 30
0.0
 11
188.2416224063852
 21
-600.4745945939733
 31
0.0
  0
LINE
  5
23D1D
  8
01
 10
188.25788689559
 20
-600.458330104769
 30
0.0
 11
188.2587358304609
 21
-600.4574811698978
 31
0.0
  0
LINE
  5
23D1E
  8
01
 10
188.2756874036081
 20
-600.4405295967506
 30
0.0
 11
188.2764179335936
 21
-600.4397990667651
 31
0.0
  0
LINE
  5
23D1F
  8
01
 10
188.3730880171117
 20
-600.343128983247
 30
0.0
 11
189.2233310852196
 21
-599.4928859151389
 31
0.0
  0
LINE
  5
23D20
  8
01
 10
190.1551886250088
 20
-602.8036690624692
 30
0.0
 11
190.1561201978761
 21
-602.8027374896019
 31
0.0
  0
LINE
  5
23D21
  8
01
 10
190.1599167662614
 20
-602.7989409212166
 30
0.0
 11
190.1609596506023
 21
-602.7978980368757
 31
0.0
  0
LINE
  5
23D22
  8
01
 10
190.1653737873496
 20
-602.7934839001284
 30
0.0
 11
190.1665146893449
 21
-602.7923429981331
 31
0.0
  0
LINE
  5
23D23
  8
01
 10
190.1715517660107
 20
-602.7873059214674
 30
0.0
 11
190.172777582136
 21
-602.7860801053421
 31
0.0
  0
LINE
  5
23D24
  8
01
 10
190.1784427799814
 20
-602.7804149074964
 30
0.0
 11
190.179740597024
 21
-602.7791170904538
 31
0.0
  0
LINE
  5
23D25
  8
01
 10
190.1860389069996
 20
-602.7728187804785
 30
0.0
 11
190.1873960020623
 21
-602.7714616854157
 31
0.0
  0
LINE
  5
23D26
  8
01
 10
190.1943322248017
 20
-602.7645254626764
 30
0.0
 11
190.3464057368703
 21
-602.6124519506077
 31
0.0
  0
LINE
  5
23D27
  8
01
 10
190.3619850879722
 20
-602.5968725995058
 30
0.0
 11
190.362942749945
 21
-602.5959149375328
 31
0.0
  0
LINE
  5
23D28
  8
01
 10
190.3792072391495
 20
-602.5796504483285
 30
0.0
 11
190.3800561740206
 21
-602.5788015134574
 31
0.0
  0
LINE
  5
23D29
  8
01
 10
190.3970077471679
 20
-602.5618499403101
 30
0.0
 11
190.3977382771534
 21
-602.5611194103246
 31
0.0
  0
LINE
  5
23D2A
  8
01
 10
190.4944083606713
 20
-602.4644493268065
 30
0.0
 11
191.3446514287796
 21
-601.6142062586985
 31
0.0
  0
LINE
  5
23D2B
  8
01
 10
212.8091175228544
 20
-575.9070994774959
 30
0.0
 11
213.6593605909627
 21
-575.0568564093874
 31
0.0
  0
LINE
  5
23D2C
  8
01
 10
213.7560306744806
 20
-574.9601863258692
 30
0.0
 11
213.7567612044663
 21
-574.9594557958835
 31
0.0
  0
LINE
  5
23D2D
  8
01
 10
213.7737127776136
 20
-574.9425042227363
 30
0.0
 11
213.7745617124845
 21
-574.9416552878654
 31
0.0
  0
LINE
  5
23D2E
  8
01
 10
213.790826201689
 20
-574.9253907986608
 30
0.0
 11
213.7917838636617
 21
-574.9244331366881
 31
0.0
  0
LINE
  5
23D2F
  8
01
 10
213.8073632147641
 20
-574.908853785586
 30
0.0
 11
213.9594367268323
 21
-574.7567802735173
 31
0.0
  0
LINE
  5
23D30
  8
01
 10
213.9663729495721
 20
-574.7498440507775
 30
0.0
 11
213.9677300446344
 21
-574.7484869557154
 31
0.0
  0
LINE
  5
23D31
  8
01
 10
213.9740283546105
 20
-574.7421886457394
 30
0.0
 11
213.9753261716526
 21
-574.7408908286973
 31
0.0
  0
LINE
  5
23D32
  8
01
 10
213.9809913694985
 20
-574.7352256308513
 30
0.0
 11
213.9822171856233
 21
-574.7339998147265
 31
0.0
  0
LINE
  5
23D33
  8
01
 10
213.98725426229
 20
-574.7289627380601
 30
0.0
 11
213.9883951642844
 21
-574.7278218360655
 31
0.0
  0
LINE
  5
23D34
  8
01
 10
213.9928093010324
 20
-574.7234076993177
 30
0.0
 11
213.9938521853728
 21
-574.722364814977
 31
0.0
  0
LINE
  5
23D35
  8
01
 10
213.9976487537581
 20
-574.7185682465915
 30
0.0
 11
213.9985803266252
 21
-574.7176366737244
 31
0.0
  0
LINE
  5
23D36
  8
01
 10
214.9304378664146
 20
-578.0284198210552
 30
0.0
 11
215.7806809345227
 21
-577.1781767529465
 31
0.0
  0
LINE
  5
23D37
  8
01
 10
215.8773510180404
 20
-577.0815066694288
 30
0.0
 11
215.8780815480263
 21
-577.0807761394428
 31
0.0
  0
LINE
  5
23D38
  8
01
 10
215.8950331211734
 20
-577.0638245662958
 30
0.0
 11
215.8958820560445
 21
-577.0629756314247
 31
0.0
  0
LINE
  5
23D39
  8
01
 10
215.9121465452488
 20
-577.0467111422204
 30
0.0
 11
215.9131042072217
 21
-577.0457534802474
 31
0.0
  0
LINE
  5
23D3A
  8
01
 10
215.9286835583237
 20
-577.0301741291455
 30
0.0
 11
216.0807570703926
 21
-576.8781006170766
 31
0.0
  0
LINE
  5
23D3B
  8
01
 10
216.0876932931319
 20
-576.8711643943373
 30
0.0
 11
216.0890503881944
 21
-576.8698072992745
 31
0.0
  0
LINE
  5
23D3C
  8
01
 10
216.0953486981698
 20
-576.8635089892991
 30
0.0
 11
216.0966465152123
 21
-576.8622111722566
 31
0.0
  0
LINE
  5
23D3D
  8
01
 10
216.102311713058
 20
-576.8565459744111
 30
0.0
 11
216.1035375291833
 21
-576.8553201582856
 31
0.0
  0
LINE
  5
23D3E
  8
01
 10
216.1085746058493
 20
-576.8502830816199
 30
0.0
 11
216.1097155078444
 21
-576.8491421796248
 31
0.0
  0
LINE
  5
23D3F
  8
01
 10
216.1141296445917
 20
-576.8447280428773
 30
0.0
 11
216.1151725289326
 21
-576.8436851585363
 31
0.0
  0
LINE
  5
23D40
  8
01
 10
216.1189690973181
 20
-576.8398885901511
 30
0.0
 11
216.1199006701854
 21
-576.8389570172837
 31
0.0
  0
LINE
  5
23D41
  8
01
 10
185.0162069926439
 20
-535.8213303512664
 30
0.0
 11
217.0162069926439
 21
-535.8213303512664
 31
0.0
  0
LINE
  5
23D42
  8
01
 10
217.0162069926434
 20
-544.8213303512664
 30
0.0
 11
185.0162069926439
 21
-544.8213303512664
 31
0.0
  0
LINE
  5
23D43
  8
01
 10
184.0162069926439
 20
-543.8213303512664
 30
0.0
 11
184.0162069926439
 21
-535.8213303512664
 31
0.0
  0
LINE
  5
23D44
  8
01
 10
218.0162069926439
 20
-535.8213303512664
 30
0.0
 11
218.0162069926434
 21
-543.8213303512664
 31
0.0
  0
ARC
  5
23D45
  8
01
 10
185.0162069926444
 20
-543.8213303512659
 30
0.0
 40
1.000000000000284
 50
179.9999999999739
 51
269.999999999974
  0
ARC
  5
23D46
  8
01
 10
217.0162069926437
 20
-543.8213303512662
 30
0.0
 40
1.000000000000114
 50
269.999999999987
 51
0.0000000000260551
  0
LINE
  5
23D47
  8
01
 10
185.0162069926439
 20
-535.8213303512664
 30
0.0
 11
184.0162069926439
 21
-535.8213303512664
 31
0.0
  0
LINE
  5
23D48
  8
01
 10
218.0162069926439
 20
-535.8213303512664
 30
0.0
 11
217.0162069926439
 21
-535.8213303512664
 31
0.0
  0
LINE
  5
23D4D
  8
01
 10
190.6375170787117
 20
-602.3213406087661
 30
0.0
 11
636.3949315293055
 21
-602.3213406087661
 31
0.0
  0
LINE
  5
23D4E
  8
01
 10
611.3949315293055
 20
-577.3213406087661
 30
0.0
 11
215.6375170787032
 21
-577.3213406087661
 31
0.0
  0
ARC
  5
23D4F
  8
01
 10
188.5869088569482
 20
-601.260691287903
 30
0.0
 40
0.8000086936378635
 50
134.9993774006995
 51
224.9993773741926
  0
LINE
  5
23D50
  8
01
 10
188.0212495572041
 20
-600.6949674431548
 30
0.0
 11
188.0338682814524
 21
-600.6823487189065
 31
0.0
  0
LINE
  5
23D51
  8
01
 10
188.0347998541904
 20
-600.6814171461683
 30
0.0
 11
188.0385964227028
 21
-600.677620577656
 31
0.0
  0
LINE
  5
23D52
  8
01
 10
188.0396393069852
 20
-600.6765776933735
 30
0.0
 11
188.0440534437903
 21
-600.6721635565684
 31
0.0
  0
LINE
  5
23D53
  8
01
 10
188.0451943457567
 20
-600.6710226546022
 30
0.0
 11
188.0502314224511
 21
-600.6659855779076
 31
0.0
  0
LINE
  5
23D54
  8
01
 10
188.0514572385612
 20
-600.6647597617975
 30
0.0
 11
188.0571224364219
 21
-600.6590945639368
 31
0.0
  0
LINE
  5
23D55
  8
01
 10
188.0584202534558
 20
-600.6577967469029
 30
0.0
 11
188.0647185634398
 21
-600.6514984369189
 31
0.0
  0
LINE
  5
23D56
  8
01
 10
188.0660756584975
 20
-600.6501413418612
 30
0.0
 11
188.0730118812419
 21
-600.643205119117
 31
0.0
  0
LINE
  5
23D57
  8
01
 10
188.2250853933106
 20
-600.4911316070481
 30
0.0
 11
188.24066474438
 21
-600.475552255979
 31
0.0
  0
LINE
  5
23D58
  8
01
 10
188.2416224063852
 20
-600.4745945939735
 30
0.0
 11
188.2578868955711
 21
-600.4583301047876
 31
0.0
  0
LINE
  5
23D59
  8
01
 10
188.2587358304609
 20
-600.4574811698978
 30
0.0
 11
188.2756874035983
 21
-600.4405295967606
 31
0.0
  0
LINE
  5
23D5A
  8
01
 10
188.2764179335938
 20
-600.4397990667651
 30
0.0
 11
188.3730880171117
 21
-600.343128983247
 31
0.0
  0
ARC
  5
23D5B
  8
01
 10
189.5768460560157
 20
-602.2506284869673
 30
0.0
 40
0.8000086936398692
 50
225.0006226259642
 51
315.0006225991796
  0
LINE
  5
23D5C
  8
01
 10
190.1425699007639
 20
-602.8162877867144
 30
0.0
 11
190.1551886250122
 21
-602.8036690624658
 31
0.0
  0
LINE
  5
23D5D
  8
01
 10
190.1561201977504
 20
-602.8027374897276
 30
0.0
 11
190.1599167662628
 21
-602.7989409212155
 31
0.0
  0
LINE
  5
23D5E
  8
01
 10
190.1609596505452
 20
-602.7978980369328
 30
0.0
 11
190.1653737873503
 21
-602.7934839001277
 31
0.0
  0
LINE
  5
23D5F
  8
01
 10
190.1665146893167
 20
-602.7923429981615
 30
0.0
 11
190.1715517660109
 21
-602.7873059214671
 31
0.0
  0
LINE
  5
23D60
  8
01
 10
190.1727775821212
 20
-602.7860801053569
 30
0.0
 11
190.1784427799817
 21
-602.7804149074964
 31
0.0
  0
LINE
  5
23D61
  8
01
 10
190.1797405970158
 20
-602.7791170904623
 30
0.0
 11
190.1860389069996
 21
-602.7728187804785
 31
0.0
  0
LINE
  5
23D62
  8
01
 10
190.1873960020575
 20
-602.7714616854205
 30
0.0
 11
190.1943322248014
 21
-602.7645254626764
 31
0.0
  0
LINE
  5
23D63
  8
01
 10
190.3464057368701
 20
-602.6124519506077
 30
0.0
 11
190.3619850879395
 21
-602.5968725995385
 31
0.0
  0
LINE
  5
23D64
  8
01
 10
190.3629427499452
 20
-602.5959149375328
 30
0.0
 11
190.3792072391309
 21
-602.5796504483471
 31
0.0
  0
LINE
  5
23D65
  8
01
 10
190.3800561740206
 20
-602.5788015134574
 30
0.0
 11
190.3970077471579
 21
-602.5618499403201
 31
0.0
  0
LINE
  5
23D66
  8
01
 10
190.3977382771534
 20
-602.5611194103246
 30
0.0
 11
190.4944083606713
 21
-602.4644493268067
 31
0.0
  0
LINE
  5
23D67
  8
01
 10
213.6593605909627
 20
-575.0568564093874
 30
0.0
 11
213.7560306744808
 21
-574.9601863258692
 31
0.0
  0
LINE
  5
23D68
  8
01
 10
213.7567612044761
 20
-574.9594557958737
 30
0.0
 11
213.7737127776138
 21
-574.9425042227363
 31
0.0
  0
LINE
  5
23D69
  8
01
 10
213.7745617125033
 20
-574.9416552878467
 30
0.0
 11
213.7908262016892
 21
-574.9253907986608
 31
0.0
  0
LINE
  5
23D6A
  8
01
 10
213.7917838636947
 20
-574.9244331366554
 30
0.0
 11
213.8073632147641
 21
-574.908853785586
 31
0.0
  0
LINE
  5
23D6B
  8
01
 10
213.9594367268326
 20
-574.7567802735173
 30
0.0
 11
213.9663729495771
 21
-574.7498440507727
 31
0.0
  0
LINE
  5
23D6C
  8
01
 10
213.9677300446344
 20
-574.7484869557154
 30
0.0
 11
213.9740283546189
 21
-574.742188645731
 31
0.0
  0
LINE
  5
23D6D
  8
01
 10
213.9753261716526
 20
-574.7408908286975
 30
0.0
 11
213.9809913695135
 21
-574.7352256308363
 31
0.0
  0
LINE
  5
23D6E
  8
01
 10
213.9822171856231
 20
-574.7339998147268
 30
0.0
 11
213.9872542623179
 21
-574.7289627380319
 31
0.0
  0
LINE
  5
23D6F
  8
01
 10
213.9883951642842
 20
-574.7278218360659
 30
0.0
 11
213.9928093010892
 21
-574.7234076992606
 31
0.0
  0
LINE
  5
23D70
  8
01
 10
213.9938521853715
 20
-574.7223648149784
 30
0.0
 11
213.9976487538841
 21
-574.7185682464658
 31
0.0
  0
LINE
  5
23D71
  8
01
 10
213.998580326622
 20
-574.7176366737278
 30
0.0
 11
214.0112251763371
 21
-574.7049918240127
 31
0.0
  0
ARC
  5
23D72
  8
01
 10
214.5769228956185
 20
-575.2706772492247
 30
0.0
 40
0.8000086936386634
 50
45.00062262586495
 51
135.0006225992429
  0
LINE
  5
23D73
  8
01
 10
215.7806809345227
 20
-577.1781767529465
 30
0.0
 11
215.8773510180406
 21
-577.0815066694288
 31
0.0
  0
LINE
  5
23D74
  8
01
 10
215.8780815480363
 20
-577.080776139433
 30
0.0
 11
215.8950331211736
 21
-577.0638245662958
 31
0.0
  0
LINE
  5
23D75
  8
01
 10
215.8958820560631
 20
-577.0629756314061
 30
0.0
 11
215.9121465452488
 21
-577.0467111422204
 31
0.0
  0
LINE
  5
23D76
  8
01
 10
215.9131042072547
 20
-577.0457534802147
 30
0.0
 11
215.9286835583239
 21
-577.0301741291455
 31
0.0
  0
LINE
  5
23D77
  8
01
 10
216.0807570703926
 20
-576.8781006170766
 30
0.0
 11
216.0876932931367
 21
-576.8711643943325
 31
0.0
  0
LINE
  5
23D78
  8
01
 10
216.0890503881947
 20
-576.8698072992747
 30
0.0
 11
216.0953486981784
 21
-576.8635089892907
 31
0.0
  0
LINE
  5
23D79
  8
01
 10
216.0966465152123
 20
-576.8622111722568
 30
0.0
 11
216.102311713073
 21
-576.8565459743961
 31
0.0
  0
LINE
  5
23D7A
  8
01
 10
216.1035375291831
 20
-576.8553201582861
 30
0.0
 11
216.1085746058777
 21
-576.8502830815917
 31
0.0
  0
LINE
  5
23D7B
  8
01
 10
216.1097155078439
 20
-576.8491421796252
 30
0.0
 11
216.114129644649
 21
-576.8447280428202
 31
0.0
  0
LINE
  5
23D7C
  8
01
 10
216.1151725289315
 20
-576.8436851585377
 30
0.0
 11
216.1189690974438
 21
-576.8398885900253
 31
0.0
  0
LINE
  5
23D7D
  8
01
 10
216.119900670182
 20
-576.8389570172872
 30
0.0
 11
216.1325193944415
 21
-576.8263382930281
 31
0.0
  0
ARC
  5
23D7E
  8
01
 10
215.5668600946829
 20
-576.2606144482909
 30
0.0
 40
0.8000086936403557
 50
314.9993774008895
 51
44.99937737404871
  0
LINE
  5
24467
  8
1PHANTOM
 10
185.0666105708017
 20
-538.8213303512664
 30
0.0
 11
185.0666105708017
 21
-535.8213303512669
 31
0.0
  0
LINE
  5
24468
  8
1PHANTOM
 10
216.9656931390457
 20
-535.8213303512669
 30
0.0
 11
216.9656931390462
 21
-538.8213303512664
 31
0.0
  0
LINE
  5
24469
  8
1PHANTOM
 10
185.0666105708017
 20
-538.8213303512664
 30
0.0
 11
196.0162222056522
 21
-538.8213303512664
 31
0.0
  0
LINE
  5
2446A
  8
1PHANTOM
 10
206.0161518549241
 20
-538.8213303512664
 30
0.0
 11
216.9656931390462
 21
-538.8213303512664
 31
0.0
  0
LINE
  5
2446B
  8
1PHANTOM
 10
196.0162222056522
 20
-554.3213303512664
 30
0.0
 11
197.0162222056454
 21
-555.3213303512664
 31
0.0
  0
LINE
  5
2446C
  8
1PHANTOM
 10
205.0161518549337
 20
-555.3213303512664
 30
0.0
 11
206.0161518549241
 21
-554.3213303512664
 31
0.0
  0
LINE
  5
2446D
  8
1PHANTOM
 10
196.0162222056522
 20
-538.8213303512664
 30
0.0
 11
196.0162222056522
 21
-554.3213303512664
 31
0.0
  0
LINE
  5
2446E
  8
1PHANTOM
 10
206.0161518549241
 20
-538.8213303512664
 30
0.0
 11
206.0161518549241
 21
-554.3213303512664
 31
0.0
  0
LINE
  5
2446F
  8
1PHANTOM
 10
197.0162222056454
 20
-555.3213303512664
 30
0.0
 11
205.0161518549337
 21
-555.3213303512664
 31
0.0
  0
LINE
  5
244EC
  8
1PHANTOM
 10
206.5165942972642
 20
-540.0213303512664
 30
0.0
 11
206.5165942972642
 21
-538.8213303512664
 31
0.0
  0
LINE
  5
244ED
  8
1PHANTOM
 10
215.5165942972642
 20
-540.0213303512664
 30
0.0
 11
215.5165942972642
 21
-538.8213303512664
 31
0.0
  0
LINE
  5
244EE
  8
1PHANTOM
 10
211.0165942972642
 20
-540.0213303512664
 30
0.0
 11
211.7094146202918
 21
-538.8213303512664
 31
0.0
  0
LINE
  5
244F1
  8
1PHANTOM
 10
186.5157797633149
 20
-540.0213303512664
 30
0.0
 11
186.5157797633149
 21
-538.8213303512664
 31
0.0
  0
LINE
  5
244F2
  8
1PHANTOM
 10
195.5157797633149
 20
-540.0213303512664
 30
0.0
 11
195.5157797633149
 21
-538.8213303512664
 31
0.0
  0
LINE
  5
244F3
  8
1PHANTOM
 10
191.0157797633149
 20
-540.0213303512664
 30
0.0
 11
191.7086000863425
 21
-538.8213303512664
 31
0.0
  0
CIRCLE
  5
24539
  8
01
 10
201.0162069926439
 20
-550.3213303512673
 30
0.0
 40
3.249999999155988
  0
ARC
  5
2453A
  8
01
 10
199.8136139380802
 20
-551.5238440024054
 30
0.0
 40
0.7499999999999997
 50
0.0003999465925572
 51
89.99960005340745
  0
LINE
  5
2453B
  8
01
 10
198.7648114835768
 20
-550.7738366813427
 30
0.0
 11
199.8136191733686
 21
-550.7738440024239
 31
0.0
  0
LINE
  5
2453C
  8
01
 10
200.5636212596535
 20
-552.5727195424432
 30
0.0
 11
200.5636139380624
 21
-551.5238387671167
 31
0.0
  0
ARC
  5
2453D
  8
01
 10
202.21872064378
 20
-551.523923405828
 30
0.0
 40
0.7499999999999997
 50
90.00039994653177
 51
179.9996000534074
  0
LINE
  5
2453E
  8
01
 10
201.4687133227169
 20
-552.5727258603341
 30
0.0
 11
201.4687206437977
 21
-551.5239181705392
 31
0.0
  0
LINE
  5
2453F
  8
01
 10
203.2675961838215
 20
-550.773916084256
 30
0.0
 11
202.2187154084916
 21
-550.7739234058464
 31
0.0
  0
ARC
  5
24540
  8
01
 10
202.2188000472049
 20
-549.1188167001292
 30
0.0
 40
0.7499999999999997
 50
180.0003999465057
 51
269.9996000534074
  0
LINE
  5
24541
  8
01
 10
203.2676025017124
 20
-549.8688240211926
 30
0.0
 11
202.2187948119165
 21
-549.8688167001108
 31
0.0
  0
LINE
  5
24542
  8
01
 10
201.468792725633
 20
-548.0699411600914
 30
0.0
 11
201.4688000472227
 21
-549.1188219354166
 31
0.0
  0
ARC
  5
24543
  8
01
 10
199.8136933415065
 20
-549.118737296707
 30
0.0
 40
0.7499999999999997
 50
270.0003999465318
 51
359.9996000534074
  0
LINE
  5
24544
  8
01
 10
198.7648178014676
 20
-549.8687446182793
 30
0.0
 11
199.8136985767949
 21
-549.8687372966886
 31
0.0
  0
LINE
  5
24545
  8
01
 10
200.5637006625695
 20
-548.0699348422005
 30
0.0
 11
200.5636933414887
 21
-549.1187425319957
 31
0.0
  0
LINE
  5
24546
  8
01
 10
198.7648178014676
 20
-549.8687446182793
 30
0.0
 11
198.7648114835768
 21
-550.7738366813427
 31
0.0
  0
LINE
  5
24547
  8
01
 10
200.5636212596535
 20
-552.5727195424432
 30
0.0
 11
201.4687133227169
 21
-552.5727258603341
 31
0.0
  0
LINE
  5
24548
  8
01
 10
203.2675961838215
 20
-550.773916084256
 30
0.0
 11
203.2676025017124
 21
-549.8688240211926
 31
0.0
  0
LINE
  5
24549
  8
01
 10
201.468792725633
 20
-548.0699411600914
 30
0.0
 11
200.5637006625695
 21
-548.0699348422005
 31
0.0
  0
CIRCLE
  5
2454A
  8
01
 10
201.0162069926439
 20
-550.3213303512673
 30
0.0
 40
2.999999999999999
  0
ARC
  5
24587
  8
01
 10
755.0162419525404
 20
-671.8213723507347
 30
0.0
 40
1.000000337175209
 50
180.0000193187066
 51
269.9999806812934
  0
ARC
  5
24588
  8
01
 10
755.0162416153648
 20
-639.8213726879094
 30
0.0
 40
0.9999999999996589
 50
89.99999999997394
 51
179.9999999999739
  0
LINE
  5
24589
  8
01
 10
754.0162416153653
 20
-671.8213726879096
 30
0.0
 11
754.0162416153653
 21
-639.8213726879098
 31
0.0
  0
LINE
  5
2458A
  8
01
 10
755.0162416153653
 20
-638.8213726879098
 30
0.0
 11
763.0162416153653
 21
-638.8213726879098
 31
0.0
  0
LINE
  5
2458B
  8
01
 10
755.0162416153653
 20
-672.8213726879098
 30
0.0
 11
763.0162416153653
 21
-672.8213726879098
 31
0.0
  0
LINE
  5
2458E
  8
01
 10
711.1376429270136
 20
-643.3213726879098
 30
0.0
 11
754.0162416153653
 21
-643.3213726879098
 31
0.0
  0
LINE
  5
2458F
  8
01
 10
711.1376429270127
 20
-668.3213726879098
 30
0.0
 11
754.0162416153653
 21
-668.3213726879098
 31
0.0
  0
CIRCLE
  5
24597
  8
01
 10
626.0162416153646
 20
-550.3213303512673
 30
0.0
 40
3.249999999155989
  0
LINE
  5
24598
  8
01
 10
638.516241615366
 20
-600.2000100077073
 30
0.0
 11
638.5162416153651
 21
-544.8213303512664
 31
0.0
  0
LINE
  5
24599
  8
01
 10
613.5162416153642
 20
-544.8213303512664
 30
0.0
 11
613.5162416153632
 21
-575.2000100077105
 31
0.0
  0
LINE
  5
2459A
  8
01
 10
637.8091175227889
 20
-599.4928859151389
 30
0.0
 11
614.2233310851541
 21
-575.9070994774959
 31
0.0
  0
LINE
  5
2459B
  8
01
 10
635.6877971792289
 20
-601.6142062586985
 30
0.0
 11
612.1020107415939
 21
-578.0284198210552
 31
0.0
  0
LINE
  5
2459C
  8
01
 10
638.0212495571438
 20
-602.8162877867155
 30
0.0
 11
639.0111990508055
 21
-601.8263382930543
 31
0.0
  0
LINE
  5
2459D
  8
01
 10
610.899929213577
 20
-575.6949674431391
 30
0.0
 11
611.8898787072387
 21
-574.7050179494781
 31
0.0
  0
LINE
  5
2459E
  8
01
 10
638.9985803265597
 20
-600.6823487189099
 30
0.0
 11
638.9976487536921
 21
-600.6814171460426
 31
0.0
  0
LINE
  5
2459F
  8
01
 10
638.9938521853069
 20
-600.6776205776571
 30
0.0
 11
638.992809300966
 21
-600.6765776933164
 31
0.0
  0
LINE
  5
245A0
  8
01
 10
638.9883951642187
 20
-600.6721635565689
 30
0.0
 11
638.9872542622236
 21
-600.6710226545738
 31
0.0
  0
LINE
  5
245A1
  8
01
 10
638.9822171855576
 20
-600.6659855779078
 30
0.0
 11
638.9809913694323
 21
-600.6647597617825
 31
0.0
  0
LINE
  5
245A2
  8
01
 10
638.9753261715866
 20
-600.6590945639368
 30
0.0
 11
638.9740283545443
 21
-600.6577967468945
 31
0.0
  0
LINE
  5
245A3
  8
01
 10
638.9677300445687
 20
-600.6514984369189
 30
0.0
 11
638.966372949506
 21
-600.6501413418564
 31
0.0
  0
LINE
  5
245A4
  8
01
 10
638.9594367267666
 20
-600.6432051191168
 30
0.0
 11
638.807363214698
 21
-600.4911316070481
 31
0.0
  0
LINE
  5
245A5
  8
01
 10
638.791783863596
 20
-600.475552255946
 30
0.0
 11
638.7908262016233
 21
-600.4745945939733
 31
0.0
  0
LINE
  5
245A6
  8
01
 10
638.7745617124185
 20
-600.458330104769
 30
0.0
 11
638.7737127775476
 21
-600.4574811698978
 31
0.0
  0
LINE
  5
245A7
  8
01
 10
638.7567612044004
 20
-600.4405295967506
 30
0.0
 11
638.7560306744149
 21
-600.4397990667651
 31
0.0
  0
LINE
  5
245A8
  8
01
 10
638.6593605908968
 20
-600.343128983247
 30
0.0
 11
637.8091175227889
 21
-599.4928859151389
 31
0.0
  0
LINE
  5
245A9
  8
01
 10
636.8772599829997
 20
-602.8036690624692
 30
0.0
 11
636.8763284101324
 21
-602.8027374896019
 31
0.0
  0
LINE
  5
245AA
  8
01
 10
636.8725318417471
 20
-602.7989409212166
 30
0.0
 11
636.8714889574062
 21
-602.7978980368757
 31
0.0
  0
LINE
  5
245AB
  8
01
 10
636.8670748206589
 20
-602.7934839001284
 30
0.0
 11
636.8659339186636
 21
-602.7923429981331
 31
0.0
  0
LINE
  5
245AC
  8
01
 10
636.8608968419978
 20
-602.7873059214674
 30
0.0
 11
636.8596710258726
 21
-602.7860801053421
 31
0.0
  0
LINE
  5
245AD
  8
01
 10
636.8540058280271
 20
-602.7804149074964
 30
0.0
 11
636.8527080109845
 21
-602.7791170904538
 31
0.0
  0
LINE
  5
245AE
  8
01
 10
636.846409701009
 20
-602.7728187804785
 30
0.0
 11
636.8450526059462
 21
-602.7714616854157
 31
0.0
  0
LINE
  5
245AF
  8
01
 10
636.8381163832069
 20
-602.7645254626764
 30
0.0
 11
636.6860428711382
 21
-602.6124519506077
 31
0.0
  0
LINE
  5
245B0
  8
01
 10
636.6704635200363
 20
-602.5968725995058
 30
0.0
 11
636.6695058580635
 21
-602.5959149375328
 31
0.0
  0
LINE
  5
245B1
  8
01
 10
636.653241368859
 20
-602.5796504483285
 30
0.0
 11
636.6523924339879
 21
-602.5788015134574
 31
0.0
  0
LINE
  5
245B2
  8
01
 10
636.6354408608406
 20
-602.5618499403101
 30
0.0
 11
636.6347103308551
 21
-602.5611194103246
 31
0.0
  0
LINE
  5
245B3
  8
01
 10
636.5380402473372
 20
-602.4644493268065
 30
0.0
 11
635.6877971792289
 21
-601.6142062586985
 31
0.0
  0
LINE
  5
245B4
  8
01
 10
614.2233310851541
 20
-575.9070994774959
 30
0.0
 11
613.3730880170458
 21
-575.0568564093874
 31
0.0
  0
LINE
  5
245B5
  8
01
 10
613.2764179335279
 20
-574.9601863258692
 30
0.0
 11
613.2756874035422
 21
-574.9594557958835
 31
0.0
  0
LINE
  5
245B6
  8
01
 10
613.2587358303949
 20
-574.9425042227363
 30
0.0
 11
613.257886895524
 21
-574.9416552878654
 31
0.0
  0
LINE
  5
245B7
  8
01
 10
613.2416224063195
 20
-574.9253907986608
 30
0.0
 11
613.2406647443468
 21
-574.9244331366881
 31
0.0
  0
LINE
  5
245B8
  8
01
 10
613.2250853932444
 20
-574.908853785586
 30
0.0
 11
613.0730118811762
 21
-574.7567802735173
 31
0.0
  0
LINE
  5
245B9
  8
01
 10
613.0660756584364
 20
-574.7498440507775
 30
0.0
 11
613.0647185633741
 21
-574.7484869557154
 31
0.0
  0
LINE
  5
245BA
  8
01
 10
613.058420253398
 20
-574.7421886457394
 30
0.0
 11
613.0571224363559
 21
-574.7408908286973
 31
0.0
  0
LINE
  5
245BB
  8
01
 10
613.05145723851
 20
-574.7352256308513
 30
0.0
 11
613.0502314223852
 21
-574.7339998147265
 31
0.0
  0
LINE
  5
245BC
  8
01
 10
613.0451943457185
 20
-574.7289627380601
 30
0.0
 11
613.0440534437241
 21
-574.7278218360655
 31
0.0
  0
LINE
  5
245BD
  8
01
 10
613.0396393069761
 20
-574.7234076993177
 30
0.0
 11
613.0385964226357
 21
-574.722364814977
 31
0.0
  0
LINE
  5
245BE
  8
01
 10
613.0347998542504
 20
-574.7185682465915
 30
0.0
 11
613.0338682813833
 21
-574.7176366737244
 31
0.0
  0
LINE
  5
245BF
  8
01
 10
612.1020107415939
 20
-578.0284198210552
 30
0.0
 11
611.2517676734858
 21
-577.1781767529465
 31
0.0
  0
LINE
  5
245C0
  8
01
 10
611.1550975899681
 20
-577.0815066694288
 30
0.0
 11
611.1543670599822
 21
-577.0807761394428
 31
0.0
  0
LINE
  5
245C1
  8
01
 10
611.1374154868352
 20
-577.0638245662958
 30
0.0
 11
611.136566551964
 21
-577.0629756314247
 31
0.0
  0
LINE
  5
245C2
  8
01
 10
611.1203020627597
 20
-577.0467111422204
 30
0.0
 11
611.1193444007868
 21
-577.0457534802474
 31
0.0
  0
LINE
  5
245C3
  8
01
 10
611.1037650496849
 20
-577.0301741291455
 30
0.0
 11
610.951691537616
 21
-576.8781006170766
 31
0.0
  0
LINE
  5
245C4
  8
01
 10
610.9447553148766
 20
-576.8711643943373
 30
0.0
 11
610.9433982198141
 21
-576.8698072992745
 31
0.0
  0
LINE
  5
245C5
  8
01
 10
610.9370999098387
 20
-576.8635089892991
 30
0.0
 11
610.9358020927962
 21
-576.8622111722566
 31
0.0
  0
LINE
  5
245C6
  8
01
 10
610.9301368949505
 20
-576.8565459744111
 30
0.0
 11
610.9289110788252
 21
-576.8553201582856
 31
0.0
  0
LINE
  5
245C7
  8
01
 10
610.9238740021592
 20
-576.8502830816199
 30
0.0
 11
610.9227331001641
 21
-576.8491421796248
 31
0.0
  0
LINE
  5
245C8
  8
01
 10
610.9183189634168
 20
-576.8447280428773
 30
0.0
 11
610.9172760790759
 21
-576.8436851585363
 31
0.0
  0
LINE
  5
245C9
  8
01
 10
610.9134795106904
 20
-576.8398885901511
 30
0.0
 11
610.9125479378231
 21
-576.8389570172837
 31
0.0
  0
LINE
  5
245CA
  8
01
 10
642.0162416153646
 20
-535.8213303512664
 30
0.0
 11
610.0162416153646
 21
-535.8213303512664
 31
0.0
  0
LINE
  5
245CB
  8
01
 10
610.0162416153651
 20
-544.8213303512664
 30
0.0
 11
642.0162416153646
 21
-544.8213303512664
 31
0.0
  0
LINE
  5
245CC
  8
01
 10
643.0162416153646
 20
-543.8213303512664
 30
0.0
 11
643.0162416153646
 21
-535.8213303512664
 31
0.0
  0
LINE
  5
245CD
  8
01
 10
609.0162416153646
 20
-535.8213303512664
 30
0.0
 11
609.0162416153651
 21
-543.8213303512664
 31
0.0
  0
ARC
  5
245CE
  8
01
 10
642.0162416153642
 20
-543.8213303512659
 30
0.0
 40
1.000000000000284
 50
270.000000000026
 51
0.0000000000260551
  0
ARC
  5
245CF
  8
01
 10
610.0162416153648
 20
-543.8213303512662
 30
0.0
 40
1.000000000000114
 50
179.9999999999739
 51
270.000000000013
  0
LINE
  5
245D0
  8
01
 10
642.0162416153646
 20
-535.8213303512664
 30
0.0
 11
643.0162416153646
 21
-535.8213303512664
 31
0.0
  0
LINE
  5
245D1
  8
01
 10
609.0162416153646
 20
-535.8213303512664
 30
0.0
 11
610.0162416153646
 21
-535.8213303512664
 31
0.0
  0
ARC
  5
245D2
  8
01
 10
638.4455397510603
 20
-601.260691287903
 30
0.0
 40
0.8000086936378635
 50
315.0006226258074
 51
45.00062259930049
  0
LINE
  5
245D3
  8
01
 10
639.0111990508044
 20
-600.6949674431548
 30
0.0
 11
638.9985803265561
 21
-600.6823487189065
 31
0.0
  0
LINE
  5
245D4
  8
01
 10
638.9976487538181
 20
-600.6814171461683
 30
0.0
 11
638.9938521853057
 21
-600.677620577656
 31
0.0
  0
LINE
  5
245D5
  8
01
 10
638.9928093010233
 20
-600.6765776933735
 30
0.0
 11
638.9883951642182
 21
-600.6721635565684
 31
0.0
  0
LINE
  5
245D6
  8
01
 10
638.9872542622518
 20
-600.6710226546022
 30
0.0
 11
638.9822171855574
 21
-600.6659855779076
 31
0.0
  0
LINE
  5
245D7
  8
01
 10
638.9809913694473
 20
-600.6647597617975
 30
0.0
 11
638.9753261715866
 21
-600.6590945639368
 31
0.0
  0
LINE
  5
245D8
  8
01
 10
638.9740283545527
 20
-600.6577967469029
 30
0.0
 11
638.9677300445687
 21
-600.6514984369189
 31
0.0
  0
LINE
  5
245D9
  8
01
 10
638.966372949511
 20
-600.6501413418612
 30
0.0
 11
638.9594367267666
 21
-600.643205119117
 31
0.0
  0
LINE
  5
245DA
  8
01
 10
638.807363214698
 20
-600.4911316070481
 30
0.0
 11
638.7917838636286
 21
-600.475552255979
 31
0.0
  0
LINE
  5
245DB
  8
01
 10
638.7908262016233
 20
-600.4745945939735
 30
0.0
 11
638.7745617124374
 21
-600.4583301047876
 31
0.0
  0
LINE
  5
245DC
  8
01
 10
638.7737127775476
 20
-600.4574811698978
 30
0.0
 11
638.7567612044102
 21
-600.4405295967606
 31
0.0
  0
LINE
  5
245DD
  8
01
 10
638.7560306744147
 20
-600.4397990667651
 30
0.0
 11
638.6593605908968
 21
-600.343128983247
 31
0.0
  0
ARC
  5
245DE
  8
01
 10
637.4556025519928
 20
-602.2506284869673
 30
0.0
 40
0.8000086936398692
 50
224.9993774008204
 51
314.9993773740314
  0
LINE
  5
245DF
  8
01
 10
636.8898787072446
 20
-602.8162877867144
 30
0.0
 11
636.8772599829963
 21
-602.8036690624658
 31
0.0
  0
LINE
  5
245E0
  8
01
 10
636.8763284102581
 20
-602.8027374897276
 30
0.0
 11
636.8725318417457
 21
-602.7989409212155
 31
0.0
  0
LINE
  5
245E1
  8
01
 10
636.8714889574633
 20
-602.7978980369328
 30
0.0
 11
636.8670748206582
 21
-602.7934839001277
 31
0.0
  0
LINE
  5
245E2
  8
01
 10
636.8659339186918
 20
-602.7923429981615
 30
0.0
 11
636.8608968419976
 21
-602.7873059214671
 31
0.0
  0
LINE
  5
245E3
  8
01
 10
636.8596710258873
 20
-602.7860801053569
 30
0.0
 11
636.8540058280269
 21
-602.7804149074964
 31
0.0
  0
LINE
  5
245E4
  8
01
 10
636.8527080109927
 20
-602.7791170904623
 30
0.0
 11
636.846409701009
 21
-602.7728187804785
 31
0.0
  0
LINE
  5
245E5
  8
01
 10
636.845052605951
 20
-602.7714616854205
 30
0.0
 11
636.8381163832071
 21
-602.7645254626764
 31
0.0
  0
LINE
  5
245E6
  8
01
 10
636.6860428711384
 20
-602.6124519506077
 30
0.0
 11
636.670463520069
 21
-602.5968725995385
 31
0.0
  0
LINE
  5
245E7
  8
01
 10
636.6695058580633
 20
-602.5959149375328
 30
0.0
 11
636.6532413688776
 21
-602.5796504483471
 31
0.0
  0
LINE
  5
245E8
  8
01
 10
636.6523924339879
 20
-602.5788015134574
 30
0.0
 11
636.6354408608506
 21
-602.5618499403201
 31
0.0
  0
LINE
  5
245E9
  8
01
 10
636.6347103308551
 20
-602.5611194103246
 30
0.0
 11
636.5380402473372
 21
-602.4644493268067
 31
0.0
  0
LINE
  5
245EA
  8
01
 10
613.3730880170458
 20
-575.0568564093874
 30
0.0
 11
613.2764179335277
 21
-574.9601863258692
 31
0.0
  0
LINE
  5
245EB
  8
01
 10
613.2756874035324
 20
-574.9594557958737
 30
0.0
 11
613.2587358303947
 21
-574.9425042227363
 31
0.0
  0
LINE
  5
245EC
  8
01
 10
613.2578868955052
 20
-574.9416552878467
 30
0.0
 11
613.2416224063193
 21
-574.9253907986608
 31
0.0
  0
LINE
  5
245ED
  8
01
 10
613.2406647443138
 20
-574.9244331366554
 30
0.0
 11
613.2250853932444
 21
-574.908853785586
 31
0.0
  0
LINE
  5
245EE
  8
01
 10
613.073011881176
 20
-574.7567802735173
 30
0.0
 11
613.0660756584314
 21
-574.7498440507727
 31
0.0
  0
LINE
  5
245EF
  8
01
 10
613.0647185633741
 20
-574.7484869557154
 30
0.0
 11
613.0584202533896
 21
-574.742188645731
 31
0.0
  0
LINE
  5
245F0
  8
01
 10
613.0571224363559
 20
-574.7408908286975
 30
0.0
 11
613.051457238495
 21
-574.7352256308363
 31
0.0
  0
LINE
  5
245F1
  8
01
 10
613.0502314223854
 20
-574.7339998147268
 30
0.0
 11
613.0451943456906
 21
-574.7289627380319
 31
0.0
  0
LINE
  5
245F2
  8
01
 10
613.0440534437244
 20
-574.7278218360659
 30
0.0
 11
613.0396393069193
 21
-574.7234076992606
 31
0.0
  0
LINE
  5
245F3
  8
01
 10
613.038596422637
 20
-574.7223648149784
 30
0.0
 11
613.0347998541245
 21
-574.7185682464658
 31
0.0
  0
LINE
  5
245F4
  8
01
 10
613.0338682813865
 20
-574.7176366737278
 30
0.0
 11
613.0212234316714
 21
-574.7049918240127
 31
0.0
  0
ARC
  5
245F5
  8
01
 10
612.45552571239
 20
-575.2706772492247
 30
0.0
 40
0.8000086936386634
 50
44.99937740075708
 51
134.9993773741351
  0
LINE
  5
245F6
  8
01
 10
611.2517676734858
 20
-577.1781767529465
 30
0.0
 11
611.1550975899679
 21
-577.0815066694288
 31
0.0
  0
LINE
  5
245F7
  8
01
 10
611.1543670599722
 20
-577.080776139433
 30
0.0
 11
611.1374154868349
 21
-577.0638245662958
 31
0.0
  0
LINE
  5
245F8
  8
01
 10
611.1365665519454
 20
-577.0629756314061
 30
0.0
 11
611.1203020627597
 21
-577.0467111422204
 31
0.0
  0
LINE
  5
245F9
  8
01
 10
611.1193444007538
 20
-577.0457534802147
 30
0.0
 11
611.1037650496846
 21
-577.0301741291455
 31
0.0
  0
LINE
  5
245FA
  8
01
 10
610.951691537616
 20
-576.8781006170766
 30
0.0
 11
610.9447553148718
 21
-576.8711643943325
 31
0.0
  0
LINE
  5
245FB
  8
01
 10
610.9433982198138
 20
-576.8698072992747
 30
0.0
 11
610.9370999098301
 21
-576.8635089892907
 31
0.0
  0
LINE
  5
245FC
  8
01
 10
610.9358020927962
 20
-576.8622111722568
 30
0.0
 11
610.9301368949355
 21
-576.8565459743961
 31
0.0
  0
LINE
  5
245FD
  8
01
 10
610.9289110788254
 20
-576.8553201582861
 30
0.0
 11
610.9238740021308
 21
-576.8502830815917
 31
0.0
  0
LINE
  5
245FE
  8
01
 10
610.9227331001646
 20
-576.8491421796252
 30
0.0
 11
610.9183189633595
 21
-576.8447280428202
 31
0.0
  0
LINE
  5
245FF
  8
01
 10
610.917276079077
 20
-576.8436851585377
 30
0.0
 11
610.9134795105647
 21
-576.8398885900253
 31
0.0
  0
LINE
  5
24600
  8
01
 10
610.9125479378265
 20
-576.8389570172872
 30
0.0
 11
610.899929213567
 21
-576.8263382930281
 31
0.0
  0
ARC
  5
24601
  8
01
 10
611.4655885133257
 20
-576.2606144482909
 30
0.0
 40
0.8000086936403557
 50
135.0006226259513
 51
225.0006225991105
  0
LINE
  5
24602
  8
1PHANTOM
 10
641.9658380372068
 20
-538.8213303512664
 30
0.0
 11
641.9658380372068
 21
-535.8213303512669
 31
0.0
  0
LINE
  5
24603
  8
1PHANTOM
 10
610.0667554689628
 20
-535.8213303512669
 30
0.0
 11
610.0667554689624
 21
-538.8213303512664
 31
0.0
  0
LINE
  5
24605
  8
1PHANTOM
 10
621.0162967530844
 20
-538.8213303512664
 30
0.0
 11
610.0667554689624
 21
-538.8213303512664
 31
0.0
  0
LINE
  5
24606
  8
1PHANTOM
 10
631.0162264023563
 20
-554.3213303512664
 30
0.0
 11
630.0162264023631
 21
-555.3213303512664
 31
0.0
  0
LINE
  5
24607
  8
1PHANTOM
 10
622.0162967530748
 20
-555.3213303512664
 30
0.0
 11
621.0162967530844
 21
-554.3213303512664
 31
0.0
  0
LINE
  5
24608
  8
1PHANTOM
 10
631.0162264023563
 20
-538.8213303512664
 30
0.0
 11
631.0162264023563
 21
-554.3213303512664
 31
0.0
  0
LINE
  5
24609
  8
1PHANTOM
 10
621.0162967530844
 20
-538.8213303512664
 30
0.0
 11
621.0162967530844
 21
-554.3213303512664
 31
0.0
  0
LINE
  5
2460A
  8
1PHANTOM
 10
630.0162264023631
 20
-555.3213303512664
 30
0.0
 11
622.0162967530748
 21
-555.3213303512664
 31
0.0
  0
LINE
  5
2460B
  8
1PHANTOM
 10
758.8162416153652
 20
-651.3213303512653
 30
0.0
 11
760.0162416153653
 21
-651.3213303512653
 31
0.0
  0
LINE
  5
2460C
  8
1PHANTOM
 10
758.8162416153652
 20
-660.3213303512653
 30
0.0
 11
760.0162416153653
 21
-660.3213303512653
 31
0.0
  0
LINE
  5
2460D
  8
1PHANTOM
 10
758.8162416153652
 20
-655.8213303512653
 30
0.0
 11
760.0162416153653
 21
-656.5141506742929
 31
0.0
  0
LINE
  5
2460E
  8
1PHANTOM
 10
611.5158143860356
 20
-540.0213303512664
 30
0.0
 11
611.5158143860356
 21
-538.8213303512664
 31
0.0
  0
LINE
  5
2460F
  8
1PHANTOM
 10
620.5158143860356
 20
-540.0213303512664
 30
0.0
 11
620.5158143860356
 21
-538.8213303512664
 31
0.0
  0
LINE
  5
24610
  8
1PHANTOM
 10
616.0158143860356
 20
-540.0213303512664
 30
0.0
 11
616.7086347090632
 21
-538.8213303512664
 31
0.0
  0
ARC
  5
24611
  8
01
 10
627.2188346699284
 20
-551.5238440024054
 30
0.0
 40
0.75
 50
90.00039994659257
 51
179.9996000534074
  0
LINE
  5
24612
  8
01
 10
628.2676371244318
 20
-550.7738366813427
 30
0.0
 11
627.2188294346399
 21
-550.7738440024239
 31
0.0
  0
LINE
  5
24613
  8
01
 10
626.468827348355
 20
-552.5727195424432
 30
0.0
 11
626.4688346699461
 21
-551.5238387671167
 31
0.0
  0
ARC
  5
24614
  8
01
 10
624.8137279642285
 20
-551.523923405828
 30
0.0
 40
0.75
 50
0.0003999465925572
 51
89.99960005346824
  0
LINE
  5
24615
  8
01
 10
625.5637352852916
 20
-552.5727258603341
 30
0.0
 11
625.5637279642108
 21
-551.5239181705392
 31
0.0
  0
LINE
  5
24616
  8
01
 10
623.764852424187
 20
-550.773916084256
 30
0.0
 11
624.813733199517
 21
-550.7739234058464
 31
0.0
  0
ARC
  5
24617
  8
01
 10
624.8136485608036
 20
-549.1188167001292
 30
0.0
 40
0.75
 50
270.0003999465926
 51
359.9996000534943
  0
LINE
  5
24618
  8
01
 10
623.7648461062961
 20
-549.8688240211926
 30
0.0
 11
624.813653796092
 21
-549.8688167001108
 31
0.0
  0
LINE
  5
24619
  8
01
 10
625.5636558823755
 20
-548.0699411600914
 30
0.0
 11
625.5636485607859
 21
-549.1188219354166
 31
0.0
  0
ARC
  5
2461A
  8
01
 10
627.2187552665021
 20
-549.118737296707
 30
0.0
 40
0.75
 50
180.0003999465926
 51
269.9996000534682
  0
LINE
  5
2461B
  8
01
 10
628.2676308065409
 20
-549.8687446182793
 30
0.0
 11
627.2187500312136
 21
-549.8687372966886
 31
0.0
  0
LINE
  5
2461C
  8
01
 10
626.468747945439
 20
-548.0699348422005
 30
0.0
 11
626.4687552665198
 21
-549.1187425319957
 31
0.0
  0
LINE
  5
2461D
  8
01
 10
628.2676308065409
 20
-549.8687446182793
 30
0.0
 11
628.2676371244318
 21
-550.7738366813427
 31
0.0
  0
LINE
  5
2461E
  8
01
 10
626.468827348355
 20
-552.5727195424432
 30
0.0
 11
625.5637352852916
 21
-552.5727258603341
 31
0.0
  0
LINE
  5
2461F
  8
01
 10
623.764852424187
 20
-550.773916084256
 30
0.0
 11
623.7648461062961
 21
-549.8688240211926
 31
0.0
  0
LINE
  5
24620
  8
01
 10
625.5636558823755
 20
-548.0699411600914
 30
0.0
 11
626.468747945439
 21
-548.0699348422005
 31
0.0
  0
CIRCLE
  5
24621
  8
01
 10
626.0162416153646
 20
-550.3213303512673
 30
0.0
 40
3.0
  0
LINE
  5
24645
  8
1PHANTOM
 10
743.5162416120615
 20
-645.9709744731299
 30
0.0
 11
744.5162416153653
 21
-644.9713726878986
 31
0.0
  0
LINE
  5
24646
  8
1PHANTOM
 10
743.5162416154546
 20
-665.671770904928
 30
0.0
 11
743.5162416120615
 21
-645.9709744731299
 31
0.0
  0
LINE
  5
24647
  8
1PHANTOM
 10
744.5162416153653
 20
-666.6713726878988
 30
0.0
 11
743.5162416154546
 21
-665.671770904928
 31
0.0
  0
ARC
  5
24648
  8
1PHANTOM
 10
748.5162416154453
 20
-680.3607098606572
 30
0.0
 40
14.12967868105186
 50
75.66320433227312
 51
104.3367956327829
  0
ARC
  5
24649
  8
1PHANTOM
 10
748.5162416154367
 20
-631.282035515138
 30
0.0
 40
14.12967868105745
 50
255.6632043671564
 51
284.3367956677882
  0
LINE
  5
2464A
  8
1PHANTOM
 10
752.016241615434
 20
-644.9713726878986
 30
0.0
 11
760.0162416153653
 21
-644.9713726878986
 31
0.0
  0
LINE
  5
2464B
  8
1PHANTOM
 10
744.5162416153653
 20
-644.9713726878986
 30
0.0
 11
745.016241615288
 21
-644.9713726878986
 31
0.0
  0
LINE
  5
2464C
  8
1PHANTOM
 10
760.0162416153653
 20
-666.6713726878988
 30
0.0
 11
752.0162416154262
 21
-666.6713726878988
 31
0.0
  0
LINE
  5
2464D
  8
1PHANTOM
 10
745.016241615313
 20
-666.6713726878988
 30
0.0
 11
744.5162416153653
 21
-666.6713726878988
 31
0.0
  0
LINE
  5
2464E
  8
1PHANTOM
 10
763.0162416153653
 20
-671.7708716354437
 30
0.0
 11
760.0162416153653
 21
-671.7708716354437
 31
0.0
  0
LINE
  5
2464F
  8
1PHANTOM
 10
760.0162416153653
 20
-639.8717890670873
 30
0.0
 11
763.0162416153644
 21
-639.8717890670873
 31
0.0
  0
LINE
  5
24650
  8
1PHANTOM
 10
760.0162416153653
 20
-666.6713726878988
 30
0.0
 11
760.0162416153653
 21
-671.7708716354437
 31
0.0
  0
LINE
  5
24651
  8
1PHANTOM
 10
760.0162416153653
 20
-639.8717890670873
 30
0.0
 11
760.0162416153653
 21
-644.9713726878986
 31
0.0
  0
LINE
  5
24696
  8
1PHANTOM
 10
641.9658380372068
 20
-538.8213303512664
 30
0.0
 11
631.0162264023563
 21
-538.8213303512664
 31
0.0
  0
LINE
  5
24697
  8
1PHANTOM
 10
631.5166289199849
 20
-540.0213303512664
 30
0.0
 11
631.5166289199849
 21
-538.8213303512664
 31
0.0
  0
LINE
  5
24698
  8
1PHANTOM
 10
640.5166289199849
 20
-540.0213303512664
 30
0.0
 11
640.5166289199849
 21
-538.8213303512664
 31
0.0
  0
LINE
  5
24699
  8
1PHANTOM
 10
636.0166289199849
 20
-540.0213303512664
 30
0.0
 11
636.7094492430125
 21
-538.8213303512664
 31
0.0
  0
LINE
  5
2469B
  8
1PHANTOM
 10
760.0162416153653
 20
-660.3213303512653
 30
0.0
 11
760.0162416153653
 21
-651.3213303512653
 31
0.0
  0
LINE
  5
24A97
  8
01
 10
787.5162416153653
 20
-618.5931567659834
 30
0.0
 11
787.5162416153653
 21
-693.0495039365471
 31
0.0
  0
LINE
  5
25A3A
  8
01
 10
203.1375726634591
 20
-643.3213303512664
 30
0.0
 11
623.8948759445581
 21
-643.3213303512664
 31
0.0
  0
LINE
  5
25A3B
  8
01
 10
203.1375726644229
 20
-668.3213303512664
 30
0.0
 11
623.8948759435942
 21
-668.3213303512664
 31
0.0
  0
ARC
  5
2609E
  8
01
 10
711.137651532517
 20
-655.8213367718666
 30
0.0
 40
12.50000860550734
 50
90.00003944469466
 51
179.9999605553001
  0
ARC
  5
2609F
  8
01
 10
711.137651532517
 20
-655.8213195608577
 30
0.0
 40
12.50000860550745
 50
180.0000394446999
 51
269.9999605553012
  0
LINE
  5
260A0
  8
01
 10
711.6361650736395
 20
-641.8645058448918
 30
0.0
 11
711.482396350944
 21
-641.8529166054483
 31
0.0
  0
LINE
  5
260A1
  8
01
 10
710.5719575020527
 20
-641.8213281663626
 30
0.0
 11
710.2709658515092
 21
-641.8247772106528
 31
0.0
  0
LINE
  5
260A2
  8
01
 10
710.2709658515092
 20
-641.8247772106528
 30
0.0
 11
709.9674199607776
 21
-641.8352468724833
 31
0.0
  0
LINE
  5
260A3
  8
01
 10
709.9674199607776
 20
-641.8352468724833
 30
0.0
 11
709.6615186531614
 21
-641.8529166054481
 31
0.0
  0
LINE
  5
260A4
  8
01
 10
709.6615186531614
 20
-641.8529166054481
 30
0.0
 11
709.3534720047952
 21
-641.8779594457823
 31
0.0
  0
LINE
  5
260A5
  8
01
 10
709.3534720047952
 20
-641.8779594457823
 30
0.0
 11
709.0435012129607
 21
-641.9105412129601
 31
0.0
  0
LINE
  5
260A6
  8
01
 10
709.0435012129607
 20
-641.9105412129601
 30
0.0
 11
708.7318384072884
 21
-641.9508197010072
 31
0.0
  0
LINE
  5
260A7
  8
01
 10
708.7318384072884
 20
-641.9508197010072
 30
0.0
 11
708.4187264015965
 21
-641.9989438651197
 31
0.0
  0
LINE
  5
260A8
  8
01
 10
708.4187264015965
 20
-641.9989438651197
 30
0.0
 11
708.1044183844712
 21
-642.0550530085305
 31
0.0
  0
LINE
  5
260A9
  8
01
 10
708.1044183844712
 20
-642.0550530085305
 30
0.0
 11
707.7891775470772
 21
-642.1192759748961
 31
0.0
  0
LINE
  5
260AA
  8
01
 10
707.7891775470772
 20
-642.1192759748961
 30
0.0
 11
707.4732766471612
 21
-642.191730351764
 31
0.0
  0
LINE
  5
260AB
  8
01
 10
707.4732766471612
 20
-642.191730351764
 30
0.0
 11
707.1569975086837
 21
-642.2725216909372
 31
0.0
  0
LINE
  5
260AC
  8
01
 10
707.1569975086837
 20
-642.2725216909372
 30
0.0
 11
706.8406304570605
 21
-642.3617427517441
 31
0.0
  0
LINE
  5
260AD
  8
01
 10
706.8406304570605
 20
-642.3617427517441
 30
0.0
 11
706.5244736905421
 21
-642.4594727733821
 31
0.0
  0
LINE
  5
260AE
  8
01
 10
706.5244736905421
 20
-642.4594727733821
 30
0.0
 11
706.2088325888941
 21
-642.5657767825791
 31
0.0
  0
LINE
  5
260AF
  8
01
 10
706.2088325888941
 20
-642.5657767825791
 30
0.0
 11
705.8940189611218
 21
-642.6807049428386
 31
0.0
  0
LINE
  5
260B0
  8
01
 10
705.8940189611218
 20
-642.6807049428386
 30
0.0
 11
705.5803502346531
 21
-642.8042919514884
 31
0.0
  0
LINE
  5
260B1
  8
01
 10
705.5803502346531
 20
-642.8042919514884
 30
0.0
 11
705.2681485890326
 21
-642.9365564906144
 31
0.0
  0
LINE
  5
260B2
  8
01
 10
705.2681485890326
 20
-642.9365564906144
 30
0.0
 11
704.9577400378117
 21
-643.0775007377678
 31
0.0
  0
LINE
  5
260B3
  8
01
 10
704.9577400378117
 20
-643.0775007377678
 30
0.0
 11
704.6494534629797
 21
-643.2271099420408
 31
0.0
  0
LINE
  5
260B4
  8
01
 10
704.6494534629797
 20
-643.2271099420408
 30
0.0
 11
704.343619606883
 21
-643.3853520707459
 31
0.0
  0
LINE
  5
260B5
  8
01
 10
704.343619606883
 20
-643.3853520707459
 30
0.0
 11
704.0405700271596
 21
-643.5521775314866
 31
0.0
  0
LINE
  5
260B6
  8
01
 10
704.0405700271596
 20
-643.5521775314866
 30
0.0
 11
703.7406360207866
 21
-643.7275189738983
 31
0.0
  0
LINE
  5
260B7
  8
01
 10
703.7406360207866
 20
-643.7275189738983
 30
0.0
 11
703.4441475237996
 21
-643.9112911747299
 31
0.0
  0
LINE
  5
260B8
  8
01
 10
703.4441475237996
 20
-643.9112911747299
 30
0.0
 11
703.151431993712
 21
-644.1033910093014
 31
0.0
  0
LINE
  5
260B9
  8
01
 10
703.151431993712
 20
-644.1033910093014
 30
0.0
 11
702.8628132819928
 21
-644.3036975116389
 31
0.0
  0
LINE
  5
260BA
  8
01
 10
702.8628132819928
 20
-644.3036975116389
 30
0.0
 11
702.578610504294
 21
-644.5120720248364
 31
0.0
  0
LINE
  5
260BB
  8
01
 10
702.578610504294
 20
-644.5120720248364
 30
0.0
 11
702.2991369162775
 21
-644.7283584423755
 31
0.0
  0
LINE
  5
260BC
  8
01
 10
702.2991369162775
 20
-644.7283584423755
 30
0.0
 11
702.0246988030414
 21
-644.9523835403144
 31
0.0
  0
LINE
  5
260BD
  8
01
 10
702.0246988030414
 20
-644.9523835403144
 30
0.0
 11
701.7555943901563
 21
-645.183957399386
 31
0.0
  0
LINE
  5
260BE
  8
01
 10
701.7555943901563
 20
-645.183957399386
 30
0.0
 11
701.4921127842437
 21
-645.4228739152016
 31
0.0
  0
LINE
  5
260BF
  8
01
 10
701.4921127842437
 20
-645.4228739152016
 30
0.0
 11
701.234532950865
 21
-645.6689113939004
 31
0.0
  0
LINE
  5
260C0
  8
01
 10
701.234532950865
 20
-645.6689113939004
 30
0.0
 11
700.9831227372184
 21
-645.9218332297506
 31
0.0
  0
LINE
  5
260C1
  8
01
 10
700.9831227372184
 20
-645.9218332297506
 30
0.0
 11
700.7381379467912
 21
-646.1813886604197
 31
0.0
  0
LINE
  5
260C2
  8
01
 10
700.7381379467912
 20
-646.1813886604197
 30
0.0
 11
700.4998214726371
 21
-646.4473135948716
 31
0.0
  0
LINE
  5
260C3
  8
01
 10
700.4998214726371
 20
-646.4473135948716
 30
0.0
 11
700.2684024954657
 21
-646.7193315081626
 31
0.0
  0
LINE
  5
260C4
  8
01
 10
700.2684024954657
 20
-646.7193315081626
 30
0.0
 11
700.0440957520701
 21
-646.997154396773
 31
0.0
  0
LINE
  5
260C5
  8
01
 10
700.0440957520701
 20
-646.997154396773
 30
0.0
 11
699.8271008789912
 21
-647.2804837875723
 31
0.0
  0
LINE
  5
260C6
  8
01
 10
699.8271008789912
 20
-647.2804837875723
 30
0.0
 11
699.617601835561
 21
-647.5690117930432
 31
0.0
  0
LINE
  5
260C7
  8
01
 10
699.617601835561
 20
-647.5690117930432
 30
0.0
 11
699.4157664097089
 21
-647.8624222050272
 31
0.0
  0
LINE
  5
260C8
  8
01
 10
699.4157664097089
 20
-647.8624222050272
 30
0.0
 11
699.2217458091087
 21
-648.1603916189705
 31
0.0
  0
LINE
  5
260C9
  8
01
 10
699.2217458091087
 20
-648.1603916189705
 30
0.0
 11
699.0356743394174
 21
-648.4625905804752
 31
0.0
  0
LINE
  5
260CA
  8
01
 10
699.0356743394174
 20
-648.4625905804752
 30
0.0
 11
698.8576691705249
 21
-648.7686847458941
 31
0.0
  0
LINE
  5
260CB
  8
01
 10
698.8576691705249
 20
-648.7686847458941
 30
0.0
 11
698.6878301909125
 21
-649.078336048709
 31
0.0
  0
LINE
  5
260CC
  8
01
 10
698.6878301909125
 20
-649.078336048709
 30
0.0
 11
698.5262399494046
 21
-649.3912038635782
 31
0.0
  0
LINE
  5
260CD
  8
01
 10
698.5262399494046
 20
-649.3912038635782
 30
0.0
 11
698.3729636828172
 21
-649.7069461601271
 31
0.0
  0
LINE
  5
260CE
  8
01
 10
698.3729636828172
 20
-649.7069461601271
 30
0.0
 11
698.228049427266
 21
-650.0252206388742
 31
0.0
  0
LINE
  5
260CF
  8
01
 10
698.228049427266
 20
-650.0252206388742
 30
0.0
 11
698.0915282102075
 21
-650.3456858420462
 31
0.0
  0
LINE
  5
260D0
  8
01
 10
698.0915282102075
 20
-650.3456858420462
 30
0.0
 11
697.963414319646
 21
-650.668002232496
 31
0.0
  0
LINE
  5
260D1
  8
01
 10
697.963414319646
 20
-650.668002232496
 30
0.0
 11
697.8437056463641
 21
-650.9918332344479
 31
0.0
  0
LINE
  5
260D2
  8
01
 10
697.8437056463641
 20
-650.9918332344479
 30
0.0
 11
697.7323840945461
 21
-651.3168462303482
 31
0.0
  0
LINE
  5
260D3
  8
01
 10
697.7323840945461
 20
-651.3168462303482
 30
0.0
 11
697.629416055716
 21
-651.6427135087177
 31
0.0
  0
LINE
  5
260D4
  8
01
 10
697.629416055716
 20
-651.6427135087177
 30
0.0
 11
697.5347529405723
 21
-651.969113158527
 31
0.0
  0
LINE
  5
260D5
  8
01
 10
697.5347529405723
 20
-651.969113158527
 30
0.0
 11
697.4483317630176
 21
-652.2957299062826
 31
0.0
  0
LINE
  5
260D6
  8
01
 10
697.4483317630176
 20
-652.2957299062826
 30
0.0
 11
697.3700757704925
 21
-652.6222558926719
 31
0.0
  0
LINE
  5
260D7
  8
01
 10
697.3700757704925
 20
-652.6222558926719
 30
0.0
 11
697.2998951145879
 21
-652.9483913862838
 31
0.0
  0
LINE
  5
260D8
  8
01
 10
697.2998951145879
 20
-652.9483913862838
 30
0.0
 11
697.2376875558658
 21
-653.2738454325921
 31
0.0
  0
LINE
  5
260D9
  8
01
 10
697.2376875558658
 20
-653.2738454325921
 30
0.0
 11
697.1833391968427
 21
-653.598336437013
 31
0.0
  0
LINE
  5
260DA
  8
01
 10
697.1833391968427
 20
-653.598336437013
 30
0.0
 11
697.136725237158
 21
-653.9215926814844
 31
0.0
  0
LINE
  5
260DB
  8
01
 10
697.136725237158
 20
-653.9215926814844
 30
0.0
 11
697.0977107451123
 21
-654.2433527745881
 31
0.0
  0
LINE
  5
260DC
  8
01
 10
697.0977107451123
 20
-654.2433527745881
 30
0.0
 11
697.0661514399341
 21
-654.5633660357943
 31
0.0
  0
LINE
  5
260DD
  8
01
 10
697.0661514399341
 20
-654.5633660357943
 30
0.0
 11
697.0418944793979
 21
-654.8813928149103
 31
0.0
  0
LINE
  5
260DE
  8
01
 10
697.0418944793979
 20
-654.8813928149103
 30
0.0
 11
697.024779247679
 21
-655.197204748281
 31
0.0
  0
LINE
  5
260DF
  8
01
 10
697.024779247679
 20
-655.197204748281
 30
0.0
 11
697.0146381386654
 21
-655.5105849536995
 31
0.0
  0
LINE
  5
260E0
  8
01
 10
697.0146381386654
 20
-655.5105849536995
 30
0.0
 11
697.0112973302699
 21
-655.8213281663619
 31
0.0
  0
LINE
  5
260E1
  8
01
 10
697.0112973302699
 20
-655.8213281663619
 30
0.0
 11
697.0146381386654
 21
-656.1320713790245
 31
0.0
  0
LINE
  5
260E2
  8
01
 10
697.0146381386654
 20
-656.1320713790245
 30
0.0
 11
697.024779247679
 21
-656.4454515844433
 31
0.0
  0
LINE
  5
260E3
  8
01
 10
697.024779247679
 20
-656.4454515844433
 30
0.0
 11
697.0418944793979
 21
-656.7612635178137
 31
0.0
  0
LINE
  5
260E4
  8
01
 10
697.0418944793979
 20
-656.7612635178137
 30
0.0
 11
697.0661514399341
 21
-657.0792902969298
 31
0.0
  0
LINE
  5
260E5
  8
01
 10
697.0661514399341
 20
-657.0792902969298
 30
0.0
 11
697.0977107451123
 21
-657.3993035581362
 31
0.0
  0
LINE
  5
260E6
  8
01
 10
697.0977107451123
 20
-657.3993035581362
 30
0.0
 11
697.136725237158
 21
-657.7210636512397
 31
0.0
  0
LINE
  5
260E7
  8
01
 10
697.136725237158
 20
-657.7210636512397
 30
0.0
 11
697.1833391968427
 21
-658.044319895711
 31
0.0
  0
LINE
  5
260E8
  8
01
 10
697.1833391968427
 20
-658.044319895711
 30
0.0
 11
697.2376875558658
 21
-658.368810900132
 31
0.0
  0
LINE
  5
260E9
  8
01
 10
697.2376875558658
 20
-658.368810900132
 30
0.0
 11
697.2998951145879
 21
-658.6942649464403
 31
0.0
  0
LINE
  5
260EA
  8
01
 10
697.2998951145879
 20
-658.6942649464403
 30
0.0
 11
697.3700757704925
 21
-659.0204004400522
 31
0.0
  0
LINE
  5
260EB
  8
01
 10
697.3700757704925
 20
-659.0204004400522
 30
0.0
 11
697.4483317630171
 21
-659.346926426441
 31
0.0
  0
LINE
  5
260EC
  8
01
 10
697.4483317630171
 20
-659.346926426441
 30
0.0
 11
697.5347529405723
 21
-659.6735431741971
 31
0.0
  0
LINE
  5
260ED
  8
01
 10
697.5347529405723
 20
-659.6735431741971
 30
0.0
 11
697.629416055716
 21
-659.9999428240066
 31
0.0
  0
LINE
  5
260EE
  8
01
 10
697.629416055716
 20
-659.9999428240066
 30
0.0
 11
697.7323840945461
 21
-660.3258101023761
 31
0.0
  0
LINE
  5
260EF
  8
01
 10
697.7323840945461
 20
-660.3258101023761
 30
0.0
 11
697.8437056463637
 21
-660.6508230982764
 31
0.0
  0
LINE
  5
260F0
  8
01
 10
697.8437056463637
 20
-660.6508230982764
 30
0.0
 11
697.963414319646
 21
-660.9746541002281
 31
0.0
  0
LINE
  5
260F1
  8
01
 10
697.963414319646
 20
-660.9746541002281
 30
0.0
 11
698.0915282102075
 21
-661.2969704906778
 31
0.0
  0
LINE
  5
260F2
  8
01
 10
698.0915282102075
 20
-661.2969704906778
 30
0.0
 11
698.228049427266
 21
-661.6174356938496
 31
0.0
  0
LINE
  5
260F3
  8
01
 10
698.228049427266
 20
-661.6174356938496
 30
0.0
 11
698.3729636828172
 21
-661.9357101725969
 31
0.0
  0
LINE
  5
260F4
  8
01
 10
698.3729636828172
 20
-661.9357101725969
 30
0.0
 11
698.5262399494046
 21
-662.2514524691459
 31
0.0
  0
LINE
  5
260F5
  8
01
 10
698.5262399494046
 20
-662.2514524691459
 30
0.0
 11
698.6878301909125
 21
-662.5643202840148
 31
0.0
  0
LINE
  5
260F6
  8
01
 10
698.6878301909125
 20
-662.5643202840148
 30
0.0
 11
698.8576691705244
 21
-662.87397158683
 31
0.0
  0
LINE
  5
260F7
  8
01
 10
698.8576691705244
 20
-662.87397158683
 30
0.0
 11
699.0356743394174
 21
-663.1800657522487
 31
0.0
  0
LINE
  5
260F8
  8
01
 10
699.0356743394174
 20
-663.1800657522487
 30
0.0
 11
699.2217458091087
 21
-663.482264713754
 31
0.0
  0
LINE
  5
260F9
  8
01
 10
699.2217458091087
 20
-663.482264713754
 30
0.0
 11
699.4157664097089
 21
-663.7802341276969
 31
0.0
  0
LINE
  5
260FA
  8
01
 10
699.4157664097089
 20
-663.7802341276969
 30
0.0
 11
699.6176018355605
 21
-664.0736445396811
 31
0.0
  0
LINE
  5
260FB
  8
01
 10
699.6176018355605
 20
-664.0736445396811
 30
0.0
 11
699.8271008789912
 21
-664.362172545152
 31
0.0
  0
LINE
  5
260FC
  8
01
 10
699.8271008789912
 20
-664.362172545152
 30
0.0
 11
700.0440957520697
 21
-664.6455019359511
 31
0.0
  0
LINE
  5
260FD
  8
01
 10
700.0440957520697
 20
-664.6455019359511
 30
0.0
 11
700.2684024954652
 21
-664.9233248245615
 31
0.0
  0
LINE
  5
260FE
  8
01
 10
700.2684024954652
 20
-664.9233248245615
 30
0.0
 11
700.4998214726371
 21
-665.1953427378527
 31
0.0
  0
LINE
  5
260FF
  8
01
 10
700.4998214726371
 20
-665.1953427378527
 30
0.0
 11
700.7381379467912
 21
-665.4612676723046
 31
0.0
  0
LINE
  5
26100
  8
01
 10
700.7381379467912
 20
-665.4612676723046
 30
0.0
 11
700.9831227372184
 21
-665.7208231029737
 31
0.0
  0
LINE
  5
26101
  8
01
 10
700.9831227372184
 20
-665.7208231029737
 30
0.0
 11
701.234532950864
 21
-665.9737449388239
 31
0.0
  0
LINE
  5
26102
  8
01
 10
701.234532950864
 20
-665.9737449388239
 30
0.0
 11
701.4921127842432
 21
-666.2197824175224
 31
0.0
  0
LINE
  5
26103
  8
01
 10
701.4921127842432
 20
-666.2197824175224
 30
0.0
 11
701.7555943901558
 21
-666.4586989333383
 31
0.0
  0
LINE
  5
26104
  8
01
 10
701.7555943901558
 20
-666.4586989333383
 30
0.0
 11
702.0246988030409
 21
-666.6902727924097
 31
0.0
  0
LINE
  5
26105
  8
01
 10
702.0246988030409
 20
-666.6902727924097
 30
0.0
 11
702.299136916277
 21
-666.9142978903486
 31
0.0
  0
LINE
  5
26106
  8
01
 10
702.299136916277
 20
-666.9142978903486
 30
0.0
 11
702.578610504294
 21
-667.1305843078882
 31
0.0
  0
LINE
  5
26107
  8
01
 10
702.578610504294
 20
-667.1305843078882
 30
0.0
 11
702.8628132819928
 21
-667.3389588210854
 31
0.0
  0
LINE
  5
26108
  8
01
 10
702.8628132819928
 20
-667.3389588210854
 30
0.0
 11
703.1514319937115
 21
-667.5392653234231
 31
0.0
  0
LINE
  5
26109
  8
01
 10
703.1514319937115
 20
-667.5392653234231
 30
0.0
 11
703.4441475237996
 21
-667.7313651579942
 31
0.0
  0
LINE
  5
2610A
  8
01
 10
703.4441475237996
 20
-667.7313651579942
 30
0.0
 11
703.7406360207862
 21
-667.915137358826
 31
0.0
  0
LINE
  5
2610B
  8
01
 10
703.7406360207862
 20
-667.915137358826
 30
0.0
 11
704.0405700271591
 21
-668.0904788012373
 31
0.0
  0
LINE
  5
2610C
  8
01
 10
704.0405700271591
 20
-668.0904788012373
 30
0.0
 11
704.343619606883
 21
-668.2573042619784
 31
0.0
  0
LINE
  5
2610D
  8
01
 10
704.343619606883
 20
-668.2573042619784
 30
0.0
 11
704.6494534629797
 21
-668.4155463906833
 31
0.0
  0
LINE
  5
2610E
  8
01
 10
704.6494534629797
 20
-668.4155463906833
 30
0.0
 11
704.9577400378113
 21
-668.5651555949565
 31
0.0
  0
LINE
  5
2610F
  8
01
 10
704.9577400378113
 20
-668.5651555949565
 30
0.0
 11
705.2681485890322
 21
-668.7060998421101
 31
0.0
  0
LINE
  5
26110
  8
01
 10
705.2681485890322
 20
-668.7060998421101
 30
0.0
 11
705.5803502346527
 21
-668.8383643812359
 31
0.0
  0
LINE
  5
26111
  8
01
 10
705.5803502346527
 20
-668.8383643812359
 30
0.0
 11
705.8940189611209
 21
-668.9619513898859
 31
0.0
  0
LINE
  5
26112
  8
01
 10
705.8940189611209
 20
-668.9619513898859
 30
0.0
 11
706.2088325888941
 21
-669.0768795501457
 31
0.0
  0
LINE
  5
26113
  8
01
 10
706.2088325888941
 20
-669.0768795501457
 30
0.0
 11
706.5244736905421
 21
-669.1831835593424
 31
0.0
  0
LINE
  5
26114
  8
01
 10
706.5244736905421
 20
-669.1831835593424
 30
0.0
 11
706.84063045706
 21
-669.2809135809806
 31
0.0
  0
LINE
  5
26115
  8
01
 10
706.84063045706
 20
-669.2809135809806
 30
0.0
 11
707.1569975086837
 21
-669.3701346417873
 31
0.0
  0
LINE
  5
26116
  8
01
 10
707.1569975086837
 20
-669.3701346417873
 30
0.0
 11
707.4732766471603
 21
-669.4509259809607
 31
0.0
  0
LINE
  5
26117
  8
01
 10
707.4732766471603
 20
-669.4509259809607
 30
0.0
 11
707.7891775470767
 21
-669.5233803578288
 31
0.0
  0
LINE
  5
26118
  8
01
 10
707.7891775470767
 20
-669.5233803578288
 30
0.0
 11
708.1044183844712
 21
-669.5876033241942
 31
0.0
  0
LINE
  5
26119
  8
01
 10
708.1044183844712
 20
-669.5876033241942
 30
0.0
 11
708.418726401596
 21
-669.643712467605
 31
0.0
  0
LINE
  5
2611A
  8
01
 10
708.418726401596
 20
-669.643712467605
 30
0.0
 11
708.7318384072875
 21
-669.6918366317176
 31
0.0
  0
LINE
  5
2611B
  8
01
 10
708.7318384072875
 20
-669.6918366317176
 30
0.0
 11
709.0435012129607
 21
-669.7321151197649
 31
0.0
  0
LINE
  5
2611C
  8
01
 10
709.0435012129607
 20
-669.7321151197649
 30
0.0
 11
709.3534720047952
 21
-669.7646968869425
 31
0.0
  0
LINE
  5
2611D
  8
01
 10
709.3534720047952
 20
-669.7646968869425
 30
0.0
 11
709.6615186531604
 21
-669.7897397272767
 31
0.0
  0
LINE
  5
2611E
  8
01
 10
709.6615186531604
 20
-669.7897397272767
 30
0.0
 11
709.9674199607776
 21
-669.8074094602417
 31
0.0
  0
LINE
  5
2611F
  8
01
 10
709.9674199607776
 20
-669.8074094602417
 30
0.0
 11
710.2709658515092
 21
-669.8178791220722
 31
0.0
  0
LINE
  5
26120
  8
01
 10
710.2709658515092
 20
-669.8178791220722
 30
0.0
 11
710.5719575020527
 21
-669.8213281663622
 31
0.0
  0
LINE
  5
26121
  8
01
 10
711.482396350944
 20
-669.7897397272767
 30
0.0
 11
711.6361650736391
 21
-669.7781504878329
 31
0.0
  0
LINE
  5
26122
  8
01
 10
709.5820080083914
 20
-641.8213281663626
 30
0.0
 11
709.2810163578484
 21
-641.8247772106528
 31
0.0
  0
LINE
  5
26123
  8
01
 10
709.2810163578484
 20
-641.8247772106528
 30
0.0
 11
708.9774704671169
 21
-641.8352468724833
 31
0.0
  0
LINE
  5
26124
  8
01
 10
708.9774704671169
 20
-641.8352468724833
 30
0.0
 11
708.6715691594997
 21
-641.8529166054481
 31
0.0
  0
LINE
  5
26125
  8
01
 10
708.6715691594997
 20
-641.8529166054481
 30
0.0
 11
708.3635225111344
 21
-641.8779594457823
 31
0.0
  0
LINE
  5
26126
  8
01
 10
708.3635225111344
 20
-641.8779594457823
 30
0.0
 11
708.0535517192999
 21
-641.9105412129601
 31
0.0
  0
LINE
  5
26127
  8
01
 10
708.0535517192999
 20
-641.9105412129601
 30
0.0
 11
707.7418889136267
 21
-641.9508197010072
 31
0.0
  0
LINE
  5
26128
  8
01
 10
707.7418889136267
 20
-641.9508197010072
 30
0.0
 11
707.4287769079352
 21
-641.9989438651197
 31
0.0
  0
LINE
  5
26129
  8
01
 10
707.4287769079352
 20
-641.9989438651197
 30
0.0
 11
707.1144688908104
 21
-642.0550530085305
 31
0.0
  0
LINE
  5
2612A
  8
01
 10
707.1144688908104
 20
-642.0550530085305
 30
0.0
 11
706.799228053416
 21
-642.1192759748961
 31
0.0
  0
LINE
  5
2612B
  8
01
 10
706.799228053416
 20
-642.1192759748961
 30
0.0
 11
706.4833271534995
 21
-642.191730351764
 31
0.0
  0
LINE
  5
2612C
  8
01
 10
706.4833271534995
 20
-642.191730351764
 30
0.0
 11
706.1670480150229
 21
-642.2725216909372
 31
0.0
  0
LINE
  5
2612D
  8
01
 10
706.1670480150229
 20
-642.2725216909372
 30
0.0
 11
705.8506809633988
 21
-642.3617427517441
 31
0.0
  0
LINE
  5
2612E
  8
01
 10
705.8506809633988
 20
-642.3617427517441
 30
0.0
 11
705.5345241968813
 21
-642.4594727733821
 31
0.0
  0
LINE
  5
2612F
  8
01
 10
705.5345241968813
 20
-642.4594727733821
 30
0.0
 11
705.2188830952333
 21
-642.5657767825791
 31
0.0
  0
LINE
  5
26130
  8
01
 10
705.2188830952333
 20
-642.5657767825791
 30
0.0
 11
704.9040694674601
 21
-642.6807049428386
 31
0.0
  0
LINE
  5
26131
  8
01
 10
704.9040694674601
 20
-642.6807049428386
 30
0.0
 11
704.5904007409919
 21
-642.8042919514884
 31
0.0
  0
LINE
  5
26132
  8
01
 10
704.5904007409919
 20
-642.8042919514884
 30
0.0
 11
704.2781990953714
 21
-642.9365564906144
 31
0.0
  0
LINE
  5
26133
  8
01
 10
704.2781990953714
 20
-642.9365564906144
 30
0.0
 11
703.9677905441505
 21
-643.0775007377678
 31
0.0
  0
LINE
  5
26134
  8
01
 10
703.9677905441505
 20
-643.0775007377678
 30
0.0
 11
703.659503969319
 21
-643.2271099420408
 31
0.0
  0
LINE
  5
26135
  8
01
 10
703.659503969319
 20
-643.2271099420408
 30
0.0
 11
703.3536701132222
 21
-643.3853520707459
 31
0.0
  0
LINE
  5
26136
  8
01
 10
703.3536701132222
 20
-643.3853520707459
 30
0.0
 11
703.0506205334983
 21
-643.5521775314866
 31
0.0
  0
LINE
  5
26137
  8
01
 10
703.0506205334983
 20
-643.5521775314866
 30
0.0
 11
702.7506865271249
 21
-643.7275189738983
 31
0.0
  0
LINE
  5
26138
  8
01
 10
702.7506865271249
 20
-643.7275189738983
 30
0.0
 11
702.4541980301389
 21
-643.9112911747299
 31
0.0
  0
LINE
  5
26139
  8
01
 10
702.4541980301389
 20
-643.9112911747299
 30
0.0
 11
702.1614825000503
 21
-644.1033910093014
 31
0.0
  0
LINE
  5
2613A
  8
01
 10
702.1614825000503
 20
-644.1033910093014
 30
0.0
 11
701.8728637883315
 21
-644.3036975116389
 31
0.0
  0
LINE
  5
2613B
  8
01
 10
701.8728637883315
 20
-644.3036975116389
 30
0.0
 11
701.5886610106332
 21
-644.5120720248364
 31
0.0
  0
LINE
  5
2613C
  8
01
 10
701.5886610106332
 20
-644.5120720248364
 30
0.0
 11
701.3091874226162
 21
-644.7283584423755
 31
0.0
  0
LINE
  5
2613D
  8
01
 10
701.3091874226162
 20
-644.7283584423755
 30
0.0
 11
701.0347493093801
 21
-644.9523835403144
 31
0.0
  0
LINE
  5
2613E
  8
01
 10
701.0347493093801
 20
-644.9523835403144
 30
0.0
 11
700.765644896495
 21
-645.183957399386
 31
0.0
  0
LINE
  5
2613F
  8
01
 10
700.765644896495
 20
-645.183957399386
 30
0.0
 11
700.5021632905824
 21
-645.4228739152016
 31
0.0
  0
LINE
  5
26140
  8
01
 10
700.5021632905824
 20
-645.4228739152016
 30
0.0
 11
700.2445834572032
 21
-645.6689113939004
 31
0.0
  0
LINE
  5
26141
  8
01
 10
700.2445834572032
 20
-645.6689113939004
 30
0.0
 11
699.9931732435576
 21
-645.9218332297506
 31
0.0
  0
LINE
  5
26142
  8
01
 10
699.9931732435576
 20
-645.9218332297506
 30
0.0
 11
699.74818845313
 21
-646.1813886604197
 31
0.0
  0
LINE
  5
26143
  8
01
 10
699.74818845313
 20
-646.1813886604197
 30
0.0
 11
699.5098719789759
 21
-646.4473135948716
 31
0.0
  0
LINE
  5
26144
  8
01
 10
699.5098719789759
 20
-646.4473135948716
 30
0.0
 11
699.278453001804
 21
-646.7193315081626
 31
0.0
  0
LINE
  5
26145
  8
01
 10
699.278453001804
 20
-646.7193315081626
 30
0.0
 11
699.0541462584084
 21
-646.997154396773
 31
0.0
  0
LINE
  5
26146
  8
01
 10
699.0541462584084
 20
-646.997154396773
 30
0.0
 11
698.83715138533
 21
-647.2804837875723
 31
0.0
  0
LINE
  5
26147
  8
01
 10
698.83715138533
 20
-647.2804837875723
 30
0.0
 11
698.6276523418998
 21
-647.5690117930432
 31
0.0
  0
LINE
  5
26148
  8
01
 10
698.6276523418998
 20
-647.5690117930432
 30
0.0
 11
698.4258169160477
 21
-647.8624222050272
 31
0.0
  0
LINE
  5
26149
  8
01
 10
698.4258169160477
 20
-647.8624222050272
 30
0.0
 11
698.2317963154479
 21
-648.1603916189705
 31
0.0
  0
LINE
  5
2614A
  8
01
 10
698.2317963154479
 20
-648.1603916189705
 30
0.0
 11
698.0457248457566
 21
-648.4625905804752
 31
0.0
  0
LINE
  5
2614B
  8
01
 10
698.0457248457566
 20
-648.4625905804752
 30
0.0
 11
697.8677196768637
 21
-648.7686847458941
 31
0.0
  0
LINE
  5
2614C
  8
01
 10
697.8677196768637
 20
-648.7686847458941
 30
0.0
 11
697.6978806972517
 21
-649.078336048709
 31
0.0
  0
LINE
  5
2614D
  8
01
 10
697.6978806972517
 20
-649.078336048709
 30
0.0
 11
697.5362904557438
 21
-649.3912038635782
 31
0.0
  0
LINE
  5
2614E
  8
01
 10
697.5362904557438
 20
-649.3912038635782
 30
0.0
 11
697.3830141891564
 21
-649.7069461601271
 31
0.0
  0
LINE
  5
2614F
  8
01
 10
697.3830141891564
 20
-649.7069461601271
 30
0.0
 11
697.2380999336043
 21
-650.0252206388742
 31
0.0
  0
LINE
  5
26150
  8
01
 10
697.2380999336043
 20
-650.0252206388742
 30
0.0
 11
697.1015787165467
 21
-650.3456858420462
 31
0.0
  0
LINE
  5
26151
  8
01
 10
697.1015787165467
 20
-650.3456858420462
 30
0.0
 11
696.9734648259843
 21
-650.668002232496
 31
0.0
  0
LINE
  5
26152
  8
01
 10
696.9734648259843
 20
-650.668002232496
 30
0.0
 11
696.8537561527024
 21
-650.9918332344479
 31
0.0
  0
LINE
  5
26153
  8
01
 10
696.8537561527024
 20
-650.9918332344479
 30
0.0
 11
696.7424346008848
 21
-651.3168462303482
 31
0.0
  0
LINE
  5
26154
  8
01
 10
696.7424346008848
 20
-651.3168462303482
 30
0.0
 11
696.6394665620552
 21
-651.6427135087177
 31
0.0
  0
LINE
  5
26155
  8
01
 10
696.6394665620552
 20
-651.6427135087177
 30
0.0
 11
696.544803446911
 21
-651.969113158527
 31
0.0
  0
LINE
  5
26156
  8
01
 10
696.544803446911
 20
-651.969113158527
 30
0.0
 11
696.4583822693563
 21
-652.2957299062826
 31
0.0
  0
LINE
  5
26157
  8
01
 10
696.4583822693563
 20
-652.2957299062826
 30
0.0
 11
696.3801262768312
 21
-652.6222558926719
 31
0.0
  0
LINE
  5
26158
  8
01
 10
696.3801262768312
 20
-652.6222558926719
 30
0.0
 11
696.3099456209262
 21
-652.9483913862838
 31
0.0
  0
LINE
  5
26159
  8
01
 10
696.3099456209262
 20
-652.9483913862838
 30
0.0
 11
696.2477380622046
 21
-653.2738454325921
 31
0.0
  0
LINE
  5
2615A
  8
01
 10
696.2477380622046
 20
-653.2738454325921
 30
0.0
 11
696.1933897031814
 21
-653.598336437013
 31
0.0
  0
LINE
  5
2615B
  8
01
 10
696.1933897031814
 20
-653.598336437013
 30
0.0
 11
696.1467757434972
 21
-653.9215926814844
 31
0.0
  0
LINE
  5
2615C
  8
01
 10
696.1467757434972
 20
-653.9215926814844
 30
0.0
 11
696.1077612514515
 21
-654.2433527745881
 31
0.0
  0
LINE
  5
2615D
  8
01
 10
696.1077612514515
 20
-654.2433527745881
 30
0.0
 11
696.0762019462733
 21
-654.5633660357943
 31
0.0
  0
LINE
  5
2615E
  8
01
 10
696.0762019462733
 20
-654.5633660357943
 30
0.0
 11
696.0519449857371
 21
-654.8813928149103
 31
0.0
  0
LINE
  5
2615F
  8
01
 10
696.0519449857371
 20
-654.8813928149103
 30
0.0
 11
696.0348297540182
 21
-655.197204748281
 31
0.0
  0
LINE
  5
26160
  8
01
 10
696.0348297540182
 20
-655.197204748281
 30
0.0
 11
696.0246886450037
 21
-655.5105849536995
 31
0.0
  0
LINE
  5
26161
  8
01
 10
696.0246886450037
 20
-655.5105849536995
 30
0.0
 11
696.0213478366087
 21
-655.8213281663619
 31
0.0
  0
LINE
  5
26162
  8
01
 10
696.0213478366087
 20
-655.8213281663619
 30
0.0
 11
696.0246886450037
 21
-656.1320713790245
 31
0.0
  0
LINE
  5
26163
  8
01
 10
696.0246886450037
 20
-656.1320713790245
 30
0.0
 11
696.0348297540182
 21
-656.4454515844433
 31
0.0
  0
LINE
  5
26164
  8
01
 10
696.0348297540182
 20
-656.4454515844433
 30
0.0
 11
696.0519449857371
 21
-656.7612635178137
 31
0.0
  0
LINE
  5
26165
  8
01
 10
696.0519449857371
 20
-656.7612635178137
 30
0.0
 11
696.0762019462733
 21
-657.0792902969298
 31
0.0
  0
LINE
  5
26166
  8
01
 10
696.0762019462733
 20
-657.0792902969298
 30
0.0
 11
696.1077612514515
 21
-657.3993035581362
 31
0.0
  0
LINE
  5
26167
  8
01
 10
696.1077612514515
 20
-657.3993035581362
 30
0.0
 11
696.1467757434972
 21
-657.7210636512397
 31
0.0
  0
LINE
  5
26168
  8
01
 10
696.1467757434972
 20
-657.7210636512397
 30
0.0
 11
696.1933897031814
 21
-658.044319895711
 31
0.0
  0
LINE
  5
26169
  8
01
 10
696.1933897031814
 20
-658.044319895711
 30
0.0
 11
696.2477380622046
 21
-658.368810900132
 31
0.0
  0
LINE
  5
2616A
  8
01
 10
696.2477380622046
 20
-658.368810900132
 30
0.0
 11
696.3099456209262
 21
-658.6942649464403
 31
0.0
  0
LINE
  5
2616B
  8
01
 10
696.3099456209262
 20
-658.6942649464403
 30
0.0
 11
696.3801262768312
 21
-659.0204004400522
 31
0.0
  0
LINE
  5
2616C
  8
01
 10
696.3801262768312
 20
-659.0204004400522
 30
0.0
 11
696.4583822693563
 21
-659.346926426441
 31
0.0
  0
LINE
  5
2616D
  8
01
 10
696.4583822693563
 20
-659.346926426441
 30
0.0
 11
696.544803446911
 21
-659.6735431741971
 31
0.0
  0
LINE
  5
2616E
  8
01
 10
696.544803446911
 20
-659.6735431741971
 30
0.0
 11
696.6394665620552
 21
-659.9999428240066
 31
0.0
  0
LINE
  5
2616F
  8
01
 10
696.6394665620552
 20
-659.9999428240066
 30
0.0
 11
696.7424346008844
 21
-660.3258101023761
 31
0.0
  0
LINE
  5
26170
  8
01
 10
696.7424346008844
 20
-660.3258101023761
 30
0.0
 11
696.8537561527024
 21
-660.6508230982764
 31
0.0
  0
LINE
  5
26171
  8
01
 10
696.8537561527024
 20
-660.6508230982764
 30
0.0
 11
696.9734648259843
 21
-660.9746541002281
 31
0.0
  0
LINE
  5
26172
  8
01
 10
696.9734648259843
 20
-660.9746541002281
 30
0.0
 11
697.1015787165462
 21
-661.2969704906778
 31
0.0
  0
LINE
  5
26173
  8
01
 10
697.1015787165462
 20
-661.2969704906778
 30
0.0
 11
697.2380999336043
 21
-661.6174356938496
 31
0.0
  0
LINE
  5
26174
  8
01
 10
697.2380999336043
 20
-661.6174356938496
 30
0.0
 11
697.3830141891555
 21
-661.9357101725969
 31
0.0
  0
LINE
  5
26175
  8
01
 10
697.3830141891555
 20
-661.9357101725969
 30
0.0
 11
697.5362904557434
 21
-662.2514524691459
 31
0.0
  0
LINE
  5
26176
  8
01
 10
697.5362904557434
 20
-662.2514524691459
 30
0.0
 11
697.6978806972512
 21
-662.5643202840148
 31
0.0
  0
LINE
  5
26177
  8
01
 10
697.6978806972512
 20
-662.5643202840148
 30
0.0
 11
697.8677196768637
 21
-662.87397158683
 31
0.0
  0
LINE
  5
26178
  8
01
 10
697.8677196768637
 20
-662.87397158683
 30
0.0
 11
698.0457248457566
 21
-663.1800657522487
 31
0.0
  0
LINE
  5
26179
  8
01
 10
698.0457248457566
 20
-663.1800657522487
 30
0.0
 11
698.2317963154479
 21
-663.482264713754
 31
0.0
  0
LINE
  5
2617A
  8
01
 10
698.2317963154479
 20
-663.482264713754
 30
0.0
 11
698.4258169160472
 21
-663.7802341276969
 31
0.0
  0
LINE
  5
2617B
  8
01
 10
698.4258169160472
 20
-663.7802341276969
 30
0.0
 11
698.6276523418998
 21
-664.0736445396811
 31
0.0
  0
LINE
  5
2617C
  8
01
 10
698.6276523418998
 20
-664.0736445396811
 30
0.0
 11
698.8371513853295
 21
-664.362172545152
 31
0.0
  0
LINE
  5
2617D
  8
01
 10
698.8371513853295
 20
-664.362172545152
 30
0.0
 11
699.0541462584084
 21
-664.6455019359511
 31
0.0
  0
LINE
  5
2617E
  8
01
 10
699.0541462584084
 20
-664.6455019359511
 30
0.0
 11
699.278453001804
 21
-664.9233248245615
 31
0.0
  0
LINE
  5
2617F
  8
01
 10
699.278453001804
 20
-664.9233248245615
 30
0.0
 11
699.5098719789754
 21
-665.1953427378527
 31
0.0
  0
LINE
  5
26180
  8
01
 10
699.5098719789754
 20
-665.1953427378527
 30
0.0
 11
699.7481884531295
 21
-665.4612676723046
 31
0.0
  0
LINE
  5
26181
  8
01
 10
699.7481884531295
 20
-665.4612676723046
 30
0.0
 11
699.9931732435576
 21
-665.7208231029737
 31
0.0
  0
LINE
  5
26182
  8
01
 10
699.9931732435576
 20
-665.7208231029737
 30
0.0
 11
700.2445834572032
 21
-665.9737449388239
 31
0.0
  0
LINE
  5
26183
  8
01
 10
700.2445834572032
 20
-665.9737449388239
 30
0.0
 11
700.5021632905824
 21
-666.2197824175224
 31
0.0
  0
LINE
  5
26184
  8
01
 10
700.5021632905824
 20
-666.2197824175224
 30
0.0
 11
700.765644896495
 21
-666.4586989333383
 31
0.0
  0
LINE
  5
26185
  8
01
 10
700.765644896495
 20
-666.4586989333383
 30
0.0
 11
701.0347493093801
 21
-666.6902727924097
 31
0.0
  0
LINE
  5
26186
  8
01
 10
701.0347493093801
 20
-666.6902727924097
 30
0.0
 11
701.3091874226162
 21
-666.9142978903486
 31
0.0
  0
LINE
  5
26187
  8
01
 10
701.3091874226162
 20
-666.9142978903486
 30
0.0
 11
701.5886610106323
 21
-667.1305843078882
 31
0.0
  0
LINE
  5
26188
  8
01
 10
701.5886610106323
 20
-667.1305843078882
 30
0.0
 11
701.8728637883311
 21
-667.3389588210854
 31
0.0
  0
LINE
  5
26189
  8
01
 10
701.8728637883311
 20
-667.3389588210854
 30
0.0
 11
702.1614825000503
 21
-667.5392653234231
 31
0.0
  0
LINE
  5
2618A
  8
01
 10
702.1614825000503
 20
-667.5392653234231
 30
0.0
 11
702.4541980301384
 21
-667.7313651579942
 31
0.0
  0
LINE
  5
2618B
  8
01
 10
702.4541980301384
 20
-667.7313651579942
 30
0.0
 11
702.7506865271249
 21
-667.915137358826
 31
0.0
  0
LINE
  5
2618C
  8
01
 10
702.7506865271249
 20
-667.915137358826
 30
0.0
 11
703.0506205334983
 21
-668.0904788012373
 31
0.0
  0
LINE
  5
2618D
  8
01
 10
703.0506205334983
 20
-668.0904788012373
 30
0.0
 11
703.3536701132213
 21
-668.2573042619784
 31
0.0
  0
LINE
  5
2618E
  8
01
 10
703.3536701132213
 20
-668.2573042619784
 30
0.0
 11
703.6595039693185
 21
-668.4155463906833
 31
0.0
  0
LINE
  5
2618F
  8
01
 10
703.6595039693185
 20
-668.4155463906833
 30
0.0
 11
703.96779054415
 21
-668.5651555949565
 31
0.0
  0
LINE
  5
26190
  8
01
 10
703.96779054415
 20
-668.5651555949565
 30
0.0
 11
704.2781990953714
 21
-668.7060998421101
 31
0.0
  0
LINE
  5
26191
  8
01
 10
704.2781990953714
 20
-668.7060998421101
 30
0.0
 11
704.5904007409914
 21
-668.8383643812359
 31
0.0
  0
LINE
  5
26192
  8
01
 10
704.5904007409914
 20
-668.8383643812359
 30
0.0
 11
704.9040694674601
 21
-668.9619513898859
 31
0.0
  0
LINE
  5
26193
  8
01
 10
704.9040694674601
 20
-668.9619513898859
 30
0.0
 11
705.2188830952324
 21
-669.0768795501457
 31
0.0
  0
LINE
  5
26194
  8
01
 10
705.2188830952324
 20
-669.0768795501457
 30
0.0
 11
705.5345241968804
 21
-669.1831835593424
 31
0.0
  0
LINE
  5
26195
  8
01
 10
705.5345241968804
 20
-669.1831835593424
 30
0.0
 11
705.8506809633988
 21
-669.2809135809806
 31
0.0
  0
LINE
  5
26196
  8
01
 10
705.8506809633988
 20
-669.2809135809806
 30
0.0
 11
706.167048015022
 21
-669.3701346417873
 31
0.0
  0
LINE
  5
26197
  8
01
 10
706.167048015022
 20
-669.3701346417873
 30
0.0
 11
706.4833271534995
 21
-669.4509259809607
 31
0.0
  0
LINE
  5
26198
  8
01
 10
706.4833271534995
 20
-669.4509259809607
 30
0.0
 11
706.7992280534155
 21
-669.5233803578288
 31
0.0
  0
LINE
  5
26199
  8
01
 10
706.7992280534155
 20
-669.5233803578288
 30
0.0
 11
707.1144688908095
 21
-669.5876033241942
 31
0.0
  0
LINE
  5
2619A
  8
01
 10
707.1144688908095
 20
-669.5876033241942
 30
0.0
 11
707.4287769079352
 21
-669.643712467605
 31
0.0
  0
LINE
  5
2619B
  8
01
 10
707.4287769079352
 20
-669.643712467605
 30
0.0
 11
707.7418889136267
 21
-669.6918366317176
 31
0.0
  0
LINE
  5
2619C
  8
01
 10
707.7418889136267
 20
-669.6918366317176
 30
0.0
 11
708.053551719299
 21
-669.7321151197649
 31
0.0
  0
LINE
  5
2619D
  8
01
 10
708.053551719299
 20
-669.7321151197649
 30
0.0
 11
708.3635225111335
 21
-669.7646968869425
 31
0.0
  0
LINE
  5
2619E
  8
01
 10
708.3635225111335
 20
-669.7646968869425
 30
0.0
 11
708.6715691594997
 21
-669.7897397272767
 31
0.0
  0
LINE
  5
2619F
  8
01
 10
708.6715691594997
 20
-669.7897397272767
 30
0.0
 11
708.977470467116
 21
-669.8074094602417
 31
0.0
  0
LINE
  5
261A0
  8
01
 10
708.977470467116
 20
-669.8074094602417
 30
0.0
 11
709.281016357848
 21
-669.8178791220722
 31
0.0
  0
LINE
  5
261A1
  8
01
 10
709.281016357848
 20
-669.8178791220722
 30
0.0
 11
709.582008008391
 21
-669.8213281663622
 31
0.0
  0
LINE
  5
261A2
  8
01
 10
710.4217929412276
 20
-641.8213281663626
 30
0.0
 11
709.5820080083914
 21
-641.8213281663626
 31
0.0
  0
LINE
  5
261A3
  8
01
 10
710.4217929412272
 20
-669.8213281663622
 30
0.0
 11
709.582008008391
 21
-669.8213281663622
 31
0.0
  0
ARC
  5
261A4
  8
01
 10
710.5659378734132
 20
-655.4145330514426
 30
0.0
 40
13.59316045808465
 50
62.82975748144349
 51
89.97454733676003
  0
ARC
  5
261A5
  8
01
 10
710.5660358991232
 20
-656.2287045025706
 30
0.0
 40
13.59257804227037
 50
270.024960889705
 51
297.1708247415741
  0
ARC
  5
261A6
  8
01
 10
709.8019485263563
 20
-655.8213303512651
 30
0.0
 40
14.01502380170324
 50
94.62646744932523
 51
265.3735313657791
  0
CIRCLE
  5
262B3
  8
1PHANTOM
 10
211.0166342219816
 20
-655.8213303512655
 30
0.0
 40
2.75
  0
CIRCLE
  5
262B4
  8
1PHANTOM
 10
191.0158196880323
 20
-655.8213303512655
 30
0.0
 40
2.75
  0
LINE
  5
262B5
  8
1CENTER
 10
215.1416486080171
 20
-655.8213
 30
0.0
 11
206.8916486080171
 21
-655.8213
 31
0.0
  0
LINE
  5
262B6
  8
1CENTER
 10
211.0166486080171
 20
-659.9463
 30
0.0
 11
211.0166486080171
 21
-651.6963
 31
0.0
  0
LINE
  5
262B7
  8
1CENTER
 10
195.1408486080171
 20
-655.8213
 30
0.0
 11
186.8908486080171
 21
-655.8213
 31
0.0
  0
LINE
  5
262B8
  8
1CENTER
 10
191.0158486080171
 20
-659.9463
 30
0.0
 11
191.0158486080171
 21
-651.6963
 31
0.0
  0
ARC
  5
262BB
  8
01
 10
203.1375812689624
 20
-655.8213389567709
 30
0.0
 40
12.50000860550734
 50
90.00003944469466
 51
179.9999605553001
  0
ARC
  5
262BC
  8
01
 10
203.1375812689624
 20
-655.8213217457619
 30
0.0
 40
12.50000860550745
 50
180.0000394446999
 51
269.9999605553012
  0
LINE
  5
262BD
  8
01
 10
203.636094810085
 20
-641.8645080297961
 30
0.0
 11
203.4823260873894
 21
-641.8529187903525
 31
0.0
  0
LINE
  5
262BE
  8
01
 10
202.5718872384981
 20
-641.8213303512669
 30
0.0
 11
202.2708955879547
 21
-641.824779395557
 31
0.0
  0
LINE
  5
262BF
  8
01
 10
202.2708955879547
 20
-641.824779395557
 30
0.0
 11
201.9673496972231
 21
-641.8352490573875
 31
0.0
  0
LINE
  5
262C0
  8
01
 10
201.9673496972231
 20
-641.8352490573875
 30
0.0
 11
201.6614483896068
 21
-641.8529187903523
 31
0.0
  0
LINE
  5
262C1
  8
01
 10
201.6614483896068
 20
-641.8529187903523
 30
0.0
 11
201.3534017412406
 21
-641.8779616306865
 31
0.0
  0
LINE
  5
262C2
  8
01
 10
201.3534017412406
 20
-641.8779616306865
 30
0.0
 11
201.0434309494061
 21
-641.9105433978643
 31
0.0
  0
LINE
  5
262C3
  8
01
 10
201.0434309494061
 20
-641.9105433978643
 30
0.0
 11
200.7317681437338
 21
-641.9508218859114
 31
0.0
  0
LINE
  5
262C4
  8
01
 10
200.7317681437338
 20
-641.9508218859114
 30
0.0
 11
200.4186561380419
 21
-641.998946050024
 31
0.0
  0
LINE
  5
262C5
  8
01
 10
200.4186561380419
 20
-641.998946050024
 30
0.0
 11
200.1043481209166
 21
-642.0550551934348
 31
0.0
  0
LINE
  5
262C6
  8
01
 10
200.1043481209166
 20
-642.0550551934348
 30
0.0
 11
199.7891072835226
 21
-642.1192781598004
 31
0.0
  0
LINE
  5
262C7
  8
01
 10
199.7891072835226
 20
-642.1192781598004
 30
0.0
 11
199.4732063836067
 21
-642.1917325366683
 31
0.0
  0
LINE
  5
262C8
  8
01
 10
199.4732063836067
 20
-642.1917325366683
 30
0.0
 11
199.1569272451292
 21
-642.2725238758414
 31
0.0
  0
LINE
  5
262C9
  8
01
 10
199.1569272451292
 20
-642.2725238758414
 30
0.0
 11
198.8405601935059
 21
-642.3617449366484
 31
0.0
  0
LINE
  5
262CA
  8
01
 10
198.8405601935059
 20
-642.3617449366484
 30
0.0
 11
198.5244034269875
 21
-642.4594749582864
 31
0.0
  0
LINE
  5
262CB
  8
01
 10
198.5244034269875
 20
-642.4594749582864
 30
0.0
 11
198.2087623253395
 21
-642.5657789674833
 31
0.0
  0
LINE
  5
262CC
  8
01
 10
198.2087623253395
 20
-642.5657789674833
 30
0.0
 11
197.8939486975672
 21
-642.6807071277428
 31
0.0
  0
LINE
  5
262CD
  8
01
 10
197.8939486975672
 20
-642.6807071277428
 30
0.0
 11
197.5802799710985
 21
-642.8042941363926
 31
0.0
  0
LINE
  5
262CE
  8
01
 10
197.5802799710985
 20
-642.8042941363926
 30
0.0
 11
197.2680783254781
 21
-642.9365586755187
 31
0.0
  0
LINE
  5
262CF
  8
01
 10
197.2680783254781
 20
-642.9365586755187
 30
0.0
 11
196.9576697742572
 21
-643.077502922672
 31
0.0
  0
LINE
  5
262D0
  8
01
 10
196.9576697742572
 20
-643.077502922672
 30
0.0
 11
196.6493831994252
 21
-643.227112126945
 31
0.0
  0
LINE
  5
262D1
  8
01
 10
196.6493831994252
 20
-643.227112126945
 30
0.0
 11
196.3435493433284
 21
-643.3853542556501
 31
0.0
  0
LINE
  5
262D2
  8
01
 10
196.3435493433284
 20
-643.3853542556501
 30
0.0
 11
196.040499763605
 21
-643.5521797163908
 31
0.0
  0
LINE
  5
262D3
  8
01
 10
196.040499763605
 20
-643.5521797163908
 30
0.0
 11
195.740565757232
 21
-643.7275211588026
 31
0.0
  0
LINE
  5
262D4
  8
01
 10
195.740565757232
 20
-643.7275211588026
 30
0.0
 11
195.4440772602451
 21
-643.9112933596341
 31
0.0
  0
LINE
  5
262D5
  8
01
 10
195.4440772602451
 20
-643.9112933596341
 30
0.0
 11
195.1513617301574
 21
-644.1033931942056
 31
0.0
  0
LINE
  5
262D6
  8
01
 10
195.1513617301574
 20
-644.1033931942056
 30
0.0
 11
194.8627430184382
 21
-644.3036996965432
 31
0.0
  0
LINE
  5
262D7
  8
01
 10
194.8627430184382
 20
-644.3036996965432
 30
0.0
 11
194.5785402407395
 21
-644.5120742097406
 31
0.0
  0
LINE
  5
262D8
  8
01
 10
194.5785402407395
 20
-644.5120742097406
 30
0.0
 11
194.2990666527229
 21
-644.7283606272797
 31
0.0
  0
LINE
  5
262D9
  8
01
 10
194.2990666527229
 20
-644.7283606272797
 30
0.0
 11
194.0246285394868
 21
-644.9523857252186
 31
0.0
  0
LINE
  5
262DA
  8
01
 10
194.0246285394868
 20
-644.9523857252186
 30
0.0
 11
193.7555241266017
 21
-645.1839595842903
 31
0.0
  0
LINE
  5
262DB
  8
01
 10
193.7555241266017
 20
-645.1839595842903
 30
0.0
 11
193.4920425206891
 21
-645.4228761001059
 31
0.0
  0
LINE
  5
262DC
  8
01
 10
193.4920425206891
 20
-645.4228761001059
 30
0.0
 11
193.2344626873104
 21
-645.6689135788047
 31
0.0
  0
LINE
  5
262DD
  8
01
 10
193.2344626873104
 20
-645.6689135788047
 30
0.0
 11
192.9830524736639
 21
-645.9218354146549
 31
0.0
  0
LINE
  5
262DE
  8
01
 10
192.9830524736639
 20
-645.9218354146549
 30
0.0
 11
192.7380676832366
 21
-646.1813908453239
 31
0.0
  0
LINE
  5
262DF
  8
01
 10
192.7380676832366
 20
-646.1813908453239
 30
0.0
 11
192.4997512090825
 21
-646.4473157797759
 31
0.0
  0
LINE
  5
262E0
  8
01
 10
192.4997512090825
 20
-646.4473157797759
 30
0.0
 11
192.2683322319111
 21
-646.7193336930668
 31
0.0
  0
LINE
  5
262E1
  8
01
 10
192.2683322319111
 20
-646.7193336930668
 30
0.0
 11
192.0440254885156
 21
-646.9971565816772
 31
0.0
  0
LINE
  5
262E2
  8
01
 10
192.0440254885156
 20
-646.9971565816772
 30
0.0
 11
191.8270306154367
 21
-647.2804859724765
 31
0.0
  0
LINE
  5
262E3
  8
01
 10
191.8270306154367
 20
-647.2804859724765
 30
0.0
 11
191.6175315720064
 21
-647.5690139779474
 31
0.0
  0
LINE
  5
262E4
  8
01
 10
191.6175315720064
 20
-647.5690139779474
 30
0.0
 11
191.4156961461543
 21
-647.8624243899314
 31
0.0
  0
LINE
  5
262E5
  8
01
 10
191.4156961461543
 20
-647.8624243899314
 30
0.0
 11
191.2216755455541
 21
-648.1603938038747
 31
0.0
  0
LINE
  5
262E6
  8
01
 10
191.2216755455541
 20
-648.1603938038747
 30
0.0
 11
191.0356040758628
 21
-648.4625927653794
 31
0.0
  0
LINE
  5
262E7
  8
01
 10
191.0356040758628
 20
-648.4625927653794
 30
0.0
 11
190.8575989069703
 21
-648.7686869307984
 31
0.0
  0
LINE
  5
262E8
  8
01
 10
190.8575989069703
 20
-648.7686869307984
 30
0.0
 11
190.6877599273579
 21
-649.0783382336133
 31
0.0
  0
LINE
  5
262E9
  8
01
 10
190.6877599273579
 20
-649.0783382336133
 30
0.0
 11
190.52616968585
 21
-649.3912060484824
 31
0.0
  0
LINE
  5
262EA
  8
01
 10
190.52616968585
 20
-649.3912060484824
 30
0.0
 11
190.3728934192626
 21
-649.7069483450314
 31
0.0
  0
LINE
  5
262EB
  8
01
 10
190.3728934192626
 20
-649.7069483450314
 30
0.0
 11
190.2279791637114
 21
-650.0252228237784
 31
0.0
  0
LINE
  5
262EC
  8
01
 10
190.2279791637114
 20
-650.0252228237784
 30
0.0
 11
190.0914579466529
 21
-650.3456880269505
 31
0.0
  0
LINE
  5
262ED
  8
01
 10
190.0914579466529
 20
-650.3456880269505
 30
0.0
 11
189.9633440560914
 21
-650.6680044174002
 31
0.0
  0
LINE
  5
262EE
  8
01
 10
189.9633440560914
 20
-650.6680044174002
 30
0.0
 11
189.8436353828096
 21
-650.9918354193521
 31
0.0
  0
LINE
  5
262EF
  8
01
 10
189.8436353828096
 20
-650.9918354193521
 30
0.0
 11
189.7323138309915
 21
-651.3168484152525
 31
0.0
  0
LINE
  5
262F0
  8
01
 10
189.7323138309915
 20
-651.3168484152525
 30
0.0
 11
189.6293457921614
 21
-651.642715693622
 31
0.0
  0
LINE
  5
262F1
  8
01
 10
189.6293457921614
 20
-651.642715693622
 30
0.0
 11
189.5346826770177
 21
-651.9691153434312
 31
0.0
  0
LINE
  5
262F2
  8
01
 10
189.5346826770177
 20
-651.9691153434312
 30
0.0
 11
189.448261499463
 21
-652.2957320911869
 31
0.0
  0
LINE
  5
262F3
  8
01
 10
189.448261499463
 20
-652.2957320911869
 30
0.0
 11
189.3700055069379
 21
-652.6222580775761
 31
0.0
  0
LINE
  5
262F4
  8
01
 10
189.3700055069379
 20
-652.6222580775761
 30
0.0
 11
189.2998248510333
 21
-652.948393571188
 31
0.0
  0
LINE
  5
262F5
  8
01
 10
189.2998248510333
 20
-652.948393571188
 30
0.0
 11
189.2376172923113
 21
-653.2738476174964
 31
0.0
  0
LINE
  5
262F6
  8
01
 10
189.2376172923113
 20
-653.2738476174964
 30
0.0
 11
189.1832689332881
 21
-653.5983386219173
 31
0.0
  0
LINE
  5
262F7
  8
01
 10
189.1832689332881
 20
-653.5983386219173
 30
0.0
 11
189.1366549736034
 21
-653.9215948663887
 31
0.0
  0
LINE
  5
262F8
  8
01
 10
189.1366549736034
 20
-653.9215948663887
 30
0.0
 11
189.0976404815577
 21
-654.2433549594923
 31
0.0
  0
LINE
  5
262F9
  8
01
 10
189.0976404815577
 20
-654.2433549594923
 30
0.0
 11
189.0660811763795
 21
-654.5633682206985
 31
0.0
  0
LINE
  5
262FA
  8
01
 10
189.0660811763795
 20
-654.5633682206985
 30
0.0
 11
189.0418242158433
 21
-654.8813949998146
 31
0.0
  0
LINE
  5
262FB
  8
01
 10
189.0418242158433
 20
-654.8813949998146
 30
0.0
 11
189.0247089841245
 21
-655.1972069331853
 31
0.0
  0
LINE
  5
262FC
  8
01
 10
189.0247089841245
 20
-655.1972069331853
 30
0.0
 11
189.0145678751109
 21
-655.5105871386038
 31
0.0
  0
LINE
  5
262FD
  8
01
 10
189.0145678751109
 20
-655.5105871386038
 30
0.0
 11
189.0112270667154
 21
-655.8213303512662
 31
0.0
  0
LINE
  5
262FE
  8
01
 10
189.0112270667154
 20
-655.8213303512662
 30
0.0
 11
189.0145678751109
 21
-656.1320735639288
 31
0.0
  0
LINE
  5
262FF
  8
01
 10
189.0145678751109
 20
-656.1320735639288
 30
0.0
 11
189.0247089841245
 21
-656.4454537693475
 31
0.0
  0
LINE
  5
26300
  8
01
 10
189.0247089841245
 20
-656.4454537693475
 30
0.0
 11
189.0418242158433
 21
-656.761265702718
 31
0.0
  0
LINE
  5
26301
  8
01
 10
189.0418242158433
 20
-656.761265702718
 30
0.0
 11
189.0660811763795
 21
-657.079292481834
 31
0.0
  0
LINE
  5
26302
  8
01
 10
189.0660811763795
 20
-657.079292481834
 30
0.0
 11
189.0976404815577
 21
-657.3993057430405
 31
0.0
  0
LINE
  5
26303
  8
01
 10
189.0976404815577
 20
-657.3993057430405
 30
0.0
 11
189.1366549736034
 21
-657.7210658361439
 31
0.0
  0
LINE
  5
26304
  8
01
 10
189.1366549736034
 20
-657.7210658361439
 30
0.0
 11
189.1832689332881
 21
-658.0443220806153
 31
0.0
  0
LINE
  5
26305
  8
01
 10
189.1832689332881
 20
-658.0443220806153
 30
0.0
 11
189.2376172923113
 21
-658.3688130850362
 31
0.0
  0
LINE
  5
26306
  8
01
 10
189.2376172923113
 20
-658.3688130850362
 30
0.0
 11
189.2998248510333
 21
-658.6942671313445
 31
0.0
  0
LINE
  5
26307
  8
01
 10
189.2998248510333
 20
-658.6942671313445
 30
0.0
 11
189.3700055069379
 21
-659.0204026249564
 31
0.0
  0
LINE
  5
26308
  8
01
 10
189.3700055069379
 20
-659.0204026249564
 30
0.0
 11
189.4482614994625
 21
-659.3469286113452
 31
0.0
  0
LINE
  5
26309
  8
01
 10
189.4482614994625
 20
-659.3469286113452
 30
0.0
 11
189.5346826770177
 21
-659.6735453591014
 31
0.0
  0
LINE
  5
2630A
  8
01
 10
189.5346826770177
 20
-659.6735453591014
 30
0.0
 11
189.6293457921614
 21
-659.9999450089108
 31
0.0
  0
LINE
  5
2630B
  8
01
 10
189.6293457921614
 20
-659.9999450089108
 30
0.0
 11
189.7323138309915
 21
-660.3258122872803
 31
0.0
  0
LINE
  5
2630C
  8
01
 10
189.7323138309915
 20
-660.3258122872803
 30
0.0
 11
189.8436353828091
 21
-660.6508252831807
 31
0.0
  0
LINE
  5
2630D
  8
01
 10
189.8436353828091
 20
-660.6508252831807
 30
0.0
 11
189.9633440560914
 21
-660.9746562851324
 31
0.0
  0
LINE
  5
2630E
  8
01
 10
189.9633440560914
 20
-660.9746562851324
 30
0.0
 11
190.0914579466529
 21
-661.2969726755821
 31
0.0
  0
LINE
  5
2630F
  8
01
 10
190.0914579466529
 20
-661.2969726755821
 30
0.0
 11
190.2279791637114
 21
-661.6174378787539
 31
0.0
  0
LINE
  5
26310
  8
01
 10
190.2279791637114
 20
-661.6174378787539
 30
0.0
 11
190.3728934192626
 21
-661.9357123575012
 31
0.0
  0
LINE
  5
26311
  8
01
 10
190.3728934192626
 20
-661.9357123575012
 30
0.0
 11
190.52616968585
 21
-662.2514546540501
 31
0.0
  0
LINE
  5
26312
  8
01
 10
190.52616968585
 20
-662.2514546540501
 30
0.0
 11
190.6877599273579
 21
-662.564322468919
 31
0.0
  0
LINE
  5
26313
  8
01
 10
190.6877599273579
 20
-662.564322468919
 30
0.0
 11
190.8575989069699
 21
-662.8739737717342
 31
0.0
  0
LINE
  5
26314
  8
01
 10
190.8575989069699
 20
-662.8739737717342
 30
0.0
 11
191.0356040758628
 21
-663.1800679371529
 31
0.0
  0
LINE
  5
26315
  8
01
 10
191.0356040758628
 20
-663.1800679371529
 30
0.0
 11
191.2216755455541
 21
-663.4822668986583
 31
0.0
  0
LINE
  5
26316
  8
01
 10
191.2216755455541
 20
-663.4822668986583
 30
0.0
 11
191.4156961461543
 21
-663.7802363126011
 31
0.0
  0
LINE
  5
26317
  8
01
 10
191.4156961461543
 20
-663.7802363126011
 30
0.0
 11
191.617531572006
 21
-664.0736467245854
 31
0.0
  0
LINE
  5
26318
  8
01
 10
191.617531572006
 20
-664.0736467245854
 30
0.0
 11
191.8270306154367
 21
-664.3621747300563
 31
0.0
  0
LINE
  5
26319
  8
01
 10
191.8270306154367
 20
-664.3621747300563
 30
0.0
 11
192.0440254885151
 21
-664.6455041208553
 31
0.0
  0
LINE
  5
2631A
  8
01
 10
192.0440254885151
 20
-664.6455041208553
 30
0.0
 11
192.2683322319107
 21
-664.9233270094658
 31
0.0
  0
LINE
  5
2631B
  8
01
 10
192.2683322319107
 20
-664.9233270094658
 30
0.0
 11
192.4997512090825
 21
-665.1953449227569
 31
0.0
  0
LINE
  5
2631C
  8
01
 10
192.4997512090825
 20
-665.1953449227569
 30
0.0
 11
192.7380676832366
 21
-665.4612698572089
 31
0.0
  0
LINE
  5
2631D
  8
01
 10
192.7380676832366
 20
-665.4612698572089
 30
0.0
 11
192.9830524736639
 21
-665.7208252878779
 31
0.0
  0
LINE
  5
2631E
  8
01
 10
192.9830524736639
 20
-665.7208252878779
 30
0.0
 11
193.2344626873095
 21
-665.9737471237281
 31
0.0
  0
LINE
  5
2631F
  8
01
 10
193.2344626873095
 20
-665.9737471237281
 30
0.0
 11
193.4920425206886
 21
-666.2197846024267
 31
0.0
  0
LINE
  5
26320
  8
01
 10
193.4920425206886
 20
-666.2197846024267
 30
0.0
 11
193.7555241266012
 21
-666.4587011182425
 31
0.0
  0
LINE
  5
26321
  8
01
 10
193.7555241266012
 20
-666.4587011182425
 30
0.0
 11
194.0246285394863
 21
-666.690274977314
 31
0.0
  0
LINE
  5
26322
  8
01
 10
194.0246285394863
 20
-666.690274977314
 30
0.0
 11
194.2990666527224
 21
-666.9143000752529
 31
0.0
  0
LINE
  5
26323
  8
01
 10
194.2990666527224
 20
-666.9143000752529
 30
0.0
 11
194.5785402407395
 21
-667.1305864927924
 31
0.0
  0
LINE
  5
26324
  8
01
 10
194.5785402407395
 20
-667.1305864927924
 30
0.0
 11
194.8627430184382
 21
-667.3389610059896
 31
0.0
  0
LINE
  5
26325
  8
01
 10
194.8627430184382
 20
-667.3389610059896
 30
0.0
 11
195.151361730157
 21
-667.5392675083274
 31
0.0
  0
LINE
  5
26326
  8
01
 10
195.151361730157
 20
-667.5392675083274
 30
0.0
 11
195.4440772602451
 21
-667.7313673428985
 31
0.0
  0
LINE
  5
26327
  8
01
 10
195.4440772602451
 20
-667.7313673428985
 30
0.0
 11
195.7405657572316
 21
-667.9151395437302
 31
0.0
  0
LINE
  5
26328
  8
01
 10
195.7405657572316
 20
-667.9151395437302
 30
0.0
 11
196.0404997636045
 21
-668.0904809861415
 31
0.0
  0
LINE
  5
26329
  8
01
 10
196.0404997636045
 20
-668.0904809861415
 30
0.0
 11
196.3435493433284
 21
-668.2573064468827
 31
0.0
  0
LINE
  5
2632A
  8
01
 10
196.3435493433284
 20
-668.2573064468827
 30
0.0
 11
196.6493831994252
 21
-668.4155485755875
 31
0.0
  0
LINE
  5
2632B
  8
01
 10
196.6493831994252
 20
-668.4155485755875
 30
0.0
 11
196.9576697742567
 21
-668.5651577798608
 31
0.0
  0
LINE
  5
2632C
  8
01
 10
196.9576697742567
 20
-668.5651577798608
 30
0.0
 11
197.2680783254776
 21
-668.7061020270144
 31
0.0
  0
LINE
  5
2632D
  8
01
 10
197.2680783254776
 20
-668.7061020270144
 30
0.0
 11
197.5802799710981
 21
-668.8383665661402
 31
0.0
  0
LINE
  5
2632E
  8
01
 10
197.5802799710981
 20
-668.8383665661402
 30
0.0
 11
197.8939486975663
 21
-668.9619535747902
 31
0.0
  0
LINE
  5
2632F
  8
01
 10
197.8939486975663
 20
-668.9619535747902
 30
0.0
 11
198.2087623253395
 21
-669.0768817350499
 31
0.0
  0
LINE
  5
26330
  8
01
 10
198.2087623253395
 20
-669.0768817350499
 30
0.0
 11
198.5244034269875
 21
-669.1831857442467
 31
0.0
  0
LINE
  5
26331
  8
01
 10
198.5244034269875
 20
-669.1831857442467
 30
0.0
 11
198.8405601935054
 21
-669.2809157658849
 31
0.0
  0
LINE
  5
26332
  8
01
 10
198.8405601935054
 20
-669.2809157658849
 30
0.0
 11
199.1569272451292
 21
-669.3701368266916
 31
0.0
  0
LINE
  5
26333
  8
01
 10
199.1569272451292
 20
-669.3701368266916
 30
0.0
 11
199.4732063836058
 21
-669.450928165865
 31
0.0
  0
LINE
  5
26334
  8
01
 10
199.4732063836058
 20
-669.450928165865
 30
0.0
 11
199.7891072835222
 21
-669.5233825427331
 31
0.0
  0
LINE
  5
26335
  8
01
 10
199.7891072835222
 20
-669.5233825427331
 30
0.0
 11
200.1043481209166
 21
-669.5876055090985
 31
0.0
  0
LINE
  5
26336
  8
01
 10
200.1043481209166
 20
-669.5876055090985
 30
0.0
 11
200.4186561380415
 21
-669.6437146525093
 31
0.0
  0
LINE
  5
26337
  8
01
 10
200.4186561380415
 20
-669.6437146525093
 30
0.0
 11
200.7317681437329
 21
-669.6918388166218
 31
0.0
  0
LINE
  5
26338
  8
01
 10
200.7317681437329
 20
-669.6918388166218
 30
0.0
 11
201.0434309494061
 21
-669.7321173046691
 31
0.0
  0
LINE
  5
26339
  8
01
 10
201.0434309494061
 20
-669.7321173046691
 30
0.0
 11
201.3534017412406
 21
-669.7646990718467
 31
0.0
  0
LINE
  5
2633A
  8
01
 10
201.3534017412406
 20
-669.7646990718467
 30
0.0
 11
201.6614483896059
 21
-669.789741912181
 31
0.0
  0
LINE
  5
2633B
  8
01
 10
201.6614483896059
 20
-669.789741912181
 30
0.0
 11
201.9673496972231
 21
-669.807411645146
 31
0.0
  0
LINE
  5
2633C
  8
01
 10
201.9673496972231
 20
-669.807411645146
 30
0.0
 11
202.2708955879547
 21
-669.8178813069765
 31
0.0
  0
LINE
  5
2633D
  8
01
 10
202.2708955879547
 20
-669.8178813069765
 30
0.0
 11
202.5718872384981
 21
-669.8213303512664
 31
0.0
  0
LINE
  5
2633E
  8
01
 10
203.4823260873894
 20
-669.789741912181
 30
0.0
 11
203.6360948100845
 21
-669.7781526727372
 31
0.0
  0
LINE
  5
2633F
  8
01
 10
201.5819377448369
 20
-641.8213303512669
 30
0.0
 11
201.2809460942939
 21
-641.824779395557
 31
0.0
  0
LINE
  5
26340
  8
01
 10
201.2809460942939
 20
-641.824779395557
 30
0.0
 11
200.9774002035623
 21
-641.8352490573875
 31
0.0
  0
LINE
  5
26341
  8
01
 10
200.9774002035623
 20
-641.8352490573875
 30
0.0
 11
200.6714988959451
 21
-641.8529187903523
 31
0.0
  0
LINE
  5
26342
  8
01
 10
200.6714988959451
 20
-641.8529187903523
 30
0.0
 11
200.3634522475799
 21
-641.8779616306865
 31
0.0
  0
LINE
  5
26343
  8
01
 10
200.3634522475799
 20
-641.8779616306865
 30
0.0
 11
200.0534814557453
 21
-641.9105433978643
 31
0.0
  0
LINE
  5
26344
  8
01
 10
200.0534814557453
 20
-641.9105433978643
 30
0.0
 11
199.7418186500721
 21
-641.9508218859114
 31
0.0
  0
LINE
  5
26345
  8
01
 10
199.7418186500721
 20
-641.9508218859114
 30
0.0
 11
199.4287066443807
 21
-641.998946050024
 31
0.0
  0
LINE
  5
26346
  8
01
 10
199.4287066443807
 20
-641.998946050024
 30
0.0
 11
199.1143986272558
 21
-642.0550551934348
 31
0.0
  0
LINE
  5
26347
  8
01
 10
199.1143986272558
 20
-642.0550551934348
 30
0.0
 11
198.7991577898614
 21
-642.1192781598004
 31
0.0
  0
LINE
  5
26348
  8
01
 10
198.7991577898614
 20
-642.1192781598004
 30
0.0
 11
198.483256889945
 21
-642.1917325366683
 31
0.0
  0
LINE
  5
26349
  8
01
 10
198.483256889945
 20
-642.1917325366683
 30
0.0
 11
198.1669777514684
 21
-642.2725238758414
 31
0.0
  0
LINE
  5
2634A
  8
01
 10
198.1669777514684
 20
-642.2725238758414
 30
0.0
 11
197.8506106998442
 21
-642.3617449366484
 31
0.0
  0
LINE
  5
2634B
  8
01
 10
197.8506106998442
 20
-642.3617449366484
 30
0.0
 11
197.5344539333267
 21
-642.4594749582864
 31
0.0
  0
LINE
  5
2634C
  8
01
 10
197.5344539333267
 20
-642.4594749582864
 30
0.0
 11
197.2188128316787
 21
-642.5657789674833
 31
0.0
  0
LINE
  5
2634D
  8
01
 10
197.2188128316787
 20
-642.5657789674833
 30
0.0
 11
196.9039992039055
 21
-642.6807071277428
 31
0.0
  0
LINE
  5
2634E
  8
01
 10
196.9039992039055
 20
-642.6807071277428
 30
0.0
 11
196.5903304774373
 21
-642.8042941363926
 31
0.0
  0
LINE
  5
2634F
  8
01
 10
196.5903304774373
 20
-642.8042941363926
 30
0.0
 11
196.2781288318168
 21
-642.9365586755187
 31
0.0
  0
LINE
  5
26350
  8
01
 10
196.2781288318168
 20
-642.9365586755187
 30
0.0
 11
195.9677202805959
 21
-643.077502922672
 31
0.0
  0
LINE
  5
26351
  8
01
 10
195.9677202805959
 20
-643.077502922672
 30
0.0
 11
195.6594337057644
 21
-643.227112126945
 31
0.0
  0
LINE
  5
26352
  8
01
 10
195.6594337057644
 20
-643.227112126945
 30
0.0
 11
195.3535998496676
 21
-643.3853542556501
 31
0.0
  0
LINE
  5
26353
  8
01
 10
195.3535998496676
 20
-643.3853542556501
 30
0.0
 11
195.0505502699438
 21
-643.5521797163908
 31
0.0
  0
LINE
  5
26354
  8
01
 10
195.0505502699438
 20
-643.5521797163908
 30
0.0
 11
194.7506162635704
 21
-643.7275211588026
 31
0.0
  0
LINE
  5
26355
  8
01
 10
194.7506162635704
 20
-643.7275211588026
 30
0.0
 11
194.4541277665843
 21
-643.9112933596341
 31
0.0
  0
LINE
  5
26356
  8
01
 10
194.4541277665843
 20
-643.9112933596341
 30
0.0
 11
194.1614122364957
 21
-644.1033931942056
 31
0.0
  0
LINE
  5
26357
  8
01
 10
194.1614122364957
 20
-644.1033931942056
 30
0.0
 11
193.872793524777
 21
-644.3036996965432
 31
0.0
  0
LINE
  5
26358
  8
01
 10
193.872793524777
 20
-644.3036996965432
 30
0.0
 11
193.5885907470787
 21
-644.5120742097406
 31
0.0
  0
LINE
  5
26359
  8
01
 10
193.5885907470787
 20
-644.5120742097406
 30
0.0
 11
193.3091171590617
 21
-644.7283606272797
 31
0.0
  0
LINE
  5
2635A
  8
01
 10
193.3091171590617
 20
-644.7283606272797
 30
0.0
 11
193.0346790458256
 21
-644.9523857252186
 31
0.0
  0
LINE
  5
2635B
  8
01
 10
193.0346790458256
 20
-644.9523857252186
 30
0.0
 11
192.7655746329405
 21
-645.1839595842903
 31
0.0
  0
LINE
  5
2635C
  8
01
 10
192.7655746329405
 20
-645.1839595842903
 30
0.0
 11
192.5020930270279
 21
-645.4228761001059
 31
0.0
  0
LINE
  5
2635D
  8
01
 10
192.5020930270279
 20
-645.4228761001059
 30
0.0
 11
192.2445131936487
 21
-645.6689135788047
 31
0.0
  0
LINE
  5
2635E
  8
01
 10
192.2445131936487
 20
-645.6689135788047
 30
0.0
 11
191.9931029800031
 21
-645.9218354146549
 31
0.0
  0
LINE
  5
2635F
  8
01
 10
191.9931029800031
 20
-645.9218354146549
 30
0.0
 11
191.7481181895754
 21
-646.1813908453239
 31
0.0
  0
LINE
  5
26360
  8
01
 10
191.7481181895754
 20
-646.1813908453239
 30
0.0
 11
191.5098017154213
 21
-646.4473157797759
 31
0.0
  0
LINE
  5
26361
  8
01
 10
191.5098017154213
 20
-646.4473157797759
 30
0.0
 11
191.2783827382494
 21
-646.7193336930668
 31
0.0
  0
LINE
  5
26362
  8
01
 10
191.2783827382494
 20
-646.7193336930668
 30
0.0
 11
191.0540759948539
 21
-646.9971565816772
 31
0.0
  0
LINE
  5
26363
  8
01
 10
191.0540759948539
 20
-646.9971565816772
 30
0.0
 11
190.8370811217754
 21
-647.2804859724765
 31
0.0
  0
LINE
  5
26364
  8
01
 10
190.8370811217754
 20
-647.2804859724765
 30
0.0
 11
190.6275820783452
 21
-647.5690139779474
 31
0.0
  0
LINE
  5
26365
  8
01
 10
190.6275820783452
 20
-647.5690139779474
 30
0.0
 11
190.4257466524931
 21
-647.8624243899314
 31
0.0
  0
LINE
  5
26366
  8
01
 10
190.4257466524931
 20
-647.8624243899314
 30
0.0
 11
190.2317260518934
 21
-648.1603938038747
 31
0.0
  0
LINE
  5
26367
  8
01
 10
190.2317260518934
 20
-648.1603938038747
 30
0.0
 11
190.045654582202
 21
-648.4625927653794
 31
0.0
  0
LINE
  5
26368
  8
01
 10
190.045654582202
 20
-648.4625927653794
 30
0.0
 11
189.8676494133091
 21
-648.7686869307984
 31
0.0
  0
LINE
  5
26369
  8
01
 10
189.8676494133091
 20
-648.7686869307984
 30
0.0
 11
189.6978104336971
 21
-649.0783382336133
 31
0.0
  0
LINE
  5
2636A
  8
01
 10
189.6978104336971
 20
-649.0783382336133
 30
0.0
 11
189.5362201921893
 21
-649.3912060484824
 31
0.0
  0
LINE
  5
2636B
  8
01
 10
189.5362201921893
 20
-649.3912060484824
 30
0.0
 11
189.3829439256018
 21
-649.7069483450314
 31
0.0
  0
LINE
  5
2636C
  8
01
 10
189.3829439256018
 20
-649.7069483450314
 30
0.0
 11
189.2380296700497
 21
-650.0252228237784
 31
0.0
  0
LINE
  5
2636D
  8
01
 10
189.2380296700497
 20
-650.0252228237784
 30
0.0
 11
189.1015084529921
 21
-650.3456880269505
 31
0.0
  0
LINE
  5
2636E
  8
01
 10
189.1015084529921
 20
-650.3456880269505
 30
0.0
 11
188.9733945624297
 21
-650.6680044174002
 31
0.0
  0
LINE
  5
2636F
  8
01
 10
188.9733945624297
 20
-650.6680044174002
 30
0.0
 11
188.8536858891479
 21
-650.9918354193521
 31
0.0
  0
LINE
  5
26370
  8
01
 10
188.8536858891479
 20
-650.9918354193521
 30
0.0
 11
188.7423643373303
 21
-651.3168484152525
 31
0.0
  0
LINE
  5
26371
  8
01
 10
188.7423643373303
 20
-651.3168484152525
 30
0.0
 11
188.6393962985006
 21
-651.642715693622
 31
0.0
  0
LINE
  5
26372
  8
01
 10
188.6393962985006
 20
-651.642715693622
 30
0.0
 11
188.5447331833565
 21
-651.9691153434312
 31
0.0
  0
LINE
  5
26373
  8
01
 10
188.5447331833565
 20
-651.9691153434312
 30
0.0
 11
188.4583120058018
 21
-652.2957320911869
 31
0.0
  0
LINE
  5
26374
  8
01
 10
188.4583120058018
 20
-652.2957320911869
 30
0.0
 11
188.3800560132767
 21
-652.6222580775761
 31
0.0
  0
LINE
  5
26375
  8
01
 10
188.3800560132767
 20
-652.6222580775761
 30
0.0
 11
188.3098753573717
 21
-652.948393571188
 31
0.0
  0
LINE
  5
26376
  8
01
 10
188.3098753573717
 20
-652.948393571188
 30
0.0
 11
188.24766779865
 21
-653.2738476174964
 31
0.0
  0
LINE
  5
26377
  8
01
 10
188.24766779865
 20
-653.2738476174964
 30
0.0
 11
188.1933194396269
 21
-653.5983386219173
 31
0.0
  0
LINE
  5
26378
  8
01
 10
188.1933194396269
 20
-653.5983386219173
 30
0.0
 11
188.1467054799426
 21
-653.9215948663887
 31
0.0
  0
LINE
  5
26379
  8
01
 10
188.1467054799426
 20
-653.9215948663887
 30
0.0
 11
188.1076909878969
 21
-654.2433549594923
 31
0.0
  0
LINE
  5
2637A
  8
01
 10
188.1076909878969
 20
-654.2433549594923
 30
0.0
 11
188.0761316827187
 21
-654.5633682206985
 31
0.0
  0
LINE
  5
2637B
  8
01
 10
188.0761316827187
 20
-654.5633682206985
 30
0.0
 11
188.0518747221826
 21
-654.8813949998146
 31
0.0
  0
LINE
  5
2637C
  8
01
 10
188.0518747221826
 20
-654.8813949998146
 30
0.0
 11
188.0347594904637
 21
-655.1972069331853
 31
0.0
  0
LINE
  5
2637D
  8
01
 10
188.0347594904637
 20
-655.1972069331853
 30
0.0
 11
188.0246183814492
 21
-655.5105871386038
 31
0.0
  0
LINE
  5
2637E
  8
01
 10
188.0246183814492
 20
-655.5105871386038
 30
0.0
 11
188.0212775730541
 21
-655.8213303512662
 31
0.0
  0
LINE
  5
2637F
  8
01
 10
188.0212775730541
 20
-655.8213303512662
 30
0.0
 11
188.0246183814492
 21
-656.1320735639288
 31
0.0
  0
LINE
  5
26380
  8
01
 10
188.0246183814492
 20
-656.1320735639288
 30
0.0
 11
188.0347594904637
 21
-656.4454537693475
 31
0.0
  0
LINE
  5
26381
  8
01
 10
188.0347594904637
 20
-656.4454537693475
 30
0.0
 11
188.0518747221826
 21
-656.761265702718
 31
0.0
  0
LINE
  5
26382
  8
01
 10
188.0518747221826
 20
-656.761265702718
 30
0.0
 11
188.0761316827187
 21
-657.079292481834
 31
0.0
  0
LINE
  5
26383
  8
01
 10
188.0761316827187
 20
-657.079292481834
 30
0.0
 11
188.1076909878969
 21
-657.3993057430405
 31
0.0
  0
LINE
  5
26384
  8
01
 10
188.1076909878969
 20
-657.3993057430405
 30
0.0
 11
188.1467054799426
 21
-657.7210658361439
 31
0.0
  0
LINE
  5
26385
  8
01
 10
188.1467054799426
 20
-657.7210658361439
 30
0.0
 11
188.1933194396269
 21
-658.0443220806153
 31
0.0
  0
LINE
  5
26386
  8
01
 10
188.1933194396269
 20
-658.0443220806153
 30
0.0
 11
188.24766779865
 21
-658.3688130850362
 31
0.0
  0
LINE
  5
26387
  8
01
 10
188.24766779865
 20
-658.3688130850362
 30
0.0
 11
188.3098753573717
 21
-658.6942671313445
 31
0.0
  0
LINE
  5
26388
  8
01
 10
188.3098753573717
 20
-658.6942671313445
 30
0.0
 11
188.3800560132767
 21
-659.0204026249564
 31
0.0
  0
LINE
  5
26389
  8
01
 10
188.3800560132767
 20
-659.0204026249564
 30
0.0
 11
188.4583120058018
 21
-659.3469286113452
 31
0.0
  0
LINE
  5
2638A
  8
01
 10
188.4583120058018
 20
-659.3469286113452
 30
0.0
 11
188.5447331833565
 21
-659.6735453591014
 31
0.0
  0
LINE
  5
2638B
  8
01
 10
188.5447331833565
 20
-659.6735453591014
 30
0.0
 11
188.6393962985006
 21
-659.9999450089108
 31
0.0
  0
LINE
  5
2638C
  8
01
 10
188.6393962985006
 20
-659.9999450089108
 30
0.0
 11
188.7423643373298
 21
-660.3258122872803
 31
0.0
  0
LINE
  5
2638D
  8
01
 10
188.7423643373298
 20
-660.3258122872803
 30
0.0
 11
188.8536858891479
 21
-660.6508252831807
 31
0.0
  0
LINE
  5
2638E
  8
01
 10
188.8536858891479
 20
-660.6508252831807
 30
0.0
 11
188.9733945624297
 21
-660.9746562851324
 31
0.0
  0
LINE
  5
2638F
  8
01
 10
188.9733945624297
 20
-660.9746562851324
 30
0.0
 11
189.1015084529917
 21
-661.2969726755821
 31
0.0
  0
LINE
  5
26390
  8
01
 10
189.1015084529917
 20
-661.2969726755821
 30
0.0
 11
189.2380296700497
 21
-661.6174378787539
 31
0.0
  0
LINE
  5
26391
  8
01
 10
189.2380296700497
 20
-661.6174378787539
 30
0.0
 11
189.3829439256009
 21
-661.9357123575012
 31
0.0
  0
LINE
  5
26392
  8
01
 10
189.3829439256009
 20
-661.9357123575012
 30
0.0
 11
189.5362201921888
 21
-662.2514546540501
 31
0.0
  0
LINE
  5
26393
  8
01
 10
189.5362201921888
 20
-662.2514546540501
 30
0.0
 11
189.6978104336966
 21
-662.564322468919
 31
0.0
  0
LINE
  5
26394
  8
01
 10
189.6978104336966
 20
-662.564322468919
 30
0.0
 11
189.8676494133091
 21
-662.8739737717342
 31
0.0
  0
LINE
  5
26395
  8
01
 10
189.8676494133091
 20
-662.8739737717342
 30
0.0
 11
190.045654582202
 21
-663.1800679371529
 31
0.0
  0
LINE
  5
26396
  8
01
 10
190.045654582202
 20
-663.1800679371529
 30
0.0
 11
190.2317260518934
 21
-663.4822668986583
 31
0.0
  0
LINE
  5
26397
  8
01
 10
190.2317260518934
 20
-663.4822668986583
 30
0.0
 11
190.4257466524926
 21
-663.7802363126011
 31
0.0
  0
LINE
  5
26398
  8
01
 10
190.4257466524926
 20
-663.7802363126011
 30
0.0
 11
190.6275820783452
 21
-664.0736467245854
 31
0.0
  0
LINE
  5
26399
  8
01
 10
190.6275820783452
 20
-664.0736467245854
 30
0.0
 11
190.837081121775
 21
-664.3621747300563
 31
0.0
  0
LINE
  5
2639A
  8
01
 10
190.837081121775
 20
-664.3621747300563
 30
0.0
 11
191.0540759948539
 21
-664.6455041208553
 31
0.0
  0
LINE
  5
2639B
  8
01
 10
191.0540759948539
 20
-664.6455041208553
 30
0.0
 11
191.2783827382494
 21
-664.9233270094658
 31
0.0
  0
LINE
  5
2639C
  8
01
 10
191.2783827382494
 20
-664.9233270094658
 30
0.0
 11
191.5098017154208
 21
-665.1953449227569
 31
0.0
  0
LINE
  5
2639D
  8
01
 10
191.5098017154208
 20
-665.1953449227569
 30
0.0
 11
191.7481181895749
 21
-665.4612698572089
 31
0.0
  0
LINE
  5
2639E
  8
01
 10
191.7481181895749
 20
-665.4612698572089
 30
0.0
 11
191.9931029800031
 21
-665.7208252878779
 31
0.0
  0
LINE
  5
2639F
  8
01
 10
191.9931029800031
 20
-665.7208252878779
 30
0.0
 11
192.2445131936487
 21
-665.9737471237281
 31
0.0
  0
LINE
  5
263A0
  8
01
 10
192.2445131936487
 20
-665.9737471237281
 30
0.0
 11
192.5020930270279
 21
-666.2197846024267
 31
0.0
  0
LINE
  5
263A1
  8
01
 10
192.5020930270279
 20
-666.2197846024267
 30
0.0
 11
192.7655746329405
 21
-666.4587011182425
 31
0.0
  0
LINE
  5
263A2
  8
01
 10
192.7655746329405
 20
-666.4587011182425
 30
0.0
 11
193.0346790458256
 21
-666.690274977314
 31
0.0
  0
LINE
  5
263A3
  8
01
 10
193.0346790458256
 20
-666.690274977314
 30
0.0
 11
193.3091171590617
 21
-666.9143000752529
 31
0.0
  0
LINE
  5
263A4
  8
01
 10
193.3091171590617
 20
-666.9143000752529
 30
0.0
 11
193.5885907470778
 21
-667.1305864927924
 31
0.0
  0
LINE
  5
263A5
  8
01
 10
193.5885907470778
 20
-667.1305864927924
 30
0.0
 11
193.8727935247765
 21
-667.3389610059896
 31
0.0
  0
LINE
  5
263A6
  8
01
 10
193.8727935247765
 20
-667.3389610059896
 30
0.0
 11
194.1614122364957
 21
-667.5392675083274
 31
0.0
  0
LINE
  5
263A7
  8
01
 10
194.1614122364957
 20
-667.5392675083274
 30
0.0
 11
194.4541277665838
 21
-667.7313673428985
 31
0.0
  0
LINE
  5
263A8
  8
01
 10
194.4541277665838
 20
-667.7313673428985
 30
0.0
 11
194.7506162635704
 21
-667.9151395437302
 31
0.0
  0
LINE
  5
263A9
  8
01
 10
194.7506162635704
 20
-667.9151395437302
 30
0.0
 11
195.0505502699438
 21
-668.0904809861415
 31
0.0
  0
LINE
  5
263AA
  8
01
 10
195.0505502699438
 20
-668.0904809861415
 30
0.0
 11
195.3535998496667
 21
-668.2573064468827
 31
0.0
  0
LINE
  5
263AB
  8
01
 10
195.3535998496667
 20
-668.2573064468827
 30
0.0
 11
195.6594337057639
 21
-668.4155485755875
 31
0.0
  0
LINE
  5
263AC
  8
01
 10
195.6594337057639
 20
-668.4155485755875
 30
0.0
 11
195.9677202805955
 21
-668.5651577798608
 31
0.0
  0
LINE
  5
263AD
  8
01
 10
195.9677202805955
 20
-668.5651577798608
 30
0.0
 11
196.2781288318168
 21
-668.7061020270144
 31
0.0
  0
LINE
  5
263AE
  8
01
 10
196.2781288318168
 20
-668.7061020270144
 30
0.0
 11
196.5903304774369
 21
-668.8383665661402
 31
0.0
  0
LINE
  5
263AF
  8
01
 10
196.5903304774369
 20
-668.8383665661402
 30
0.0
 11
196.9039992039055
 21
-668.9619535747902
 31
0.0
  0
LINE
  5
263B0
  8
01
 10
196.9039992039055
 20
-668.9619535747902
 30
0.0
 11
197.2188128316778
 21
-669.0768817350499
 31
0.0
  0
LINE
  5
263B1
  8
01
 10
197.2188128316778
 20
-669.0768817350499
 30
0.0
 11
197.5344539333258
 21
-669.1831857442467
 31
0.0
  0
LINE
  5
263B2
  8
01
 10
197.5344539333258
 20
-669.1831857442467
 30
0.0
 11
197.8506106998442
 21
-669.2809157658849
 31
0.0
  0
LINE
  5
263B3
  8
01
 10
197.8506106998442
 20
-669.2809157658849
 30
0.0
 11
198.1669777514675
 21
-669.3701368266916
 31
0.0
  0
LINE
  5
263B4
  8
01
 10
198.1669777514675
 20
-669.3701368266916
 30
0.0
 11
198.483256889945
 21
-669.450928165865
 31
0.0
  0
LINE
  5
263B5
  8
01
 10
198.483256889945
 20
-669.450928165865
 30
0.0
 11
198.7991577898609
 21
-669.5233825427331
 31
0.0
  0
LINE
  5
263B6
  8
01
 10
198.7991577898609
 20
-669.5233825427331
 30
0.0
 11
199.1143986272549
 21
-669.5876055090985
 31
0.0
  0
LINE
  5
263B7
  8
01
 10
199.1143986272549
 20
-669.5876055090985
 30
0.0
 11
199.4287066443807
 21
-669.6437146525093
 31
0.0
  0
LINE
  5
263B8
  8
01
 10
199.4287066443807
 20
-669.6437146525093
 30
0.0
 11
199.7418186500721
 21
-669.6918388166218
 31
0.0
  0
LINE
  5
263B9
  8
01
 10
199.7418186500721
 20
-669.6918388166218
 30
0.0
 11
200.0534814557444
 21
-669.7321173046691
 31
0.0
  0
LINE
  5
263BA
  8
01
 10
200.0534814557444
 20
-669.7321173046691
 30
0.0
 11
200.3634522475789
 21
-669.7646990718467
 31
0.0
  0
LINE
  5
263BB
  8
01
 10
200.3634522475789
 20
-669.7646990718467
 30
0.0
 11
200.6714988959451
 21
-669.789741912181
 31
0.0
  0
LINE
  5
263BC
  8
01
 10
200.6714988959451
 20
-669.789741912181
 30
0.0
 11
200.9774002035614
 21
-669.807411645146
 31
0.0
  0
LINE
  5
263BD
  8
01
 10
200.9774002035614
 20
-669.807411645146
 30
0.0
 11
201.2809460942934
 21
-669.8178813069765
 31
0.0
  0
LINE
  5
263BE
  8
01
 10
201.2809460942934
 20
-669.8178813069765
 30
0.0
 11
201.5819377448364
 21
-669.8213303512664
 31
0.0
  0
LINE
  5
263BF
  8
01
 10
202.4217226776731
 20
-641.8213303512669
 30
0.0
 11
201.5819377448369
 21
-641.8213303512669
 31
0.0
  0
LINE
  5
263C0
  8
01
 10
202.4217226776726
 20
-669.8213303512664
 30
0.0
 11
201.5819377448364
 21
-669.8213303512664
 31
0.0
  0
ARC
  5
263C1
  8
01
 10
202.5658676098586
 20
-655.4145352363469
 30
0.0
 40
13.59316045808465
 50
62.82975748144349
 51
89.97454733676003
  0
ARC
  5
263C2
  8
01
 10
202.5659656355687
 20
-656.2287066874749
 30
0.0
 40
13.59257804227037
 50
270.024960889705
 51
297.1708247415741
  0
ARC
  5
263C3
  8
01
 10
201.8018782628018
 20
-655.8213325361694
 30
0.0
 40
14.01502380170324
 50
94.62646744932523
 51
265.3735313657791
  0
ARC
  5
263C4
  8
01
 10
201.016107112085
 20
-655.8211079570476
 30
0.0
 40
16.99937940163387
 50
47.33323785059296
 51
180.0007964215239
  0
ARC
  5
263C5
  8
01
 10
201.0160756638192
 20
-655.821579226679
 30
0.0
 40
16.99934795375786
 50
179.9991087442559
 51
312.6667788458756
  0
CIRCLE
  5
263C6
  8
1PHANTOM
 10
616.0158143860356
 20
-655.8213303512655
 30
0.0
 40
2.75
  0
CIRCLE
  5
263C7
  8
1PHANTOM
 10
636.0166289199849
 20
-655.8213303512655
 30
0.0
 40
2.75
  0
LINE
  5
263C8
  8
1CENTER
 10
611.8908
 20
-655.8213
 30
0.0
 11
620.1408
 21
-655.8213
 31
0.0
  0
LINE
  5
263C9
  8
1CENTER
 10
616.0158
 20
-659.9463
 30
0.0
 11
616.0158
 21
-651.6963
 31
0.0
  0
LINE
  5
263CA
  8
1CENTER
 10
631.8916
 20
-655.8213
 30
0.0
 11
640.1416
 21
-655.8213
 31
0.0
  0
LINE
  5
263CB
  8
1CENTER
 10
636.0166
 20
-659.9463
 30
0.0
 11
636.0166
 21
-651.6963
 31
0.0
  0
ARC
  5
263CC
  8
01
 10
623.8948673390547
 20
-655.8213389567709
 30
0.0
 40
12.50000860550734
 50
0.0000394446998748
 51
89.99996055530534
  0
ARC
  5
263CD
  8
01
 10
623.8948673390547
 20
-655.8213217457619
 30
0.0
 40
12.50000860550745
 50
270.0000394446988
 51
359.9999605553001
  0
LINE
  5
263CE
  8
01
 10
623.3963537979322
 20
-641.8645080297961
 30
0.0
 11
623.5501225206277
 21
-641.8529187903525
 31
0.0
  0
LINE
  5
263CF
  8
01
 10
624.460561369519
 20
-641.8213303512669
 30
0.0
 11
624.7615530200625
 21
-641.824779395557
 31
0.0
  0
LINE
  5
263D0
  8
01
 10
624.7615530200625
 20
-641.824779395557
 30
0.0
 11
625.0650989107941
 21
-641.8352490573875
 31
0.0
  0
LINE
  5
263D1
  8
01
 10
625.0650989107941
 20
-641.8352490573875
 30
0.0
 11
625.3710002184104
 21
-641.8529187903523
 31
0.0
  0
LINE
  5
263D2
  8
01
 10
625.3710002184104
 20
-641.8529187903523
 30
0.0
 11
625.6790468667765
 21
-641.8779616306865
 31
0.0
  0
LINE
  5
263D3
  8
01
 10
625.6790468667765
 20
-641.8779616306865
 30
0.0
 11
625.989017658611
 21
-641.9105433978643
 31
0.0
  0
LINE
  5
263D4
  8
01
 10
625.989017658611
 20
-641.9105433978643
 30
0.0
 11
626.3006804642833
 21
-641.9508218859114
 31
0.0
  0
LINE
  5
263D5
  8
01
 10
626.3006804642833
 20
-641.9508218859114
 30
0.0
 11
626.6137924699752
 21
-641.998946050024
 31
0.0
  0
LINE
  5
263D6
  8
01
 10
626.6137924699752
 20
-641.998946050024
 30
0.0
 11
626.9281004871006
 21
-642.0550551934348
 31
0.0
  0
LINE
  5
263D7
  8
01
 10
626.9281004871006
 20
-642.0550551934348
 30
0.0
 11
627.2433413244945
 21
-642.1192781598004
 31
0.0
  0
LINE
  5
263D8
  8
01
 10
627.2433413244945
 20
-642.1192781598004
 30
0.0
 11
627.5592422244105
 21
-642.1917325366683
 31
0.0
  0
LINE
  5
263D9
  8
01
 10
627.5592422244105
 20
-642.1917325366683
 30
0.0
 11
627.875521362888
 21
-642.2725238758414
 31
0.0
  0
LINE
  5
263DA
  8
01
 10
627.875521362888
 20
-642.2725238758414
 30
0.0
 11
628.1918884145113
 21
-642.3617449366484
 31
0.0
  0
LINE
  5
263DB
  8
01
 10
628.1918884145113
 20
-642.3617449366484
 30
0.0
 11
628.5080451810296
 21
-642.4594749582864
 31
0.0
  0
LINE
  5
263DC
  8
01
 10
628.5080451810296
 20
-642.4594749582864
 30
0.0
 11
628.8236862826776
 21
-642.5657789674833
 31
0.0
  0
LINE
  5
263DD
  8
01
 10
628.8236862826776
 20
-642.5657789674833
 30
0.0
 11
629.1384999104499
 21
-642.6807071277428
 31
0.0
  0
LINE
  5
263DE
  8
01
 10
629.1384999104499
 20
-642.6807071277428
 30
0.0
 11
629.4521686369186
 21
-642.8042941363926
 31
0.0
  0
LINE
  5
263DF
  8
01
 10
629.4521686369186
 20
-642.8042941363926
 30
0.0
 11
629.7643702825391
 21
-642.9365586755187
 31
0.0
  0
LINE
  5
263E0
  8
01
 10
629.7643702825391
 20
-642.9365586755187
 30
0.0
 11
630.07477883376
 21
-643.077502922672
 31
0.0
  0
LINE
  5
263E1
  8
01
 10
630.07477883376
 20
-643.077502922672
 30
0.0
 11
630.383065408592
 21
-643.227112126945
 31
0.0
  0
LINE
  5
263E2
  8
01
 10
630.383065408592
 20
-643.227112126945
 30
0.0
 11
630.6888992646888
 21
-643.3853542556501
 31
0.0
  0
LINE
  5
263E3
  8
01
 10
630.6888992646888
 20
-643.3853542556501
 30
0.0
 11
630.9919488444121
 21
-643.5521797163908
 31
0.0
  0
LINE
  5
263E4
  8
01
 10
630.9919488444121
 20
-643.5521797163908
 30
0.0
 11
631.2918828507851
 21
-643.7275211588026
 31
0.0
  0
LINE
  5
263E5
  8
01
 10
631.2918828507851
 20
-643.7275211588026
 30
0.0
 11
631.5883713477721
 21
-643.9112933596341
 31
0.0
  0
LINE
  5
263E6
  8
01
 10
631.5883713477721
 20
-643.9112933596341
 30
0.0
 11
631.8810868778597
 21
-644.1033931942056
 31
0.0
  0
LINE
  5
263E7
  8
01
 10
631.8810868778597
 20
-644.1033931942056
 30
0.0
 11
632.1697055895789
 21
-644.3036996965432
 31
0.0
  0
LINE
  5
263E8
  8
01
 10
632.1697055895789
 20
-644.3036996965432
 30
0.0
 11
632.4539083672777
 21
-644.5120742097406
 31
0.0
  0
LINE
  5
263E9
  8
01
 10
632.4539083672777
 20
-644.5120742097406
 30
0.0
 11
632.7333819552942
 21
-644.7283606272797
 31
0.0
  0
LINE
  5
263EA
  8
01
 10
632.7333819552942
 20
-644.7283606272797
 30
0.0
 11
633.0078200685303
 21
-644.9523857252186
 31
0.0
  0
LINE
  5
263EB
  8
01
 10
633.0078200685303
 20
-644.9523857252186
 30
0.0
 11
633.2769244814154
 21
-645.1839595842903
 31
0.0
  0
LINE
  5
263EC
  8
01
 10
633.2769244814154
 20
-645.1839595842903
 30
0.0
 11
633.540406087328
 21
-645.4228761001059
 31
0.0
  0
LINE
  5
263ED
  8
01
 10
633.540406087328
 20
-645.4228761001059
 30
0.0
 11
633.7979859207068
 21
-645.6689135788047
 31
0.0
  0
LINE
  5
263EE
  8
01
 10
633.7979859207068
 20
-645.6689135788047
 30
0.0
 11
634.0493961343533
 21
-645.9218354146549
 31
0.0
  0
LINE
  5
263EF
  8
01
 10
634.0493961343533
 20
-645.9218354146549
 30
0.0
 11
634.2943809247805
 21
-646.1813908453239
 31
0.0
  0
LINE
  5
263F0
  8
01
 10
634.2943809247805
 20
-646.1813908453239
 30
0.0
 11
634.5326973989346
 21
-646.4473157797759
 31
0.0
  0
LINE
  5
263F1
  8
01
 10
634.5326973989346
 20
-646.4473157797759
 30
0.0
 11
634.764116376106
 21
-646.7193336930668
 31
0.0
  0
LINE
  5
263F2
  8
01
 10
634.764116376106
 20
-646.7193336930668
 30
0.0
 11
634.9884231195016
 21
-646.9971565816772
 31
0.0
  0
LINE
  5
263F3
  8
01
 10
634.9884231195016
 20
-646.9971565816772
 30
0.0
 11
635.2054179925805
 21
-647.2804859724765
 31
0.0
  0
LINE
  5
263F4
  8
01
 10
635.2054179925805
 20
-647.2804859724765
 30
0.0
 11
635.4149170360107
 21
-647.5690139779474
 31
0.0
  0
LINE
  5
263F5
  8
01
 10
635.4149170360107
 20
-647.5690139779474
 30
0.0
 11
635.6167524618628
 21
-647.8624243899314
 31
0.0
  0
LINE
  5
263F6
  8
01
 10
635.6167524618628
 20
-647.8624243899314
 30
0.0
 11
635.810773062463
 21
-648.1603938038747
 31
0.0
  0
LINE
  5
263F7
  8
01
 10
635.810773062463
 20
-648.1603938038747
 30
0.0
 11
635.9968445321543
 21
-648.4625927653794
 31
0.0
  0
LINE
  5
263F8
  8
01
 10
635.9968445321543
 20
-648.4625927653794
 30
0.0
 11
636.1748497010468
 21
-648.7686869307984
 31
0.0
  0
LINE
  5
263F9
  8
01
 10
636.1748497010468
 20
-648.7686869307984
 30
0.0
 11
636.3446886806593
 21
-649.0783382336133
 31
0.0
  0
LINE
  5
263FA
  8
01
 10
636.3446886806593
 20
-649.0783382336133
 30
0.0
 11
636.5062789221671
 21
-649.3912060484824
 31
0.0
  0
LINE
  5
263FB
  8
01
 10
636.5062789221671
 20
-649.3912060484824
 30
0.0
 11
636.6595551887546
 21
-649.7069483450314
 31
0.0
  0
LINE
  5
263FC
  8
01
 10
636.6595551887546
 20
-649.7069483450314
 30
0.0
 11
636.8044694443057
 21
-650.0252228237784
 31
0.0
  0
LINE
  5
263FD
  8
01
 10
636.8044694443057
 20
-650.0252228237784
 30
0.0
 11
636.9409906613643
 21
-650.3456880269505
 31
0.0
  0
LINE
  5
263FE
  8
01
 10
636.9409906613643
 20
-650.3456880269505
 30
0.0
 11
637.0691045519258
 21
-650.6680044174002
 31
0.0
  0
LINE
  5
263FF
  8
01
 10
637.0691045519258
 20
-650.6680044174002
 30
0.0
 11
637.1888132252076
 21
-650.9918354193521
 31
0.0
  0
LINE
  5
26400
  8
01
 10
637.1888132252076
 20
-650.9918354193521
 30
0.0
 11
637.3001347770256
 21
-651.3168484152525
 31
0.0
  0
LINE
  5
26401
  8
01
 10
637.3001347770256
 20
-651.3168484152525
 30
0.0
 11
637.4031028158557
 21
-651.642715693622
 31
0.0
  0
LINE
  5
26402
  8
01
 10
637.4031028158557
 20
-651.642715693622
 30
0.0
 11
637.4977659309994
 21
-651.9691153434312
 31
0.0
  0
LINE
  5
26403
  8
01
 10
637.4977659309994
 20
-651.9691153434312
 30
0.0
 11
637.5841871085541
 21
-652.2957320911869
 31
0.0
  0
LINE
  5
26404
  8
01
 10
637.5841871085541
 20
-652.2957320911869
 30
0.0
 11
637.6624431010792
 21
-652.6222580775761
 31
0.0
  0
LINE
  5
26405
  8
01
 10
637.6624431010792
 20
-652.6222580775761
 30
0.0
 11
637.7326237569838
 21
-652.948393571188
 31
0.0
  0
LINE
  5
26406
  8
01
 10
637.7326237569838
 20
-652.948393571188
 30
0.0
 11
637.7948313157059
 21
-653.2738476174964
 31
0.0
  0
LINE
  5
26407
  8
01
 10
637.7948313157059
 20
-653.2738476174964
 30
0.0
 11
637.849179674729
 21
-653.5983386219173
 31
0.0
  0
LINE
  5
26408
  8
01
 10
637.849179674729
 20
-653.5983386219173
 30
0.0
 11
637.8957936344137
 21
-653.9215948663887
 31
0.0
  0
LINE
  5
26409
  8
01
 10
637.8957936344137
 20
-653.9215948663887
 30
0.0
 11
637.9348081264594
 21
-654.2433549594923
 31
0.0
  0
LINE
  5
2640A
  8
01
 10
637.9348081264594
 20
-654.2433549594923
 30
0.0
 11
637.9663674316377
 21
-654.5633682206985
 31
0.0
  0
LINE
  5
2640B
  8
01
 10
637.9663674316377
 20
-654.5633682206985
 30
0.0
 11
637.9906243921738
 21
-654.8813949998146
 31
0.0
  0
LINE
  5
2640C
  8
01
 10
637.9906243921738
 20
-654.8813949998146
 30
0.0
 11
638.0077396238927
 21
-655.1972069331853
 31
0.0
  0
LINE
  5
2640D
  8
01
 10
638.0077396238927
 20
-655.1972069331853
 30
0.0
 11
638.0178807329063
 21
-655.5105871386038
 31
0.0
  0
LINE
  5
2640E
  8
01
 10
638.0178807329063
 20
-655.5105871386038
 30
0.0
 11
638.0212215413018
 21
-655.8213303512662
 31
0.0
  0
LINE
  5
2640F
  8
01
 10
638.0212215413018
 20
-655.8213303512662
 30
0.0
 11
638.0178807329063
 21
-656.1320735639288
 31
0.0
  0
LINE
  5
26410
  8
01
 10
638.0178807329063
 20
-656.1320735639288
 30
0.0
 11
638.0077396238927
 21
-656.4454537693475
 31
0.0
  0
LINE
  5
26411
  8
01
 10
638.0077396238927
 20
-656.4454537693475
 30
0.0
 11
637.9906243921738
 21
-656.761265702718
 31
0.0
  0
LINE
  5
26412
  8
01
 10
637.9906243921738
 20
-656.761265702718
 30
0.0
 11
637.9663674316377
 21
-657.079292481834
 31
0.0
  0
LINE
  5
26413
  8
01
 10
637.9663674316377
 20
-657.079292481834
 30
0.0
 11
637.9348081264594
 21
-657.3993057430405
 31
0.0
  0
LINE
  5
26414
  8
01
 10
637.9348081264594
 20
-657.3993057430405
 30
0.0
 11
637.8957936344137
 21
-657.7210658361439
 31
0.0
  0
LINE
  5
26415
  8
01
 10
637.8957936344137
 20
-657.7210658361439
 30
0.0
 11
637.849179674729
 21
-658.0443220806153
 31
0.0
  0
LINE
  5
26416
  8
01
 10
637.849179674729
 20
-658.0443220806153
 30
0.0
 11
637.7948313157059
 21
-658.3688130850362
 31
0.0
  0
LINE
  5
26417
  8
01
 10
637.7948313157059
 20
-658.3688130850362
 30
0.0
 11
637.7326237569838
 21
-658.6942671313445
 31
0.0
  0
LINE
  5
26418
  8
01
 10
637.7326237569838
 20
-658.6942671313445
 30
0.0
 11
637.6624431010792
 21
-659.0204026249564
 31
0.0
  0
LINE
  5
26419
  8
01
 10
637.6624431010792
 20
-659.0204026249564
 30
0.0
 11
637.5841871085546
 21
-659.3469286113452
 31
0.0
  0
LINE
  5
2641A
  8
01
 10
637.5841871085546
 20
-659.3469286113452
 30
0.0
 11
637.4977659309994
 21
-659.6735453591014
 31
0.0
  0
LINE
  5
2641B
  8
01
 10
637.4977659309994
 20
-659.6735453591014
 30
0.0
 11
637.4031028158557
 21
-659.9999450089108
 31
0.0
  0
LINE
  5
2641C
  8
01
 10
637.4031028158557
 20
-659.9999450089108
 30
0.0
 11
637.3001347770256
 21
-660.3258122872803
 31
0.0
  0
LINE
  5
2641D
  8
01
 10
637.3001347770256
 20
-660.3258122872803
 30
0.0
 11
637.188813225208
 21
-660.6508252831807
 31
0.0
  0
LINE
  5
2641E
  8
01
 10
637.188813225208
 20
-660.6508252831807
 30
0.0
 11
637.0691045519258
 21
-660.9746562851324
 31
0.0
  0
LINE
  5
2641F
  8
01
 10
637.0691045519258
 20
-660.9746562851324
 30
0.0
 11
636.9409906613643
 21
-661.2969726755821
 31
0.0
  0
LINE
  5
26420
  8
01
 10
636.9409906613643
 20
-661.2969726755821
 30
0.0
 11
636.8044694443057
 21
-661.6174378787539
 31
0.0
  0
LINE
  5
26421
  8
01
 10
636.8044694443057
 20
-661.6174378787539
 30
0.0
 11
636.6595551887546
 21
-661.9357123575012
 31
0.0
  0
LINE
  5
26422
  8
01
 10
636.6595551887546
 20
-661.9357123575012
 30
0.0
 11
636.5062789221671
 21
-662.2514546540501
 31
0.0
  0
LINE
  5
26423
  8
01
 10
636.5062789221671
 20
-662.2514546540501
 30
0.0
 11
636.3446886806593
 21
-662.564322468919
 31
0.0
  0
LINE
  5
26424
  8
01
 10
636.3446886806593
 20
-662.564322468919
 30
0.0
 11
636.1748497010473
 21
-662.8739737717342
 31
0.0
  0
LINE
  5
26425
  8
01
 10
636.1748497010473
 20
-662.8739737717342
 30
0.0
 11
635.9968445321543
 21
-663.1800679371529
 31
0.0
  0
LINE
  5
26426
  8
01
 10
635.9968445321543
 20
-663.1800679371529
 30
0.0
 11
635.810773062463
 21
-663.4822668986583
 31
0.0
  0
LINE
  5
26427
  8
01
 10
635.810773062463
 20
-663.4822668986583
 30
0.0
 11
635.6167524618628
 21
-663.7802363126011
 31
0.0
  0
LINE
  5
26428
  8
01
 10
635.6167524618628
 20
-663.7802363126011
 30
0.0
 11
635.4149170360112
 21
-664.0736467245854
 31
0.0
  0
LINE
  5
26429
  8
01
 10
635.4149170360112
 20
-664.0736467245854
 30
0.0
 11
635.2054179925805
 21
-664.3621747300563
 31
0.0
  0
LINE
  5
2642A
  8
01
 10
635.2054179925805
 20
-664.3621747300563
 30
0.0
 11
634.988423119502
 21
-664.6455041208553
 31
0.0
  0
LINE
  5
2642B
  8
01
 10
634.988423119502
 20
-664.6455041208553
 30
0.0
 11
634.7641163761065
 21
-664.9233270094658
 31
0.0
  0
LINE
  5
2642C
  8
01
 10
634.7641163761065
 20
-664.9233270094658
 30
0.0
 11
634.5326973989346
 21
-665.1953449227569
 31
0.0
  0
LINE
  5
2642D
  8
01
 10
634.5326973989346
 20
-665.1953449227569
 30
0.0
 11
634.2943809247805
 21
-665.4612698572089
 31
0.0
  0
LINE
  5
2642E
  8
01
 10
634.2943809247805
 20
-665.4612698572089
 30
0.0
 11
634.0493961343533
 21
-665.7208252878779
 31
0.0
  0
LINE
  5
2642F
  8
01
 10
634.0493961343533
 20
-665.7208252878779
 30
0.0
 11
633.7979859207077
 21
-665.9737471237281
 31
0.0
  0
LINE
  5
26430
  8
01
 10
633.7979859207077
 20
-665.9737471237281
 30
0.0
 11
633.5404060873285
 21
-666.2197846024267
 31
0.0
  0
LINE
  5
26431
  8
01
 10
633.5404060873285
 20
-666.2197846024267
 30
0.0
 11
633.2769244814159
 21
-666.4587011182425
 31
0.0
  0
LINE
  5
26432
  8
01
 10
633.2769244814159
 20
-666.4587011182425
 30
0.0
 11
633.0078200685308
 21
-666.690274977314
 31
0.0
  0
LINE
  5
26433
  8
01
 10
633.0078200685308
 20
-666.690274977314
 30
0.0
 11
632.7333819552947
 21
-666.9143000752529
 31
0.0
  0
LINE
  5
26434
  8
01
 10
632.7333819552947
 20
-666.9143000752529
 30
0.0
 11
632.4539083672777
 21
-667.1305864927924
 31
0.0
  0
LINE
  5
26435
  8
01
 10
632.4539083672777
 20
-667.1305864927924
 30
0.0
 11
632.1697055895789
 21
-667.3389610059896
 31
0.0
  0
LINE
  5
26436
  8
01
 10
632.1697055895789
 20
-667.3389610059896
 30
0.0
 11
631.8810868778602
 21
-667.5392675083274
 31
0.0
  0
LINE
  5
26437
  8
01
 10
631.8810868778602
 20
-667.5392675083274
 30
0.0
 11
631.5883713477721
 21
-667.7313673428985
 31
0.0
  0
LINE
  5
26438
  8
01
 10
631.5883713477721
 20
-667.7313673428985
 30
0.0
 11
631.2918828507856
 21
-667.9151395437302
 31
0.0
  0
LINE
  5
26439
  8
01
 10
631.2918828507856
 20
-667.9151395437302
 30
0.0
 11
630.9919488444126
 21
-668.0904809861415
 31
0.0
  0
LINE
  5
2643A
  8
01
 10
630.9919488444126
 20
-668.0904809861415
 30
0.0
 11
630.6888992646888
 21
-668.2573064468827
 31
0.0
  0
LINE
  5
2643B
  8
01
 10
630.6888992646888
 20
-668.2573064468827
 30
0.0
 11
630.383065408592
 21
-668.4155485755875
 31
0.0
  0
LINE
  5
2643C
  8
01
 10
630.383065408592
 20
-668.4155485755875
 30
0.0
 11
630.0747788337604
 21
-668.5651577798608
 31
0.0
  0
LINE
  5
2643D
  8
01
 10
630.0747788337604
 20
-668.5651577798608
 30
0.0
 11
629.7643702825395
 21
-668.7061020270144
 31
0.0
  0
LINE
  5
2643E
  8
01
 10
629.7643702825395
 20
-668.7061020270144
 30
0.0
 11
629.452168636919
 21
-668.8383665661402
 31
0.0
  0
LINE
  5
2643F
  8
01
 10
629.452168636919
 20
-668.8383665661402
 30
0.0
 11
629.1384999104508
 21
-668.9619535747902
 31
0.0
  0
LINE
  5
26440
  8
01
 10
629.1384999104508
 20
-668.9619535747902
 30
0.0
 11
628.8236862826776
 21
-669.0768817350499
 31
0.0
  0
LINE
  5
26441
  8
01
 10
628.8236862826776
 20
-669.0768817350499
 30
0.0
 11
628.5080451810296
 21
-669.1831857442467
 31
0.0
  0
LINE
  5
26442
  8
01
 10
628.5080451810296
 20
-669.1831857442467
 30
0.0
 11
628.1918884145117
 21
-669.2809157658849
 31
0.0
  0
LINE
  5
26443
  8
01
 10
628.1918884145117
 20
-669.2809157658849
 30
0.0
 11
627.875521362888
 21
-669.3701368266916
 31
0.0
  0
LINE
  5
26444
  8
01
 10
627.875521362888
 20
-669.3701368266916
 30
0.0
 11
627.5592422244114
 21
-669.450928165865
 31
0.0
  0
LINE
  5
26445
  8
01
 10
627.5592422244114
 20
-669.450928165865
 30
0.0
 11
627.243341324495
 21
-669.5233825427331
 31
0.0
  0
LINE
  5
26446
  8
01
 10
627.243341324495
 20
-669.5233825427331
 30
0.0
 11
626.9281004871006
 21
-669.5876055090985
 31
0.0
  0
LINE
  5
26447
  8
01
 10
626.9281004871006
 20
-669.5876055090985
 30
0.0
 11
626.6137924699757
 21
-669.6437146525093
 31
0.0
  0
LINE
  5
26448
  8
01
 10
626.6137924699757
 20
-669.6437146525093
 30
0.0
 11
626.3006804642843
 21
-669.6918388166218
 31
0.0
  0
LINE
  5
26449
  8
01
 10
626.3006804642843
 20
-669.6918388166218
 30
0.0
 11
625.989017658611
 21
-669.7321173046691
 31
0.0
  0
LINE
  5
2644A
  8
01
 10
625.989017658611
 20
-669.7321173046691
 30
0.0
 11
625.6790468667765
 21
-669.7646990718467
 31
0.0
  0
LINE
  5
2644B
  8
01
 10
625.6790468667765
 20
-669.7646990718467
 30
0.0
 11
625.3710002184113
 21
-669.789741912181
 31
0.0
  0
LINE
  5
2644C
  8
01
 10
625.3710002184113
 20
-669.789741912181
 30
0.0
 11
625.0650989107941
 21
-669.807411645146
 31
0.0
  0
LINE
  5
2644D
  8
01
 10
625.0650989107941
 20
-669.807411645146
 30
0.0
 11
624.7615530200625
 21
-669.8178813069765
 31
0.0
  0
LINE
  5
2644E
  8
01
 10
624.7615530200625
 20
-669.8178813069765
 30
0.0
 11
624.460561369519
 21
-669.8213303512664
 31
0.0
  0
LINE
  5
2644F
  8
01
 10
623.5501225206277
 20
-669.789741912181
 30
0.0
 11
623.3963537979326
 21
-669.7781526727372
 31
0.0
  0
LINE
  5
26450
  8
01
 10
625.4505108631803
 20
-641.8213303512669
 30
0.0
 11
625.7515025137233
 21
-641.824779395557
 31
0.0
  0
LINE
  5
26451
  8
01
 10
625.7515025137233
 20
-641.824779395557
 30
0.0
 11
626.0550484044549
 21
-641.8352490573875
 31
0.0
  0
LINE
  5
26452
  8
01
 10
626.0550484044549
 20
-641.8352490573875
 30
0.0
 11
626.360949712072
 21
-641.8529187903523
 31
0.0
  0
LINE
  5
26453
  8
01
 10
626.360949712072
 20
-641.8529187903523
 30
0.0
 11
626.6689963604373
 21
-641.8779616306865
 31
0.0
  0
LINE
  5
26454
  8
01
 10
626.6689963604373
 20
-641.8779616306865
 30
0.0
 11
626.9789671522718
 21
-641.9105433978643
 31
0.0
  0
LINE
  5
26455
  8
01
 10
626.9789671522718
 20
-641.9105433978643
 30
0.0
 11
627.290629957945
 21
-641.9508218859114
 31
0.0
  0
LINE
  5
26456
  8
01
 10
627.290629957945
 20
-641.9508218859114
 30
0.0
 11
627.6037419636365
 21
-641.998946050024
 31
0.0
  0
LINE
  5
26457
  8
01
 10
627.6037419636365
 20
-641.998946050024
 30
0.0
 11
627.9180499807613
 21
-642.0550551934348
 31
0.0
  0
LINE
  5
26458
  8
01
 10
627.9180499807613
 20
-642.0550551934348
 30
0.0
 11
628.2332908181558
 21
-642.1192781598004
 31
0.0
  0
LINE
  5
26459
  8
01
 10
628.2332908181558
 20
-642.1192781598004
 30
0.0
 11
628.5491917180722
 21
-642.1917325366683
 31
0.0
  0
LINE
  5
2645A
  8
01
 10
628.5491917180722
 20
-642.1917325366683
 30
0.0
 11
628.8654708565488
 21
-642.2725238758414
 31
0.0
  0
LINE
  5
2645B
  8
01
 10
628.8654708565488
 20
-642.2725238758414
 30
0.0
 11
629.181837908173
 21
-642.3617449366484
 31
0.0
  0
LINE
  5
2645C
  8
01
 10
629.181837908173
 20
-642.3617449366484
 30
0.0
 11
629.4979946746904
 21
-642.4594749582864
 31
0.0
  0
LINE
  5
2645D
  8
01
 10
629.4979946746904
 20
-642.4594749582864
 30
0.0
 11
629.8136357763384
 21
-642.5657789674833
 31
0.0
  0
LINE
  5
2645E
  8
01
 10
629.8136357763384
 20
-642.5657789674833
 30
0.0
 11
630.1284494041116
 21
-642.6807071277428
 31
0.0
  0
LINE
  5
2645F
  8
01
 10
630.1284494041116
 20
-642.6807071277428
 30
0.0
 11
630.4421181305798
 21
-642.8042941363926
 31
0.0
  0
LINE
  5
26460
  8
01
 10
630.4421181305798
 20
-642.8042941363926
 30
0.0
 11
630.7543197762003
 21
-642.9365586755187
 31
0.0
  0
LINE
  5
26461
  8
01
 10
630.7543197762003
 20
-642.9365586755187
 30
0.0
 11
631.0647283274212
 21
-643.077502922672
 31
0.0
  0
LINE
  5
26462
  8
01
 10
631.0647283274212
 20
-643.077502922672
 30
0.0
 11
631.3730149022527
 21
-643.227112126945
 31
0.0
  0
LINE
  5
26463
  8
01
 10
631.3730149022527
 20
-643.227112126945
 30
0.0
 11
631.6788487583495
 21
-643.3853542556501
 31
0.0
  0
LINE
  5
26464
  8
01
 10
631.6788487583495
 20
-643.3853542556501
 30
0.0
 11
631.9818983380734
 21
-643.5521797163908
 31
0.0
  0
LINE
  5
26465
  8
01
 10
631.9818983380734
 20
-643.5521797163908
 30
0.0
 11
632.2818323444468
 21
-643.7275211588026
 31
0.0
  0
LINE
  5
26466
  8
01
 10
632.2818323444468
 20
-643.7275211588026
 30
0.0
 11
632.5783208414329
 21
-643.9112933596341
 31
0.0
  0
LINE
  5
26467
  8
01
 10
632.5783208414329
 20
-643.9112933596341
 30
0.0
 11
632.8710363715214
 21
-644.1033931942056
 31
0.0
  0
LINE
  5
26468
  8
01
 10
632.8710363715214
 20
-644.1033931942056
 30
0.0
 11
633.1596550832402
 21
-644.3036996965432
 31
0.0
  0
LINE
  5
26469
  8
01
 10
633.1596550832402
 20
-644.3036996965432
 30
0.0
 11
633.4438578609385
 21
-644.5120742097406
 31
0.0
  0
LINE
  5
2646A
  8
01
 10
633.4438578609385
 20
-644.5120742097406
 30
0.0
 11
633.7233314489555
 21
-644.7283606272797
 31
0.0
  0
LINE
  5
2646B
  8
01
 10
633.7233314489555
 20
-644.7283606272797
 30
0.0
 11
633.9977695621916
 21
-644.9523857252186
 31
0.0
  0
LINE
  5
2646C
  8
01
 10
633.9977695621916
 20
-644.9523857252186
 30
0.0
 11
634.2668739750767
 21
-645.1839595842903
 31
0.0
  0
LINE
  5
2646D
  8
01
 10
634.2668739750767
 20
-645.1839595842903
 30
0.0
 11
634.5303555809893
 21
-645.4228761001059
 31
0.0
  0
LINE
  5
2646E
  8
01
 10
634.5303555809893
 20
-645.4228761001059
 30
0.0
 11
634.7879354143685
 21
-645.6689135788047
 31
0.0
  0
LINE
  5
2646F
  8
01
 10
634.7879354143685
 20
-645.6689135788047
 30
0.0
 11
635.0393456280141
 21
-645.9218354146549
 31
0.0
  0
LINE
  5
26470
  8
01
 10
635.0393456280141
 20
-645.9218354146549
 30
0.0
 11
635.2843304184418
 21
-646.1813908453239
 31
0.0
  0
LINE
  5
26471
  8
01
 10
635.2843304184418
 20
-646.1813908453239
 30
0.0
 11
635.5226468925958
 21
-646.4473157797759
 31
0.0
  0
LINE
  5
26472
  8
01
 10
635.5226468925958
 20
-646.4473157797759
 30
0.0
 11
635.7540658697677
 21
-646.7193336930668
 31
0.0
  0
LINE
  5
26473
  8
01
 10
635.7540658697677
 20
-646.7193336930668
 30
0.0
 11
635.9783726131633
 21
-646.9971565816772
 31
0.0
  0
LINE
  5
26474
  8
01
 10
635.9783726131633
 20
-646.9971565816772
 30
0.0
 11
636.1953674862417
 21
-647.2804859724765
 31
0.0
  0
LINE
  5
26475
  8
01
 10
636.1953674862417
 20
-647.2804859724765
 30
0.0
 11
636.404866529672
 21
-647.5690139779474
 31
0.0
  0
LINE
  5
26476
  8
01
 10
636.404866529672
 20
-647.5690139779474
 30
0.0
 11
636.606701955524
 21
-647.8624243899314
 31
0.0
  0
LINE
  5
26477
  8
01
 10
636.606701955524
 20
-647.8624243899314
 30
0.0
 11
636.8007225561238
 21
-648.1603938038747
 31
0.0
  0
LINE
  5
26478
  8
01
 10
636.8007225561238
 20
-648.1603938038747
 30
0.0
 11
636.9867940258151
 21
-648.4625927653794
 31
0.0
  0
LINE
  5
26479
  8
01
 10
636.9867940258151
 20
-648.4625927653794
 30
0.0
 11
637.164799194708
 21
-648.7686869307984
 31
0.0
  0
LINE
  5
2647A
  8
01
 10
637.164799194708
 20
-648.7686869307984
 30
0.0
 11
637.33463817432
 21
-649.0783382336133
 31
0.0
  0
LINE
  5
2647B
  8
01
 10
637.33463817432
 20
-649.0783382336133
 30
0.0
 11
637.4962284158279
 21
-649.3912060484824
 31
0.0
  0
LINE
  5
2647C
  8
01
 10
637.4962284158279
 20
-649.3912060484824
 30
0.0
 11
637.6495046824153
 21
-649.7069483450314
 31
0.0
  0
LINE
  5
2647D
  8
01
 10
637.6495046824153
 20
-649.7069483450314
 30
0.0
 11
637.7944189379674
 21
-650.0252228237784
 31
0.0
  0
LINE
  5
2647E
  8
01
 10
637.7944189379674
 20
-650.0252228237784
 30
0.0
 11
637.930940155025
 21
-650.3456880269505
 31
0.0
  0
LINE
  5
2647F
  8
01
 10
637.930940155025
 20
-650.3456880269505
 30
0.0
 11
638.0590540455875
 21
-650.6680044174002
 31
0.0
  0
LINE
  5
26480
  8
01
 10
638.0590540455875
 20
-650.6680044174002
 30
0.0
 11
638.1787627188693
 21
-650.9918354193521
 31
0.0
  0
LINE
  5
26481
  8
01
 10
638.1787627188693
 20
-650.9918354193521
 30
0.0
 11
638.2900842706869
 21
-651.3168484152525
 31
0.0
  0
LINE
  5
26482
  8
01
 10
638.2900842706869
 20
-651.3168484152525
 30
0.0
 11
638.3930523095165
 21
-651.642715693622
 31
0.0
  0
LINE
  5
26483
  8
01
 10
638.3930523095165
 20
-651.642715693622
 30
0.0
 11
638.4877154246607
 21
-651.9691153434312
 31
0.0
  0
LINE
  5
26484
  8
01
 10
638.4877154246607
 20
-651.9691153434312
 30
0.0
 11
638.5741366022154
 21
-652.2957320911869
 31
0.0
  0
LINE
  5
26485
  8
01
 10
638.5741366022154
 20
-652.2957320911869
 30
0.0
 11
638.6523925947405
 21
-652.6222580775761
 31
0.0
  0
LINE
  5
26486
  8
01
 10
638.6523925947405
 20
-652.6222580775761
 30
0.0
 11
638.7225732506455
 21
-652.948393571188
 31
0.0
  0
LINE
  5
26487
  8
01
 10
638.7225732506455
 20
-652.948393571188
 30
0.0
 11
638.7847808093671
 21
-653.2738476174964
 31
0.0
  0
LINE
  5
26488
  8
01
 10
638.7847808093671
 20
-653.2738476174964
 30
0.0
 11
638.8391291683903
 21
-653.5983386219173
 31
0.0
  0
LINE
  5
26489
  8
01
 10
638.8391291683903
 20
-653.5983386219173
 30
0.0
 11
638.8857431280745
 21
-653.9215948663887
 31
0.0
  0
LINE
  5
2648A
  8
01
 10
638.8857431280745
 20
-653.9215948663887
 30
0.0
 11
638.9247576201202
 21
-654.2433549594923
 31
0.0
  0
LINE
  5
2648B
  8
01
 10
638.9247576201202
 20
-654.2433549594923
 30
0.0
 11
638.9563169252984
 21
-654.5633682206985
 31
0.0
  0
LINE
  5
2648C
  8
01
 10
638.9563169252984
 20
-654.5633682206985
 30
0.0
 11
638.9805738858346
 21
-654.8813949998146
 31
0.0
  0
LINE
  5
2648D
  8
01
 10
638.9805738858346
 20
-654.8813949998146
 30
0.0
 11
638.9976891175535
 21
-655.1972069331853
 31
0.0
  0
LINE
  5
2648E
  8
01
 10
638.9976891175535
 20
-655.1972069331853
 30
0.0
 11
639.007830226568
 21
-655.5105871386038
 31
0.0
  0
LINE
  5
2648F
  8
01
 10
639.007830226568
 20
-655.5105871386038
 30
0.0
 11
639.011171034963
 21
-655.8213303512662
 31
0.0
  0
LINE
  5
26490
  8
01
 10
639.011171034963
 20
-655.8213303512662
 30
0.0
 11
639.007830226568
 21
-656.1320735639288
 31
0.0
  0
LINE
  5
26491
  8
01
 10
639.007830226568
 20
-656.1320735639288
 30
0.0
 11
638.9976891175535
 21
-656.4454537693475
 31
0.0
  0
LINE
  5
26492
  8
01
 10
638.9976891175535
 20
-656.4454537693475
 30
0.0
 11
638.9805738858346
 21
-656.761265702718
 31
0.0
  0
LINE
  5
26493
  8
01
 10
638.9805738858346
 20
-656.761265702718
 30
0.0
 11
638.9563169252984
 21
-657.079292481834
 31
0.0
  0
LINE
  5
26494
  8
01
 10
638.9563169252984
 20
-657.079292481834
 30
0.0
 11
638.9247576201202
 21
-657.3993057430405
 31
0.0
  0
LINE
  5
26495
  8
01
 10
638.9247576201202
 20
-657.3993057430405
 30
0.0
 11
638.8857431280745
 21
-657.7210658361439
 31
0.0
  0
LINE
  5
26496
  8
01
 10
638.8857431280745
 20
-657.7210658361439
 30
0.0
 11
638.8391291683903
 21
-658.0443220806153
 31
0.0
  0
LINE
  5
26497
  8
01
 10
638.8391291683903
 20
-658.0443220806153
 30
0.0
 11
638.7847808093671
 21
-658.3688130850362
 31
0.0
  0
LINE
  5
26498
  8
01
 10
638.7847808093671
 20
-658.3688130850362
 30
0.0
 11
638.7225732506455
 21
-658.6942671313445
 31
0.0
  0
LINE
  5
26499
  8
01
 10
638.7225732506455
 20
-658.6942671313445
 30
0.0
 11
638.6523925947405
 21
-659.0204026249564
 31
0.0
  0
LINE
  5
2649A
  8
01
 10
638.6523925947405
 20
-659.0204026249564
 30
0.0
 11
638.5741366022154
 21
-659.3469286113452
 31
0.0
  0
LINE
  5
2649B
  8
01
 10
638.5741366022154
 20
-659.3469286113452
 30
0.0
 11
638.4877154246607
 21
-659.6735453591014
 31
0.0
  0
LINE
  5
2649C
  8
01
 10
638.4877154246607
 20
-659.6735453591014
 30
0.0
 11
638.3930523095165
 21
-659.9999450089108
 31
0.0
  0
LINE
  5
2649D
  8
01
 10
638.3930523095165
 20
-659.9999450089108
 30
0.0
 11
638.2900842706873
 21
-660.3258122872803
 31
0.0
  0
LINE
  5
2649E
  8
01
 10
638.2900842706873
 20
-660.3258122872803
 30
0.0
 11
638.1787627188693
 21
-660.6508252831807
 31
0.0
  0
LINE
  5
2649F
  8
01
 10
638.1787627188693
 20
-660.6508252831807
 30
0.0
 11
638.0590540455875
 21
-660.9746562851324
 31
0.0
  0
LINE
  5
264A0
  8
01
 10
638.0590540455875
 20
-660.9746562851324
 30
0.0
 11
637.9309401550255
 21
-661.2969726755821
 31
0.0
  0
LINE
  5
264A1
  8
01
 10
637.9309401550255
 20
-661.2969726755821
 30
0.0
 11
637.7944189379674
 21
-661.6174378787539
 31
0.0
  0
LINE
  5
264A2
  8
01
 10
637.7944189379674
 20
-661.6174378787539
 30
0.0
 11
637.6495046824163
 21
-661.9357123575012
 31
0.0
  0
LINE
  5
264A3
  8
01
 10
637.6495046824163
 20
-661.9357123575012
 30
0.0
 11
637.4962284158283
 21
-662.2514546540501
 31
0.0
  0
LINE
  5
264A4
  8
01
 10
637.4962284158283
 20
-662.2514546540501
 30
0.0
 11
637.3346381743205
 21
-662.564322468919
 31
0.0
  0
LINE
  5
264A5
  8
01
 10
637.3346381743205
 20
-662.564322468919
 30
0.0
 11
637.164799194708
 21
-662.8739737717342
 31
0.0
  0
LINE
  5
264A6
  8
01
 10
637.164799194708
 20
-662.8739737717342
 30
0.0
 11
636.9867940258151
 21
-663.1800679371529
 31
0.0
  0
LINE
  5
264A7
  8
01
 10
636.9867940258151
 20
-663.1800679371529
 30
0.0
 11
636.8007225561238
 21
-663.4822668986583
 31
0.0
  0
LINE
  5
264A8
  8
01
 10
636.8007225561238
 20
-663.4822668986583
 30
0.0
 11
636.6067019555245
 21
-663.7802363126011
 31
0.0
  0
LINE
  5
264A9
  8
01
 10
636.6067019555245
 20
-663.7802363126011
 30
0.0
 11
636.404866529672
 21
-664.0736467245854
 31
0.0
  0
LINE
  5
264AA
  8
01
 10
636.404866529672
 20
-664.0736467245854
 30
0.0
 11
636.1953674862422
 21
-664.3621747300563
 31
0.0
  0
LINE
  5
264AB
  8
01
 10
636.1953674862422
 20
-664.3621747300563
 30
0.0
 11
635.9783726131633
 21
-664.6455041208553
 31
0.0
  0
LINE
  5
264AC
  8
01
 10
635.9783726131633
 20
-664.6455041208553
 30
0.0
 11
635.7540658697677
 21
-664.9233270094658
 31
0.0
  0
LINE
  5
264AD
  8
01
 10
635.7540658697677
 20
-664.9233270094658
 30
0.0
 11
635.5226468925963
 21
-665.1953449227569
 31
0.0
  0
LINE
  5
264AE
  8
01
 10
635.5226468925963
 20
-665.1953449227569
 30
0.0
 11
635.2843304184422
 21
-665.4612698572089
 31
0.0
  0
LINE
  5
264AF
  8
01
 10
635.2843304184422
 20
-665.4612698572089
 30
0.0
 11
635.0393456280141
 21
-665.7208252878779
 31
0.0
  0
LINE
  5
264B0
  8
01
 10
635.0393456280141
 20
-665.7208252878779
 30
0.0
 11
634.7879354143685
 21
-665.9737471237281
 31
0.0
  0
LINE
  5
264B1
  8
01
 10
634.7879354143685
 20
-665.9737471237281
 30
0.0
 11
634.5303555809893
 21
-666.2197846024267
 31
0.0
  0
LINE
  5
264B2
  8
01
 10
634.5303555809893
 20
-666.2197846024267
 30
0.0
 11
634.2668739750767
 21
-666.4587011182425
 31
0.0
  0
LINE
  5
264B3
  8
01
 10
634.2668739750767
 20
-666.4587011182425
 30
0.0
 11
633.9977695621916
 21
-666.690274977314
 31
0.0
  0
LINE
  5
264B4
  8
01
 10
633.9977695621916
 20
-666.690274977314
 30
0.0
 11
633.7233314489555
 21
-666.9143000752529
 31
0.0
  0
LINE
  5
264B5
  8
01
 10
633.7233314489555
 20
-666.9143000752529
 30
0.0
 11
633.4438578609394
 21
-667.1305864927924
 31
0.0
  0
LINE
  5
264B6
  8
01
 10
633.4438578609394
 20
-667.1305864927924
 30
0.0
 11
633.1596550832406
 21
-667.3389610059896
 31
0.0
  0
LINE
  5
264B7
  8
01
 10
633.1596550832406
 20
-667.3389610059896
 30
0.0
 11
632.8710363715214
 21
-667.5392675083274
 31
0.0
  0
LINE
  5
264B8
  8
01
 10
632.8710363715214
 20
-667.5392675083274
 30
0.0
 11
632.5783208414333
 21
-667.7313673428985
 31
0.0
  0
LINE
  5
264B9
  8
01
 10
632.5783208414333
 20
-667.7313673428985
 30
0.0
 11
632.2818323444468
 21
-667.9151395437302
 31
0.0
  0
LINE
  5
264BA
  8
01
 10
632.2818323444468
 20
-667.9151395437302
 30
0.0
 11
631.9818983380734
 21
-668.0904809861415
 31
0.0
  0
LINE
  5
264BB
  8
01
 10
631.9818983380734
 20
-668.0904809861415
 30
0.0
 11
631.6788487583505
 21
-668.2573064468827
 31
0.0
  0
LINE
  5
264BC
  8
01
 10
631.6788487583505
 20
-668.2573064468827
 30
0.0
 11
631.3730149022532
 21
-668.4155485755875
 31
0.0
  0
LINE
  5
264BD
  8
01
 10
631.3730149022532
 20
-668.4155485755875
 30
0.0
 11
631.0647283274217
 21
-668.5651577798608
 31
0.0
  0
LINE
  5
264BE
  8
01
 10
631.0647283274217
 20
-668.5651577798608
 30
0.0
 11
630.7543197762003
 21
-668.7061020270144
 31
0.0
  0
LINE
  5
264BF
  8
01
 10
630.7543197762003
 20
-668.7061020270144
 30
0.0
 11
630.4421181305803
 21
-668.8383665661402
 31
0.0
  0
LINE
  5
264C0
  8
01
 10
630.4421181305803
 20
-668.8383665661402
 30
0.0
 11
630.1284494041116
 21
-668.9619535747902
 31
0.0
  0
LINE
  5
264C1
  8
01
 10
630.1284494041116
 20
-668.9619535747902
 30
0.0
 11
629.8136357763393
 21
-669.0768817350499
 31
0.0
  0
LINE
  5
264C2
  8
01
 10
629.8136357763393
 20
-669.0768817350499
 30
0.0
 11
629.4979946746913
 21
-669.1831857442467
 31
0.0
  0
LINE
  5
264C3
  8
01
 10
629.4979946746913
 20
-669.1831857442467
 30
0.0
 11
629.181837908173
 21
-669.2809157658849
 31
0.0
  0
LINE
  5
264C4
  8
01
 10
629.181837908173
 20
-669.2809157658849
 30
0.0
 11
628.8654708565497
 21
-669.3701368266916
 31
0.0
  0
LINE
  5
264C5
  8
01
 10
628.8654708565497
 20
-669.3701368266916
 30
0.0
 11
628.5491917180722
 21
-669.450928165865
 31
0.0
  0
LINE
  5
264C6
  8
01
 10
628.5491917180722
 20
-669.450928165865
 30
0.0
 11
628.2332908181562
 21
-669.5233825427331
 31
0.0
  0
LINE
  5
264C7
  8
01
 10
628.2332908181562
 20
-669.5233825427331
 30
0.0
 11
627.9180499807622
 21
-669.5876055090985
 31
0.0
  0
LINE
  5
264C8
  8
01
 10
627.9180499807622
 20
-669.5876055090985
 30
0.0
 11
627.6037419636365
 21
-669.6437146525093
 31
0.0
  0
LINE
  5
264C9
  8
01
 10
627.6037419636365
 20
-669.6437146525093
 30
0.0
 11
627.290629957945
 21
-669.6918388166218
 31
0.0
  0
LINE
  5
264CA
  8
01
 10
627.290629957945
 20
-669.6918388166218
 30
0.0
 11
626.9789671522727
 21
-669.7321173046691
 31
0.0
  0
LINE
  5
264CB
  8
01
 10
626.9789671522727
 20
-669.7321173046691
 30
0.0
 11
626.6689963604382
 21
-669.7646990718467
 31
0.0
  0
LINE
  5
264CC
  8
01
 10
626.6689963604382
 20
-669.7646990718467
 30
0.0
 11
626.360949712072
 21
-669.789741912181
 31
0.0
  0
LINE
  5
264CD
  8
01
 10
626.360949712072
 20
-669.789741912181
 30
0.0
 11
626.0550484044558
 21
-669.807411645146
 31
0.0
  0
LINE
  5
264CE
  8
01
 10
626.0550484044558
 20
-669.807411645146
 30
0.0
 11
625.7515025137237
 21
-669.8178813069765
 31
0.0
  0
LINE
  5
264CF
  8
01
 10
625.7515025137237
 20
-669.8178813069765
 30
0.0
 11
625.4505108631807
 21
-669.8213303512664
 31
0.0
  0
LINE
  5
264D0
  8
01
 10
624.6107259303441
 20
-641.8213303512669
 30
0.0
 11
625.4505108631803
 21
-641.8213303512669
 31
0.0
  0
LINE
  5
264D1
  8
01
 10
624.6107259303445
 20
-669.8213303512664
 30
0.0
 11
625.4505108631807
 21
-669.8213303512664
 31
0.0
  0
ARC
  5
264D2
  8
01
 10
624.4665809981585
 20
-655.4145352363469
 30
0.0
 40
13.59316045808465
 50
90.02545266323997
 51
117.1702425185565
  0
ARC
  5
264D3
  8
01
 10
624.4664829724485
 20
-656.2287066874749
 30
0.0
 40
13.59257804227037
 50
242.8291752584259
 51
269.975039110295
  0
ARC
  5
264D4
  8
01
 10
625.2305703452154
 20
-655.8213325361694
 30
0.0
 40
14.01502380170324
 50
274.6264686342209
 51
85.37353255067478
  0
ARC
  5
264D5
  8
01
 10
626.0163414959321
 20
-655.8211079570476
 30
0.0
 40
16.99937940163387
 50
359.9992035784762
 51
132.666762149407
  0
ARC
  5
264D6
  8
01
 10
626.016372944198
 20
-655.821579226679
 30
0.0
 40
16.99934795375786
 50
227.3332211541244
 51
0.0008912557440985
  0
TEXT
  5
26A1C
  8
01
  6
CONTINUOUS
 10
769.7537571261878
 20
-611.3902613041461
 30
0.0
 40
3.5
  1
PB
  0
TEXT
  5
26A1D
  8
01
  6
CONTINUOUS
 10
782.889175271353
 20
-605.5520668597017
 30
0.0
 40
3.5
  1
合板12mm以上
  0
TEXT
  5
26A1E
  8
01
  6
CONTINUOUS
 10
780.089175271353
 20
-611.3902613041461
 30
0.0
 40
3.5
  1
（15mm以上推奨）
  0
SOLID
  5
26A1F
  8
1DIM
 10
585.2501584996287
 20
-579.3582337653294
 30
0.0
 11
585.5244467481401
 21
-581.3671830100441
 31
0.0
 12
584.6134337850461
 22
-579.5557839672637
 32
0.0
 13
584.6134337850461
 23
-579.5557839672637
 33
0.0
1001
ACAD
1000
DSTYLE
1002
{
1070
    45
1040
0.5
1002
}
  0
LINE
  5
26A20
  8
1DIM
 10
584.9317961423374
 20
-579.4570088662965
 30
0.0
 11
582.3831099868274
 21
-571.2423300199152
 31
0.0
1001
ACAD
1000
DSTYLE
1002
{
1070
    45
1040
0.5
1002
}
  0
LINE
  5
26A21
  8
1DIM
 10
582.3831099868274
 20
-571.2423300199152
 30
0.0
 11
547.3664433201608
 21
-571.2423300199152
 31
0.0
1001
ACAD
1000
DSTYLE
1002
{
1070
    45
1040
0.5
1002
}
  0
TEXT
  5
26A22
  8
1DIM
  6
CONTINUOUS
 10
547.1331099868273
 20
-564.7089966865818
 30
0.0
 40
3.5
  1
材質：ステンレス
  0
TEXT
  5
26A23
  8
1DIM
  6
CONTINUOUS
 10
555.2997766534941
 20
-570.5423300199152
 30
0.0
 40
3.5
  1
仕上げ：鏡面
  0
LINE
  5
26A24
  8
1DIM
 10
534.7188985148118
 20
-602.3213406087661
 30
0.0
 11
545.2458307863246
 21
-602.3213406087661
 31
0.0
1001
ACAD
1000
DSTYLE
1002
{
1070
     3
1000
φ<>
1070
    45
1040
0.5
1002
}
  0
LINE
  5
26A25
  8
1DIM
 10
534.7188985148118
 20
-577.3213406087661
 30
0.0
 11
545.2458307863246
 21
-577.3213406087661
 31
0.0
1001
ACAD
1000
DSTYLE
1002
{
1070
     3
1000
φ<>
1070
    45
1040
0.5
1002
}
  0
LINE
  5
26A26
  8
1DIM
 10
544.2458307863246
 20
-577.3213406087661
 30
0.0
 11
544.2458307863246
 21
-562.3880072754326
 31
0.0
1001
ACAD
1000
DSTYLE
1002
{
1070
     3
1000
φ<>
1070
    45
1040
0.5
1002
}
  0
LINE
  5
26A27
  8
1DIM
 10
544.2458307863246
 20
-600.3213406087661
 30
0.0
 11
544.2458307863246
 21
-579.3213406087661
 31
0.0
1001
ACAD
1000
DSTYLE
1002
{
1070
     3
1000
φ<>
1070
    45
1040
0.5
1002
}
  0
LINE
  5
26A2B
  8
1DIM
 10
636.3949315293055
 20
-602.3213406087661
 30
0.0
 11
662.388068030084
 21
-602.3213406087661
 31
0.0
1001
ACAD
1000
DSTYLE
1002
{
1070
    45
1040
0.5
1002
}
  0
LINE
  5
26A2C
  8
1DIM
 10
643.0162416153646
 20
-535.8213303512664
 30
0.0
 11
662.388068030084
 21
-535.8213303512664
 31
0.0
1001
ACAD
1000
DSTYLE
1002
{
1070
    45
1040
0.5
1002
}
  0
LINE
  5
26A2D
  8
1DIM
 10
661.388068030084
 20
-600.3213406087661
 30
0.0
 11
661.388068030084
 21
-537.8213303512664
 31
0.0
1001
ACAD
1000
DSTYLE
1002
{
1070
    45
1040
0.5
1002
}
  0
LINE
  5
26A31
  8
1DIM
 10
616.0158
 20
-655.8213
 30
0.0
 11
616.0158
 21
-692.4213303512674
 31
0.0
1001
ACAD
1000
DSTYLE
1002
{
1070
    40
1040
1.0
1070
    45
1040
0.5
1002
}
  0
LINE
  5
26A32
  8
1DIM
 10
636.0166
 20
-655.8213
 30
0.0
 11
636.0166
 21
-692.4213303512674
 31
0.0
1001
ACAD
1000
DSTYLE
1002
{
1070
    40
1040
1.0
1070
    45
1040
0.5
1002
}
  0
LINE
  5
26A33
  8
1DIM
 10
618.0158
 20
-691.4213303512674
 30
0.0
 11
634.0166
 21
-691.4213303512674
 31
0.0
1001
ACAD
1000
DSTYLE
1002
{
1070
    40
1040
1.0
1070
    45
1040
0.5
1002
}
  0
LINE
  5
26A37
  8
1DIM
 10
763.0162416153653
 20
-693.0495039365471
 30
0.0
 11
763.0162416153653
 21
-702.4213303512665
 31
0.0
1001
ACAD
1000
DSTYLE
1002
{
1070
    45
1040
0.5
1002
}
  0
LINE
  5
26A38
  8
1DIM
 10
748.516285457171
 20
-670.2610392578772
 30
0.0
 11
748.516285457171
 21
-702.4213303512665
 31
0.0
1001
ACAD
1000
DSTYLE
1002
{
1070
    45
1040
0.5
1002
}
  0
LINE
  5
26A39
  8
1DIM
 10
761.0162416153653
 20
-701.4213303512665
 30
0.0
 11
750.516285457171
 21
-701.4213303512665
 31
0.0
1001
ACAD
1000
DSTYLE
1002
{
1070
    45
1040
0.5
1002
}
  0
LINE
  5
26A3D
  8
1DIM
 10
643.0162416153646
 20
-535.8213303512664
 30
0.0
 11
643.0162416153646
 21
-495.3744365465196
 31
0.0
1001
ACAD
1000
DSTYLE
1002
{
1070
     3
1000
φ<>
1070
    45
1040
0.5
1002
}
  0
LINE
  5
26A3E
  8
1DIM
 10
609.0162416153646
 20
-535.8213303512664
 30
0.0
 11
609.0162416153646
 21
-495.3744365465196
 31
0.0
1001
ACAD
1000
DSTYLE
1002
{
1070
     3
1000
φ<>
1070
    45
1040
0.5
1002
}
  0
LINE
  5
26A3F
  8
1DIM
 10
641.0162416153646
 20
-496.3744365465196
 30
0.0
 11
611.0162416153646
 21
-496.3744365465196
 31
0.0
1001
ACAD
1000
DSTYLE
1002
{
1070
     3
1000
φ<>
1070
    45
1040
0.5
1002
}
  0
SOLID
  5
26A43
  8
1DIM
 10
766.6708479197656
 20
-624.9354292138304
 30
0.0
 11
765.9299131930727
 21
-626.8227889680616
 31
0.0
 12
766.0186807169505
 22
-624.7971455054019
 32
0.0
 13
766.0186807169505
 23
-624.7971455054019
 33
0.0
1001
ACAD
1000
DSTYLE
1002
{
1070
    45
1040
0.5
1002
}
  0
LINE
  5
26A44
  8
1DIM
 10
766.344764318358
 20
-624.8662873596161
 30
0.0
 11
769.0537571261877
 21
-612.0902613041461
 31
0.0
1001
ACAD
1000
DSTYLE
1002
{
1070
    45
1040
0.5
1002
}
  0
SOLID
  5
26A45
  8
1DIM
 10
779.8062660649308
 20
-624.9354292138304
 30
0.0
 11
779.0653313382379
 21
-626.8227889680616
 31
0.0
 12
779.1540988621157
 22
-624.7971455054019
 32
0.0
 13
779.1540988621157
 23
-624.7971455054019
 33
0.0
1001
ACAD
1000
DSTYLE
1002
{
1070
    45
1040
0.5
1002
}
  0
LINE
  5
26A46
  8
1DIM
 10
779.4801824635232
 20
-624.8662873596161
 30
0.0
 11
782.189175271353
 21
-612.0902613041461
 31
0.0
1001
ACAD
1000
DSTYLE
1002
{
1070
    45
1040
0.5
1002
}
  0
LINE
  5
26A47
  8
0
 10
208.5165942972642
 20
-523.9034647652206
 30
0.0
 11
213.5165942972642
 21
-522.9034647652206
 31
0.0
  0
LINE
  5
26A48
  8
1CENTER
 10
211.0165942972642
 20
-498.5749771207184
 30
0.0
 11
211.0165942972642
 21
-545.0042831014125
 31
0.0
  0
LINE
  5
26A4A
  8
0
 10
208.7003273562283
 20
-505.8667181534278
 30
0.0
 11
209.4503273562283
 21
-506.0167181534277
 31
0.0
  0
LINE
  5
26A4B
  8
0
 10
208.7003273562283
 20
-505.8667181534278
 30
0.0
 11
213.097231837319
 21
-504.9873372572096
 31
0.0
  0
LINE
  5
26A4C
  8
0
 10
211.3299509842079
 20
-501.0407934278318
 30
0.0
 11
212.0799509842079
 21
-501.1907934278319
 31
0.0
  0
LINE
  5
26A4D
  8
0
 10
209.832813896747
 20
-501.6402208453241
 30
0.0
 11
210.582813896747
 21
-501.790220845324
 31
0.0
  0
LINE
  5
26A4E
  8
0
 10
209.832813896747
 20
-501.6402208453241
 30
0.0
 11
212.0799509842079
 21
-501.1907934278318
 31
0.0
  0
LINE
  5
26A4F
  8
0
 10
212.347231837319
 20
-504.8373372572096
 30
0.0
 11
213.097231837319
 21
-504.9873372572096
 31
0.0
  0
LINE
  5
26A50
  8
0
 10
211.8385914107635
 20
-502.9390653425207
 30
0.0
 11
212.5885914107635
 21
-503.0890653425207
 31
0.0
  0
LINE
  5
26A51
  8
0
 10
209.2665706264877
 20
-503.7534694993759
 30
0.0
 11
210.0165706264877
 21
-503.9034694993759
 31
0.0
  0
LINE
  5
26A52
  8
0
 10
209.2665706264876
 20
-503.7534694993759
 30
0.0
 11
212.5885914107635
 21
-503.0890653425207
 31
0.0
  0
LINE
  5
26A53
  8
0
 10
212.7665942972642
 20
-514.7534647652205
 30
0.0
 11
213.5165942972642
 21
-514.9034647652206
 31
0.0
  0
LINE
  5
26A54
  8
0
 10
208.5165942972642
 20
-511.9034647652206
 30
0.0
 11
209.2665942972642
 21
-512.0534647652206
 31
0.0
  0
LINE
  5
26A55
  8
0
 10
208.5165942972642
 20
-513.9034647652206
 30
0.0
 11
209.2665942972642
 21
-514.0534647652206
 31
0.0
  0
LINE
  5
26A56
  8
0
 10
208.5165942972642
 20
-513.9034647652206
 30
0.0
 11
213.5165942972642
 21
-512.9034647652206
 31
0.0
  0
LINE
  5
26A57
  8
0
 10
208.5165942972642
 20
-509.9034647652206
 30
0.0
 11
209.2665942972642
 21
-510.0534647652206
 31
0.0
  0
LINE
  5
26A58
  8
0
 10
208.5165942972642
 20
-507.9034647652206
 30
0.0
 11
209.2665942972642
 21
-508.0534647652206
 31
0.0
  0
LINE
  5
26A59
  8
0
 10
208.5165942972642
 20
-507.9034647652206
 30
0.0
 11
213.5165942972642
 21
-506.9034647652206
 31
0.0
  0
LINE
  5
26A5A
  8
0
 10
208.5165942972642
 20
-509.9034647652206
 30
0.0
 11
213.5165942972642
 21
-508.9034647652206
 31
0.0
  0
LINE
  5
26A5B
  8
0
 10
208.5165942972642
 20
-511.9034647652206
 30
0.0
 11
213.5165942972642
 21
-510.9034647652206
 31
0.0
  0
LINE
  5
26A5C
  8
0
 10
212.7665942972642
 20
-506.7534647652205
 30
0.0
 11
213.5165942972642
 21
-506.9034647652206
 31
0.0
  0
LINE
  5
26A5D
  8
0
 10
212.7665942972642
 20
-508.7534647652205
 30
0.0
 11
213.5165942972642
 21
-508.9034647652206
 31
0.0
  0
LINE
  5
26A5E
  8
0
 10
212.7665942972642
 20
-512.7534647652205
 30
0.0
 11
213.5165942972642
 21
-512.9034647652206
 31
0.0
  0
LINE
  5
26A5F
  8
0
 10
212.7665942972642
 20
-510.7534647652205
 30
0.0
 11
213.5165942972642
 21
-510.9034647652206
 31
0.0
  0
LINE
  5
26A60
  8
0
 10
208.5165942972642
 20
-517.9034647652206
 30
0.0
 11
209.2665942972642
 21
-518.0534647652206
 31
0.0
  0
LINE
  5
26A61
  8
0
 10
208.5165942972642
 20
-515.9034647652206
 30
0.0
 11
209.2665942972642
 21
-516.0534647652206
 31
0.0
  0
LINE
  5
26A62
  8
0
 10
208.5165942972642
 20
-521.9034647652206
 30
0.0
 11
209.2665942972642
 21
-522.0534647652206
 31
0.0
  0
LINE
  5
26A63
  8
0
 10
208.5165942972642
 20
-519.9034647652206
 30
0.0
 11
209.2665942972642
 21
-520.0534647652206
 31
0.0
  0
LINE
  5
26A64
  8
0
 10
208.5165942972642
 20
-515.9034647652206
 30
0.0
 11
213.5165942972642
 21
-514.9034647652206
 31
0.0
  0
LINE
  5
26A65
  8
0
 10
208.5165942972642
 20
-517.9034647652206
 30
0.0
 11
213.5165942972642
 21
-516.9034647652206
 31
0.0
  0
LINE
  5
26A66
  8
0
 10
208.5165942972642
 20
-519.9034647652206
 30
0.0
 11
213.5165942972642
 21
-518.9034647652206
 31
0.0
  0
LINE
  5
26A67
  8
0
 10
208.5165942972642
 20
-521.9034647652206
 30
0.0
 11
213.5165942972642
 21
-520.9034647652206
 31
0.0
  0
LINE
  5
26A68
  8
0
 10
212.7665942972642
 20
-518.7534647652205
 30
0.0
 11
213.5165942972642
 21
-518.9034647652206
 31
0.0
  0
LINE
  5
26A69
  8
0
 10
212.7665942972642
 20
-516.7534647652205
 30
0.0
 11
213.5165942972642
 21
-516.9034647652206
 31
0.0
  0
LINE
  5
26A6A
  8
0
 10
212.7665942972642
 20
-522.7534647652205
 30
0.0
 11
213.5165942972642
 21
-522.9034647652206
 31
0.0
  0
LINE
  5
26A6B
  8
0
 10
212.7665942972642
 20
-520.7534647652205
 30
0.0
 11
213.5165942972642
 21
-520.9034647652206
 31
0.0
  0
LINE
  5
26A6C
  8
0
 10
208.5165942972642
 20
-539.9034647652205
 30
0.0
 11
213.5165942972642
 21
-538.9034647652206
 31
0.0
  0
LINE
  5
26A6D
  8
0
 10
208.5165942972642
 20
-531.9034647652206
 30
0.0
 11
213.5165942972642
 21
-530.9034647652206
 31
0.0
  0
LINE
  5
26A6E
  8
0
 10
208.5165942972642
 20
-523.9034647652206
 30
0.0
 11
209.2665942972642
 21
-524.0534647652206
 31
0.0
  0
LINE
  5
26A6F
  8
0
 10
208.5165942972642
 20
-525.9034647652206
 30
0.0
 11
209.2665942972642
 21
-526.0534647652206
 31
0.0
  0
LINE
  5
26A70
  8
0
 10
208.5165942972642
 20
-527.9034647652206
 30
0.0
 11
209.2665942972642
 21
-528.0534647652206
 31
0.0
  0
LINE
  5
26A71
  8
0
 10
208.5165942972642
 20
-529.9034647652206
 30
0.0
 11
209.2665942972642
 21
-530.0534647652206
 31
0.0
  0
LINE
  5
26A72
  8
0
 10
208.5165942972642
 20
-525.9034647652206
 30
0.0
 11
213.5165942972642
 21
-524.9034647652206
 31
0.0
  0
LINE
  5
26A73
  8
0
 10
208.5165942972642
 20
-527.9034647652206
 30
0.0
 11
213.5165942972642
 21
-526.9034647652206
 31
0.0
  0
LINE
  5
26A74
  8
0
 10
208.5165942972642
 20
-529.9034647652206
 30
0.0
 11
213.5165942972642
 21
-528.9034647652206
 31
0.0
  0
LINE
  5
26A75
  8
0
 10
212.7665942972642
 20
-524.7534647652205
 30
0.0
 11
213.5165942972642
 21
-524.9034647652206
 31
0.0
  0
LINE
  5
26A76
  8
0
 10
212.7665942972642
 20
-526.7534647652205
 30
0.0
 11
213.5165942972642
 21
-526.9034647652206
 31
0.0
  0
LINE
  5
26A77
  8
0
 10
212.7665942972642
 20
-528.7534647652205
 30
0.0
 11
213.5165942972642
 21
-528.9034647652206
 31
0.0
  0
LINE
  5
26A78
  8
0
 10
212.7665942972642
 20
-530.7534647652205
 30
0.0
 11
213.5165942972642
 21
-530.9034647652206
 31
0.0
  0
LINE
  5
26A79
  8
0
 10
208.5165942972642
 20
-535.9034647652205
 30
0.0
 11
209.2665942972642
 21
-536.0534647652206
 31
0.0
  0
LINE
  5
26A7A
  8
0
 10
208.5165942972642
 20
-533.9034647652205
 30
0.0
 11
209.2665942972642
 21
-534.0534647652206
 31
0.0
  0
LINE
  5
26A7B
  8
0
 10
208.5165942972642
 20
-531.9034647652206
 30
0.0
 11
209.2665942972642
 21
-532.0534647652206
 31
0.0
  0
LINE
  5
26A7C
  8
0
 10
208.5165942972642
 20
-537.9034647652205
 30
0.0
 11
209.2665942972642
 21
-538.0534647652206
 31
0.0
  0
LINE
  5
26A7D
  8
0
 10
208.5165942972642
 20
-533.9034647652205
 30
0.0
 11
213.5165942972642
 21
-532.9034647652206
 31
0.0
  0
LINE
  5
26A7E
  8
0
 10
208.5165942972642
 20
-535.9034647652205
 30
0.0
 11
213.5165942972642
 21
-534.9034647652206
 31
0.0
  0
LINE
  5
26A7F
  8
0
 10
208.5165942972642
 20
-537.9034647652205
 30
0.0
 11
213.5165942972642
 21
-536.9034647652206
 31
0.0
  0
LINE
  5
26A80
  8
0
 10
212.7665942972642
 20
-534.7534647652205
 30
0.0
 11
213.5165942972642
 21
-534.9034647652206
 31
0.0
  0
LINE
  5
26A81
  8
0
 10
212.7665942972642
 20
-532.7534647652205
 30
0.0
 11
213.5165942972642
 21
-532.9034647652206
 31
0.0
  0
LINE
  5
26A82
  8
0
 10
212.7665942972642
 20
-536.7534647652205
 30
0.0
 11
213.5165942972642
 21
-536.9034647652206
 31
0.0
  0
LINE
  5
26A83
  8
0
 10
212.7665942972642
 20
-538.7534647652205
 30
0.0
 11
213.5165942972642
 21
-538.9034647652206
 31
0.0
  0
LINE
  5
26A84
  8
0
 10
208.5165942972642
 20
-539.9034647652205
 30
0.0
 11
209.2665942972642
 21
-540.0534647652206
 31
0.0
  0
LINE
  5
26A85
  8
0
 10
212.7665942972642
 20
-540.0213303512664
 30
0.0
 11
209.2665942972642
 21
-540.0213303512664
 31
0.0
  0
LINE
  5
26A86
  8
0
 10
188.5157797633149
 20
-523.9034647652206
 30
0.0
 11
193.5157797633149
 21
-522.9034647652206
 31
0.0
  0
LINE
  5
26A87
  8
1CENTER
 10
191.0157797633149
 20
-498.5749771207184
 30
0.0
 11
191.0157797633149
 21
-545.0042831014125
 31
0.0
  0
LINE
  5
26A89
  8
0
 10
188.699512822279
 20
-505.8667181534278
 30
0.0
 11
189.449512822279
 21
-506.0167181534277
 31
0.0
  0
LINE
  5
26A8A
  8
0
 10
188.699512822279
 20
-505.8667181534278
 30
0.0
 11
193.0964173033697
 21
-504.9873372572096
 31
0.0
  0
LINE
  5
26A8B
  8
0
 10
191.3291364502586
 20
-501.0407934278318
 30
0.0
 11
192.0791364502586
 21
-501.1907934278319
 31
0.0
  0
LINE
  5
26A8C
  8
0
 10
189.8319993627977
 20
-501.6402208453241
 30
0.0
 11
190.5819993627977
 21
-501.790220845324
 31
0.0
  0
LINE
  5
26A8D
  8
0
 10
189.8319993627977
 20
-501.6402208453241
 30
0.0
 11
192.0791364502585
 21
-501.1907934278318
 31
0.0
  0
LINE
  5
26A8E
  8
0
 10
192.3464173033697
 20
-504.8373372572096
 30
0.0
 11
193.0964173033697
 21
-504.9873372572096
 31
0.0
  0
LINE
  5
26A8F
  8
0
 10
191.8377768768141
 20
-502.9390653425207
 30
0.0
 11
192.5877768768141
 21
-503.0890653425207
 31
0.0
  0
LINE
  5
26A90
  8
0
 10
189.2657560925384
 20
-503.7534694993759
 30
0.0
 11
190.0157560925384
 21
-503.9034694993759
 31
0.0
  0
LINE
  5
26A91
  8
0
 10
189.2657560925383
 20
-503.7534694993759
 30
0.0
 11
192.5877768768142
 21
-503.0890653425207
 31
0.0
  0
LINE
  5
26A92
  8
0
 10
192.7657797633149
 20
-514.7534647652205
 30
0.0
 11
193.5157797633149
 21
-514.9034647652206
 31
0.0
  0
LINE
  5
26A93
  8
0
 10
188.5157797633149
 20
-511.9034647652206
 30
0.0
 11
189.2657797633149
 21
-512.0534647652206
 31
0.0
  0
LINE
  5
26A94
  8
0
 10
188.5157797633149
 20
-513.9034647652206
 30
0.0
 11
189.2657797633149
 21
-514.0534647652206
 31
0.0
  0
LINE
  5
26A95
  8
0
 10
188.5157797633149
 20
-513.9034647652206
 30
0.0
 11
193.5157797633149
 21
-512.9034647652206
 31
0.0
  0
LINE
  5
26A96
  8
0
 10
188.5157797633149
 20
-509.9034647652206
 30
0.0
 11
189.2657797633149
 21
-510.0534647652206
 31
0.0
  0
LINE
  5
26A97
  8
0
 10
188.5157797633149
 20
-507.9034647652206
 30
0.0
 11
189.2657797633149
 21
-508.0534647652206
 31
0.0
  0
LINE
  5
26A98
  8
0
 10
188.5157797633149
 20
-507.9034647652206
 30
0.0
 11
193.5157797633149
 21
-506.9034647652206
 31
0.0
  0
LINE
  5
26A99
  8
0
 10
188.5157797633149
 20
-509.9034647652206
 30
0.0
 11
193.5157797633149
 21
-508.9034647652206
 31
0.0
  0
LINE
  5
26A9A
  8
0
 10
188.5157797633149
 20
-511.9034647652206
 30
0.0
 11
193.5157797633149
 21
-510.9034647652206
 31
0.0
  0
LINE
  5
26A9B
  8
0
 10
192.7657797633149
 20
-506.7534647652205
 30
0.0
 11
193.5157797633149
 21
-506.9034647652206
 31
0.0
  0
LINE
  5
26A9C
  8
0
 10
192.7657797633149
 20
-508.7534647652205
 30
0.0
 11
193.5157797633149
 21
-508.9034647652206
 31
0.0
  0
LINE
  5
26A9D
  8
0
 10
192.7657797633149
 20
-512.7534647652205
 30
0.0
 11
193.5157797633149
 21
-512.9034647652206
 31
0.0
  0
LINE
  5
26A9E
  8
0
 10
192.7657797633149
 20
-510.7534647652205
 30
0.0
 11
193.5157797633149
 21
-510.9034647652206
 31
0.0
  0
LINE
  5
26A9F
  8
0
 10
188.5157797633149
 20
-517.9034647652206
 30
0.0
 11
189.2657797633149
 21
-518.0534647652206
 31
0.0
  0
LINE
  5
26AA0
  8
0
 10
188.5157797633149
 20
-515.9034647652206
 30
0.0
 11
189.2657797633149
 21
-516.0534647652206
 31
0.0
  0
LINE
  5
26AA1
  8
0
 10
188.5157797633149
 20
-521.9034647652206
 30
0.0
 11
189.2657797633149
 21
-522.0534647652206
 31
0.0
  0
LINE
  5
26AA2
  8
0
 10
188.5157797633149
 20
-519.9034647652206
 30
0.0
 11
189.2657797633149
 21
-520.0534647652206
 31
0.0
  0
LINE
  5
26AA3
  8
0
 10
188.5157797633149
 20
-515.9034647652206
 30
0.0
 11
193.5157797633149
 21
-514.9034647652206
 31
0.0
  0
LINE
  5
26AA4
  8
0
 10
188.5157797633149
 20
-517.9034647652206
 30
0.0
 11
193.5157797633149
 21
-516.9034647652206
 31
0.0
  0
LINE
  5
26AA5
  8
0
 10
188.5157797633149
 20
-519.9034647652206
 30
0.0
 11
193.5157797633149
 21
-518.9034647652206
 31
0.0
  0
LINE
  5
26AA6
  8
0
 10
188.5157797633149
 20
-521.9034647652206
 30
0.0
 11
193.5157797633149
 21
-520.9034647652206
 31
0.0
  0
LINE
  5
26AA7
  8
0
 10
192.7657797633149
 20
-518.7534647652205
 30
0.0
 11
193.5157797633149
 21
-518.9034647652206
 31
0.0
  0
LINE
  5
26AA8
  8
0
 10
192.7657797633149
 20
-516.7534647652205
 30
0.0
 11
193.5157797633149
 21
-516.9034647652206
 31
0.0
  0
LINE
  5
26AA9
  8
0
 10
192.7657797633149
 20
-522.7534647652205
 30
0.0
 11
193.5157797633149
 21
-522.9034647652206
 31
0.0
  0
LINE
  5
26AAA
  8
0
 10
192.7657797633149
 20
-520.7534647652205
 30
0.0
 11
193.5157797633149
 21
-520.9034647652206
 31
0.0
  0
LINE
  5
26AAB
  8
0
 10
188.5157797633149
 20
-539.9034647652205
 30
0.0
 11
193.5157797633149
 21
-538.9034647652206
 31
0.0
  0
LINE
  5
26AAC
  8
0
 10
188.5157797633149
 20
-531.9034647652206
 30
0.0
 11
193.5157797633149
 21
-530.9034647652206
 31
0.0
  0
LINE
  5
26AAD
  8
0
 10
188.5157797633149
 20
-523.9034647652206
 30
0.0
 11
189.2657797633149
 21
-524.0534647652206
 31
0.0
  0
LINE
  5
26AAE
  8
0
 10
188.5157797633149
 20
-525.9034647652206
 30
0.0
 11
189.2657797633149
 21
-526.0534647652206
 31
0.0
  0
LINE
  5
26AAF
  8
0
 10
188.5157797633149
 20
-527.9034647652206
 30
0.0
 11
189.2657797633149
 21
-528.0534647652206
 31
0.0
  0
LINE
  5
26AB0
  8
0
 10
188.5157797633149
 20
-529.9034647652206
 30
0.0
 11
189.2657797633149
 21
-530.0534647652206
 31
0.0
  0
LINE
  5
26AB1
  8
0
 10
188.5157797633149
 20
-525.9034647652206
 30
0.0
 11
193.5157797633149
 21
-524.9034647652206
 31
0.0
  0
LINE
  5
26AB2
  8
0
 10
188.5157797633149
 20
-527.9034647652206
 30
0.0
 11
193.5157797633149
 21
-526.9034647652206
 31
0.0
  0
LINE
  5
26AB3
  8
0
 10
188.5157797633149
 20
-529.9034647652206
 30
0.0
 11
193.5157797633149
 21
-528.9034647652206
 31
0.0
  0
LINE
  5
26AB4
  8
0
 10
192.7657797633149
 20
-524.7534647652205
 30
0.0
 11
193.5157797633149
 21
-524.9034647652206
 31
0.0
  0
LINE
  5
26AB5
  8
0
 10
192.7657797633149
 20
-526.7534647652205
 30
0.0
 11
193.5157797633149
 21
-526.9034647652206
 31
0.0
  0
LINE
  5
26AB6
  8
0
 10
192.7657797633149
 20
-528.7534647652205
 30
0.0
 11
193.5157797633149
 21
-528.9034647652206
 31
0.0
  0
LINE
  5
26AB7
  8
0
 10
192.7657797633149
 20
-530.7534647652205
 30
0.0
 11
193.5157797633149
 21
-530.9034647652206
 31
0.0
  0
LINE
  5
26AB8
  8
0
 10
188.5157797633149
 20
-535.9034647652205
 30
0.0
 11
189.2657797633149
 21
-536.0534647652206
 31
0.0
  0
LINE
  5
26AB9
  8
0
 10
188.5157797633149
 20
-533.9034647652205
 30
0.0
 11
189.2657797633149
 21
-534.0534647652206
 31
0.0
  0
LINE
  5
26ABA
  8
0
 10
188.5157797633149
 20
-531.9034647652206
 30
0.0
 11
189.2657797633149
 21
-532.0534647652206
 31
0.0
  0
LINE
  5
26ABB
  8
0
 10
188.5157797633149
 20
-537.9034647652205
 30
0.0
 11
189.2657797633149
 21
-538.0534647652206
 31
0.0
  0
LINE
  5
26ABC
  8
0
 10
188.5157797633149
 20
-533.9034647652205
 30
0.0
 11
193.5157797633149
 21
-532.9034647652206
 31
0.0
  0
LINE
  5
26ABD
  8
0
 10
188.5157797633149
 20
-535.9034647652205
 30
0.0
 11
193.5157797633149
 21
-534.9034647652206
 31
0.0
  0
LINE
  5
26ABE
  8
0
 10
188.5157797633149
 20
-537.9034647652205
 30
0.0
 11
193.5157797633149
 21
-536.9034647652206
 31
0.0
  0
LINE
  5
26ABF
  8
0
 10
192.7657797633149
 20
-534.7534647652205
 30
0.0
 11
193.5157797633149
 21
-534.9034647652206
 31
0.0
  0
LINE
  5
26AC0
  8
0
 10
192.7657797633149
 20
-532.7534647652205
 30
0.0
 11
193.5157797633149
 21
-532.9034647652206
 31
0.0
  0
LINE
  5
26AC1
  8
0
 10
192.7657797633149
 20
-536.7534647652205
 30
0.0
 11
193.5157797633149
 21
-536.9034647652206
 31
0.0
  0
LINE
  5
26AC2
  8
0
 10
192.7657797633149
 20
-538.7534647652205
 30
0.0
 11
193.5157797633149
 21
-538.9034647652206
 31
0.0
  0
LINE
  5
26AC3
  8
0
 10
188.5157797633149
 20
-539.9034647652205
 30
0.0
 11
189.2657797633149
 21
-540.0534647652206
 31
0.0
  0
LINE
  5
26AC4
  8
0
 10
192.7657797633149
 20
-540.0213303512664
 30
0.0
 11
189.2657797633149
 21
-540.0213303512664
 31
0.0
  0
LINE
  5
26AC5
  8
0
 10
774.934107201411
 20
-653.3213303512653
 30
0.0
 11
775.934107201411
 21
-658.3213303512653
 31
0.0
  0
LINE
  5
26AC6
  8
1CENTER
 10
800.2625948459133
 20
-655.8213303512653
 30
0.0
 11
753.8332888652192
 21
-655.8213303512653
 31
0.0
  0
LINE
  5
26AC8
  8
0
 10
792.9708538132039
 20
-653.5050634102295
 30
0.0
 11
792.8208538132039
 21
-654.2550634102295
 31
0.0
  0
LINE
  5
26AC9
  8
0
 10
792.9708538132039
 20
-653.5050634102294
 30
0.0
 11
793.8502347094221
 21
-657.9019678913202
 31
0.0
  0
LINE
  5
26ACA
  8
0
 10
797.7967785387998
 20
-656.134687038209
 30
0.0
 11
797.6467785387998
 21
-656.884687038209
 31
0.0
  0
LINE
  5
26ACB
  8
0
 10
797.1973511213076
 20
-654.6375499507482
 30
0.0
 11
797.0473511213077
 21
-655.3875499507482
 31
0.0
  0
LINE
  5
26ACC
  8
0
 10
797.1973511213076
 20
-654.6375499507482
 30
0.0
 11
797.6467785387999
 21
-656.884687038209
 31
0.0
  0
LINE
  5
26ACD
  8
0
 10
794.0002347094221
 20
-657.1519678913202
 30
0.0
 11
793.8502347094221
 21
-657.9019678913202
 31
0.0
  0
LINE
  5
26ACE
  8
0
 10
795.898506624111
 20
-656.6433274647645
 30
0.0
 11
795.748506624111
 21
-657.3933274647645
 31
0.0
  0
LINE
  5
26ACF
  8
0
 10
795.0841024672558
 20
-654.0713066804888
 30
0.0
 11
794.9341024672558
 21
-654.8213066804888
 31
0.0
  0
LINE
  5
26AD0
  8
0
 10
795.0841024672558
 20
-654.0713066804888
 30
0.0
 11
795.748506624111
 21
-657.3933274647646
 31
0.0
  0
LINE
  5
26AD1
  8
0
 10
784.0841072014111
 20
-657.5713303512653
 30
0.0
 11
783.934107201411
 21
-658.3213303512653
 31
0.0
  0
LINE
  5
26AD2
  8
0
 10
786.934107201411
 20
-653.3213303512653
 30
0.0
 11
786.7841072014111
 21
-654.0713303512653
 31
0.0
  0
LINE
  5
26AD3
  8
0
 10
784.934107201411
 20
-653.3213303512653
 30
0.0
 11
784.7841072014111
 21
-654.0713303512653
 31
0.0
  0
LINE
  5
26AD4
  8
0
 10
784.934107201411
 20
-653.3213303512653
 30
0.0
 11
785.934107201411
 21
-658.3213303512653
 31
0.0
  0
LINE
  5
26AD5
  8
0
 10
788.934107201411
 20
-653.3213303512653
 30
0.0
 11
788.7841072014111
 21
-654.0713303512653
 31
0.0
  0
LINE
  5
26AD6
  8
0
 10
790.934107201411
 20
-653.3213303512653
 30
0.0
 11
790.7841072014111
 21
-654.0713303512653
 31
0.0
  0
LINE
  5
26AD7
  8
0
 10
790.934107201411
 20
-653.3213303512653
 30
0.0
 11
791.934107201411
 21
-658.3213303512653
 31
0.0
  0
LINE
  5
26AD8
  8
0
 10
788.934107201411
 20
-653.3213303512653
 30
0.0
 11
789.934107201411
 21
-658.3213303512653
 31
0.0
  0
LINE
  5
26AD9
  8
0
 10
786.934107201411
 20
-653.3213303512653
 30
0.0
 11
787.934107201411
 21
-658.3213303512653
 31
0.0
  0
LINE
  5
26ADA
  8
0
 10
792.0841072014111
 20
-657.5713303512653
 30
0.0
 11
791.934107201411
 21
-658.3213303512653
 31
0.0
  0
LINE
  5
26ADB
  8
0
 10
790.0841072014111
 20
-657.5713303512653
 30
0.0
 11
789.934107201411
 21
-658.3213303512653
 31
0.0
  0
LINE
  5
26ADC
  8
0
 10
786.0841072014111
 20
-657.5713303512653
 30
0.0
 11
785.934107201411
 21
-658.3213303512653
 31
0.0
  0
LINE
  5
26ADD
  8
0
 10
788.0841072014111
 20
-657.5713303512653
 30
0.0
 11
787.934107201411
 21
-658.3213303512653
 31
0.0
  0
LINE
  5
26ADE
  8
0
 10
780.934107201411
 20
-653.3213303512653
 30
0.0
 11
780.7841072014111
 21
-654.0713303512653
 31
0.0
  0
LINE
  5
26ADF
  8
0
 10
782.934107201411
 20
-653.3213303512653
 30
0.0
 11
782.7841072014111
 21
-654.0713303512653
 31
0.0
  0
LINE
  5
26AE0
  8
0
 10
776.934107201411
 20
-653.3213303512653
 30
0.0
 11
776.7841072014111
 21
-654.0713303512653
 31
0.0
  0
LINE
  5
26AE1
  8
0
 10
778.934107201411
 20
-653.3213303512653
 30
0.0
 11
778.7841072014111
 21
-654.0713303512653
 31
0.0
  0
LINE
  5
26AE2
  8
0
 10
782.934107201411
 20
-653.3213303512653
 30
0.0
 11
783.934107201411
 21
-658.3213303512653
 31
0.0
  0
LINE
  5
26AE3
  8
0
 10
780.934107201411
 20
-653.3213303512653
 30
0.0
 11
781.934107201411
 21
-658.3213303512653
 31
0.0
  0
LINE
  5
26AE4
  8
0
 10
778.934107201411
 20
-653.3213303512653
 30
0.0
 11
779.934107201411
 21
-658.3213303512653
 31
0.0
  0
LINE
  5
26AE5
  8
0
 10
776.934107201411
 20
-653.3213303512653
 30
0.0
 11
777.934107201411
 21
-658.3213303512653
 31
0.0
  0
LINE
  5
26AE6
  8
0
 10
780.0841072014111
 20
-657.5713303512653
 30
0.0
 11
779.934107201411
 21
-658.3213303512653
 31
0.0
  0
LINE
  5
26AE7
  8
0
 10
782.0841072014111
 20
-657.5713303512653
 30
0.0
 11
781.934107201411
 21
-658.3213303512653
 31
0.0
  0
LINE
  5
26AE8
  8
0
 10
776.0841072014111
 20
-657.5713303512653
 30
0.0
 11
775.934107201411
 21
-658.3213303512653
 31
0.0
  0
LINE
  5
26AE9
  8
0
 10
778.0841072014111
 20
-657.5713303512653
 30
0.0
 11
777.934107201411
 21
-658.3213303512653
 31
0.0
  0
LINE
  5
26AEA
  8
0
 10
758.9341072014112
 20
-653.3213303512653
 30
0.0
 11
759.934107201411
 21
-658.3213303512653
 31
0.0
  0
LINE
  5
26AEB
  8
0
 10
766.9341072014112
 20
-653.3213303512653
 30
0.0
 11
767.934107201411
 21
-658.3213303512653
 31
0.0
  0
LINE
  5
26AEC
  8
0
 10
774.934107201411
 20
-653.3213303512653
 30
0.0
 11
774.7841072014111
 21
-654.0713303512653
 31
0.0
  0
LINE
  5
26AED
  8
0
 10
772.9341072014112
 20
-653.3213303512653
 30
0.0
 11
772.7841072014111
 21
-654.0713303512653
 31
0.0
  0
LINE
  5
26AEE
  8
0
 10
770.9341072014112
 20
-653.3213303512653
 30
0.0
 11
770.7841072014111
 21
-654.0713303512653
 31
0.0
  0
LINE
  5
26AEF
  8
0
 10
768.9341072014112
 20
-653.3213303512653
 30
0.0
 11
768.7841072014111
 21
-654.0713303512653
 31
0.0
  0
LINE
  5
26AF0
  8
0
 10
772.9341072014112
 20
-653.3213303512653
 30
0.0
 11
773.934107201411
 21
-658.3213303512653
 31
0.0
  0
LINE
  5
26AF1
  8
0
 10
770.9341072014112
 20
-653.3213303512653
 30
0.0
 11
771.934107201411
 21
-658.3213303512653
 31
0.0
  0
LINE
  5
26AF2
  8
0
 10
768.9341072014112
 20
-653.3213303512653
 30
0.0
 11
769.934107201411
 21
-658.3213303512653
 31
0.0
  0
LINE
  5
26AF3
  8
0
 10
774.0841072014111
 20
-657.5713303512653
 30
0.0
 11
773.934107201411
 21
-658.3213303512653
 31
0.0
  0
LINE
  5
26AF4
  8
0
 10
772.0841072014111
 20
-657.5713303512653
 30
0.0
 11
771.934107201411
 21
-658.3213303512653
 31
0.0
  0
LINE
  5
26AF5
  8
0
 10
770.0841072014111
 20
-657.5713303512653
 30
0.0
 11
769.934107201411
 21
-658.3213303512653
 31
0.0
  0
LINE
  5
26AF6
  8
0
 10
768.0841072014111
 20
-657.5713303512653
 30
0.0
 11
767.934107201411
 21
-658.3213303512653
 31
0.0
  0
LINE
  5
26AF7
  8
0
 10
762.9341072014112
 20
-653.3213303512653
 30
0.0
 11
762.7841072014111
 21
-654.0713303512653
 31
0.0
  0
LINE
  5
26AF8
  8
0
 10
764.9341072014112
 20
-653.3213303512653
 30
0.0
 11
764.7841072014111
 21
-654.0713303512653
 31
0.0
  0
LINE
  5
26AF9
  8
0
 10
766.9341072014112
 20
-653.3213303512653
 30
0.0
 11
766.7841072014111
 21
-654.0713303512653
 31
0.0
  0
LINE
  5
26AFA
  8
0
 10
760.9341072014112
 20
-653.3213303512653
 30
0.0
 11
760.7841072014111
 21
-654.0713303512653
 31
0.0
  0
LINE
  5
26AFB
  8
0
 10
764.9341072014112
 20
-653.3213303512653
 30
0.0
 11
765.934107201411
 21
-658.3213303512653
 31
0.0
  0
LINE
  5
26AFC
  8
0
 10
762.9341072014112
 20
-653.3213303512653
 30
0.0
 11
763.934107201411
 21
-658.3213303512653
 31
0.0
  0
LINE
  5
26AFD
  8
0
 10
760.9341072014112
 20
-653.3213303512653
 30
0.0
 11
761.934107201411
 21
-658.3213303512653
 31
0.0
  0
LINE
  5
26AFE
  8
0
 10
764.0841072014111
 20
-657.5713303512653
 30
0.0
 11
763.934107201411
 21
-658.3213303512653
 31
0.0
  0
LINE
  5
26AFF
  8
0
 10
766.0841072014111
 20
-657.5713303512653
 30
0.0
 11
765.934107201411
 21
-658.3213303512653
 31
0.0
  0
LINE
  5
26B00
  8
0
 10
762.0841072014111
 20
-657.5713303512653
 30
0.0
 11
761.934107201411
 21
-658.3213303512653
 31
0.0
  0
LINE
  5
26B01
  8
0
 10
760.0841072014111
 20
-657.5713303512653
 30
0.0
 11
759.934107201411
 21
-658.3213303512653
 31
0.0
  0
LINE
  5
26B02
  8
0
 10
758.9341072014112
 20
-653.3213303512653
 30
0.0
 11
758.7841072014111
 21
-654.0713303512653
 31
0.0
  0
LINE
  5
26B03
  8
0
 10
758.8162416153652
 20
-657.5713303512653
 30
0.0
 11
758.8162416153652
 21
-654.0713303512653
 31
0.0
  0
LINE
  5
26B04
  8
0
 10
613.5158143860356
 20
-523.9034647652206
 30
0.0
 11
618.5158143860356
 21
-522.9034647652206
 31
0.0
  0
LINE
  5
26B05
  8
1CENTER
 10
616.0158143860356
 20
-498.5749771207184
 30
0.0
 11
616.0158143860356
 21
-545.0042831014125
 31
0.0
  0
LINE
  5
26B07
  8
0
 10
613.6995474449998
 20
-505.8667181534278
 30
0.0
 11
614.4495474449998
 21
-506.0167181534277
 31
0.0
  0
LINE
  5
26B08
  8
0
 10
613.6995474449997
 20
-505.8667181534278
 30
0.0
 11
618.0964519260905
 21
-504.9873372572096
 31
0.0
  0
LINE
  5
26B09
  8
0
 10
616.3291710729793
 20
-501.0407934278318
 30
0.0
 11
617.0791710729793
 21
-501.1907934278319
 31
0.0
  0
LINE
  5
26B0A
  8
0
 10
614.8320339855185
 20
-501.6402208453241
 30
0.0
 11
615.5820339855185
 21
-501.790220845324
 31
0.0
  0
LINE
  5
26B0B
  8
0
 10
614.8320339855185
 20
-501.6402208453241
 30
0.0
 11
617.0791710729793
 21
-501.1907934278318
 31
0.0
  0
LINE
  5
26B0C
  8
0
 10
617.3464519260905
 20
-504.8373372572096
 30
0.0
 11
618.0964519260905
 21
-504.9873372572096
 31
0.0
  0
LINE
  5
26B0D
  8
0
 10
616.8378114995348
 20
-502.9390653425207
 30
0.0
 11
617.5878114995348
 21
-503.0890653425207
 31
0.0
  0
LINE
  5
26B0E
  8
0
 10
614.2657907152591
 20
-503.7534694993759
 30
0.0
 11
615.0157907152591
 21
-503.9034694993759
 31
0.0
  0
LINE
  5
26B0F
  8
0
 10
614.2657907152591
 20
-503.7534694993759
 30
0.0
 11
617.587811499535
 21
-503.0890653425207
 31
0.0
  0
LINE
  5
26B10
  8
0
 10
617.7658143860356
 20
-514.7534647652205
 30
0.0
 11
618.5158143860356
 21
-514.9034647652206
 31
0.0
  0
LINE
  5
26B11
  8
0
 10
613.5158143860356
 20
-511.9034647652206
 30
0.0
 11
614.2658143860356
 21
-512.0534647652206
 31
0.0
  0
LINE
  5
26B12
  8
0
 10
613.5158143860356
 20
-513.9034647652206
 30
0.0
 11
614.2658143860356
 21
-514.0534647652206
 31
0.0
  0
LINE
  5
26B13
  8
0
 10
613.5158143860356
 20
-513.9034647652206
 30
0.0
 11
618.5158143860356
 21
-512.9034647652206
 31
0.0
  0
LINE
  5
26B14
  8
0
 10
613.5158143860356
 20
-509.9034647652206
 30
0.0
 11
614.2658143860356
 21
-510.0534647652206
 31
0.0
  0
LINE
  5
26B15
  8
0
 10
613.5158143860356
 20
-507.9034647652206
 30
0.0
 11
614.2658143860356
 21
-508.0534647652206
 31
0.0
  0
LINE
  5
26B16
  8
0
 10
613.5158143860356
 20
-507.9034647652206
 30
0.0
 11
618.5158143860356
 21
-506.9034647652206
 31
0.0
  0
LINE
  5
26B17
  8
0
 10
613.5158143860356
 20
-509.9034647652206
 30
0.0
 11
618.5158143860356
 21
-508.9034647652206
 31
0.0
  0
LINE
  5
26B18
  8
0
 10
613.5158143860356
 20
-511.9034647652206
 30
0.0
 11
618.5158143860356
 21
-510.9034647652206
 31
0.0
  0
LINE
  5
26B19
  8
0
 10
617.7658143860356
 20
-506.7534647652205
 30
0.0
 11
618.5158143860356
 21
-506.9034647652206
 31
0.0
  0
LINE
  5
26B1A
  8
0
 10
617.7658143860356
 20
-508.7534647652205
 30
0.0
 11
618.5158143860356
 21
-508.9034647652206
 31
0.0
  0
LINE
  5
26B1B
  8
0
 10
617.7658143860356
 20
-512.7534647652205
 30
0.0
 11
618.5158143860356
 21
-512.9034647652206
 31
0.0
  0
LINE
  5
26B1C
  8
0
 10
617.7658143860356
 20
-510.7534647652205
 30
0.0
 11
618.5158143860356
 21
-510.9034647652206
 31
0.0
  0
LINE
  5
26B1D
  8
0
 10
613.5158143860356
 20
-517.9034647652206
 30
0.0
 11
614.2658143860356
 21
-518.0534647652206
 31
0.0
  0
LINE
  5
26B1E
  8
0
 10
613.5158143860356
 20
-515.9034647652206
 30
0.0
 11
614.2658143860356
 21
-516.0534647652206
 31
0.0
  0
LINE
  5
26B1F
  8
0
 10
613.5158143860356
 20
-521.9034647652206
 30
0.0
 11
614.2658143860356
 21
-522.0534647652206
 31
0.0
  0
LINE
  5
26B20
  8
0
 10
613.5158143860356
 20
-519.9034647652206
 30
0.0
 11
614.2658143860356
 21
-520.0534647652206
 31
0.0
  0
LINE
  5
26B21
  8
0
 10
613.5158143860356
 20
-515.9034647652206
 30
0.0
 11
618.5158143860356
 21
-514.9034647652206
 31
0.0
  0
LINE
  5
26B22
  8
0
 10
613.5158143860356
 20
-517.9034647652206
 30
0.0
 11
618.5158143860356
 21
-516.9034647652206
 31
0.0
  0
LINE
  5
26B23
  8
0
 10
613.5158143860356
 20
-519.9034647652206
 30
0.0
 11
618.5158143860356
 21
-518.9034647652206
 31
0.0
  0
LINE
  5
26B24
  8
0
 10
613.5158143860356
 20
-521.9034647652206
 30
0.0
 11
618.5158143860356
 21
-520.9034647652206
 31
0.0
  0
LINE
  5
26B25
  8
0
 10
617.7658143860356
 20
-518.7534647652205
 30
0.0
 11
618.5158143860356
 21
-518.9034647652206
 31
0.0
  0
LINE
  5
26B26
  8
0
 10
617.7658143860356
 20
-516.7534647652205
 30
0.0
 11
618.5158143860356
 21
-516.9034647652206
 31
0.0
  0
LINE
  5
26B27
  8
0
 10
617.7658143860356
 20
-522.7534647652205
 30
0.0
 11
618.5158143860356
 21
-522.9034647652206
 31
0.0
  0
LINE
  5
26B28
  8
0
 10
617.7658143860356
 20
-520.7534647652205
 30
0.0
 11
618.5158143860356
 21
-520.9034647652206
 31
0.0
  0
LINE
  5
26B29
  8
0
 10
613.5158143860356
 20
-539.9034647652205
 30
0.0
 11
618.5158143860356
 21
-538.9034647652206
 31
0.0
  0
LINE
  5
26B2A
  8
0
 10
613.5158143860356
 20
-531.9034647652206
 30
0.0
 11
618.5158143860356
 21
-530.9034647652206
 31
0.0
  0
LINE
  5
26B2B
  8
0
 10
613.5158143860356
 20
-523.9034647652206
 30
0.0
 11
614.2658143860356
 21
-524.0534647652206
 31
0.0
  0
LINE
  5
26B2C
  8
0
 10
613.5158143860356
 20
-525.9034647652206
 30
0.0
 11
614.2658143860356
 21
-526.0534647652206
 31
0.0
  0
LINE
  5
26B2D
  8
0
 10
613.5158143860356
 20
-527.9034647652206
 30
0.0
 11
614.2658143860356
 21
-528.0534647652206
 31
0.0
  0
LINE
  5
26B2E
  8
0
 10
613.5158143860356
 20
-529.9034647652206
 30
0.0
 11
614.2658143860356
 21
-530.0534647652206
 31
0.0
  0
LINE
  5
26B2F
  8
0
 10
613.5158143860356
 20
-525.9034647652206
 30
0.0
 11
618.5158143860356
 21
-524.9034647652206
 31
0.0
  0
LINE
  5
26B30
  8
0
 10
613.5158143860356
 20
-527.9034647652206
 30
0.0
 11
618.5158143860356
 21
-526.9034647652206
 31
0.0
  0
LINE
  5
26B31
  8
0
 10
613.5158143860356
 20
-529.9034647652206
 30
0.0
 11
618.5158143860356
 21
-528.9034647652206
 31
0.0
  0
LINE
  5
26B32
  8
0
 10
617.7658143860356
 20
-524.7534647652205
 30
0.0
 11
618.5158143860356
 21
-524.9034647652206
 31
0.0
  0
LINE
  5
26B33
  8
0
 10
617.7658143860356
 20
-526.7534647652205
 30
0.0
 11
618.5158143860356
 21
-526.9034647652206
 31
0.0
  0
LINE
  5
26B34
  8
0
 10
617.7658143860356
 20
-528.7534647652205
 30
0.0
 11
618.5158143860356
 21
-528.9034647652206
 31
0.0
  0
LINE
  5
26B35
  8
0
 10
617.7658143860356
 20
-530.7534647652205
 30
0.0
 11
618.5158143860356
 21
-530.9034647652206
 31
0.0
  0
LINE
  5
26B36
  8
0
 10
613.5158143860356
 20
-535.9034647652205
 30
0.0
 11
614.2658143860356
 21
-536.0534647652206
 31
0.0
  0
LINE
  5
26B37
  8
0
 10
613.5158143860356
 20
-533.9034647652205
 30
0.0
 11
614.2658143860356
 21
-534.0534647652206
 31
0.0
  0
LINE
  5
26B38
  8
0
 10
613.5158143860356
 20
-531.9034647652206
 30
0.0
 11
614.2658143860356
 21
-532.0534647652206
 31
0.0
  0
LINE
  5
26B39
  8
0
 10
613.5158143860356
 20
-537.9034647652205
 30
0.0
 11
614.2658143860356
 21
-538.0534647652206
 31
0.0
  0
LINE
  5
26B3A
  8
0
 10
613.5158143860356
 20
-533.9034647652205
 30
0.0
 11
618.5158143860356
 21
-532.9034647652206
 31
0.0
  0
LINE
  5
26B3B
  8
0
 10
613.5158143860356
 20
-535.9034647652205
 30
0.0
 11
618.5158143860356
 21
-534.9034647652206
 31
0.0
  0
LINE
  5
26B3C
  8
0
 10
613.5158143860356
 20
-537.9034647652205
 30
0.0
 11
618.5158143860356
 21
-536.9034647652206
 31
0.0
  0
LINE
  5
26B3D
  8
0
 10
617.7658143860356
 20
-534.7534647652205
 30
0.0
 11
618.5158143860356
 21
-534.9034647652206
 31
0.0
  0
LINE
  5
26B3E
  8
0
 10
617.7658143860356
 20
-532.7534647652205
 30
0.0
 11
618.5158143860356
 21
-532.9034647652206
 31
0.0
  0
LINE
  5
26B3F
  8
0
 10
617.7658143860356
 20
-536.7534647652205
 30
0.0
 11
618.5158143860356
 21
-536.9034647652206
 31
0.0
  0
LINE
  5
26B40
  8
0
 10
617.7658143860356
 20
-538.7534647652205
 30
0.0
 11
618.5158143860356
 21
-538.9034647652206
 31
0.0
  0
LINE
  5
26B41
  8
0
 10
613.5158143860356
 20
-539.9034647652205
 30
0.0
 11
614.2658143860356
 21
-540.0534647652206
 31
0.0
  0
LINE
  5
26B42
  8
0
 10
617.7658143860356
 20
-540.0213303512664
 30
0.0
 11
614.2658143860356
 21
-540.0213303512664
 31
0.0
  0
LINE
  5
26B43
  8
0
 10
633.5166289199849
 20
-523.9034647652206
 30
0.0
 11
638.5166289199849
 21
-522.9034647652206
 31
0.0
  0
LINE
  5
26B44
  8
1CENTER
 10
636.0166289199849
 20
-498.5749771207184
 30
0.0
 11
636.0166289199849
 21
-545.0042831014125
 31
0.0
  0
LINE
  5
26B46
  8
0
 10
633.7003619789491
 20
-505.8667181534278
 30
0.0
 11
634.4503619789491
 21
-506.0167181534277
 31
0.0
  0
LINE
  5
26B47
  8
0
 10
633.700361978949
 20
-505.8667181534278
 30
0.0
 11
638.0972664600398
 21
-504.9873372572096
 31
0.0
  0
LINE
  5
26B48
  8
0
 10
636.3299856069286
 20
-501.0407934278318
 30
0.0
 11
637.0799856069286
 21
-501.1907934278319
 31
0.0
  0
LINE
  5
26B49
  8
0
 10
634.8328485194678
 20
-501.6402208453241
 30
0.0
 11
635.5828485194678
 21
-501.790220845324
 31
0.0
  0
LINE
  5
26B4A
  8
0
 10
634.8328485194678
 20
-501.6402208453241
 30
0.0
 11
637.0799856069286
 21
-501.1907934278318
 31
0.0
  0
LINE
  5
26B4B
  8
0
 10
637.3472664600398
 20
-504.8373372572096
 30
0.0
 11
638.0972664600398
 21
-504.9873372572096
 31
0.0
  0
LINE
  5
26B4C
  8
0
 10
636.8386260334842
 20
-502.9390653425207
 30
0.0
 11
637.5886260334842
 21
-503.0890653425207
 31
0.0
  0
LINE
  5
26B4D
  8
0
 10
634.2666052492084
 20
-503.7534694993759
 30
0.0
 11
635.0166052492084
 21
-503.9034694993759
 31
0.0
  0
LINE
  5
26B4E
  8
0
 10
634.2666052492084
 20
-503.7534694993759
 30
0.0
 11
637.5886260334843
 21
-503.0890653425207
 31
0.0
  0
LINE
  5
26B4F
  8
0
 10
637.7666289199849
 20
-514.7534647652205
 30
0.0
 11
638.5166289199849
 21
-514.9034647652206
 31
0.0
  0
LINE
  5
26B50
  8
0
 10
633.5166289199849
 20
-511.9034647652206
 30
0.0
 11
634.2666289199849
 21
-512.0534647652206
 31
0.0
  0
LINE
  5
26B51
  8
0
 10
633.5166289199849
 20
-513.9034647652206
 30
0.0
 11
634.2666289199849
 21
-514.0534647652206
 31
0.0
  0
LINE
  5
26B52
  8
0
 10
633.5166289199849
 20
-513.9034647652206
 30
0.0
 11
638.5166289199849
 21
-512.9034647652206
 31
0.0
  0
LINE
  5
26B53
  8
0
 10
633.5166289199849
 20
-509.9034647652206
 30
0.0
 11
634.2666289199849
 21
-510.0534647652206
 31
0.0
  0
LINE
  5
26B54
  8
0
 10
633.5166289199849
 20
-507.9034647652206
 30
0.0
 11
634.2666289199849
 21
-508.0534647652206
 31
0.0
  0
LINE
  5
26B55
  8
0
 10
633.5166289199849
 20
-507.9034647652206
 30
0.0
 11
638.5166289199849
 21
-506.9034647652206
 31
0.0
  0
LINE
  5
26B56
  8
0
 10
633.5166289199849
 20
-509.9034647652206
 30
0.0
 11
638.5166289199849
 21
-508.9034647652206
 31
0.0
  0
LINE
  5
26B57
  8
0
 10
633.5166289199849
 20
-511.9034647652206
 30
0.0
 11
638.5166289199849
 21
-510.9034647652206
 31
0.0
  0
LINE
  5
26B58
  8
0
 10
637.7666289199849
 20
-506.7534647652205
 30
0.0
 11
638.5166289199849
 21
-506.9034647652206
 31
0.0
  0
LINE
  5
26B59
  8
0
 10
637.7666289199849
 20
-508.7534647652205
 30
0.0
 11
638.5166289199849
 21
-508.9034647652206
 31
0.0
  0
LINE
  5
26B5A
  8
0
 10
637.7666289199849
 20
-512.7534647652205
 30
0.0
 11
638.5166289199849
 21
-512.9034647652206
 31
0.0
  0
LINE
  5
26B5B
  8
0
 10
637.7666289199849
 20
-510.7534647652205
 30
0.0
 11
638.5166289199849
 21
-510.9034647652206
 31
0.0
  0
LINE
  5
26B5C
  8
0
 10
633.5166289199849
 20
-517.9034647652206
 30
0.0
 11
634.2666289199849
 21
-518.0534647652206
 31
0.0
  0
LINE
  5
26B5D
  8
0
 10
633.5166289199849
 20
-515.9034647652206
 30
0.0
 11
634.2666289199849
 21
-516.0534647652206
 31
0.0
  0
LINE
  5
26B5E
  8
0
 10
633.5166289199849
 20
-521.9034647652206
 30
0.0
 11
634.2666289199849
 21
-522.0534647652206
 31
0.0
  0
LINE
  5
26B5F
  8
0
 10
633.5166289199849
 20
-519.9034647652206
 30
0.0
 11
634.2666289199849
 21
-520.0534647652206
 31
0.0
  0
LINE
  5
26B60
  8
0
 10
633.5166289199849
 20
-515.9034647652206
 30
0.0
 11
638.5166289199849
 21
-514.9034647652206
 31
0.0
  0
LINE
  5
26B61
  8
0
 10
633.5166289199849
 20
-517.9034647652206
 30
0.0
 11
638.5166289199849
 21
-516.9034647652206
 31
0.0
  0
LINE
  5
26B62
  8
0
 10
633.5166289199849
 20
-519.9034647652206
 30
0.0
 11
638.5166289199849
 21
-518.9034647652206
 31
0.0
  0
LINE
  5
26B63
  8
0
 10
633.5166289199849
 20
-521.9034647652206
 30
0.0
 11
638.5166289199849
 21
-520.9034647652206
 31
0.0
  0
LINE
  5
26B64
  8
0
 10
637.7666289199849
 20
-518.7534647652205
 30
0.0
 11
638.5166289199849
 21
-518.9034647652206
 31
0.0
  0
LINE
  5
26B65
  8
0
 10
637.7666289199849
 20
-516.7534647652205
 30
0.0
 11
638.5166289199849
 21
-516.9034647652206
 31
0.0
  0
LINE
  5
26B66
  8
0
 10
637.7666289199849
 20
-522.7534647652205
 30
0.0
 11
638.5166289199849
 21
-522.9034647652206
 31
0.0
  0
LINE
  5
26B67
  8
0
 10
637.7666289199849
 20
-520.7534647652205
 30
0.0
 11
638.5166289199849
 21
-520.9034647652206
 31
0.0
  0
LINE
  5
26B68
  8
0
 10
633.5166289199849
 20
-539.9034647652205
 30
0.0
 11
638.5166289199849
 21
-538.9034647652206
 31
0.0
  0
LINE
  5
26B69
  8
0
 10
633.5166289199849
 20
-531.9034647652206
 30
0.0
 11
638.5166289199849
 21
-530.9034647652206
 31
0.0
  0
LINE
  5
26B6A
  8
0
 10
633.5166289199849
 20
-523.9034647652206
 30
0.0
 11
634.2666289199849
 21
-524.0534647652206
 31
0.0
  0
LINE
  5
26B6B
  8
0
 10
633.5166289199849
 20
-525.9034647652206
 30
0.0
 11
634.2666289199849
 21
-526.0534647652206
 31
0.0
  0
LINE
  5
26B6C
  8
0
 10
633.5166289199849
 20
-527.9034647652206
 30
0.0
 11
634.2666289199849
 21
-528.0534647652206
 31
0.0
  0
LINE
  5
26B6D
  8
0
 10
633.5166289199849
 20
-529.9034647652206
 30
0.0
 11
634.2666289199849
 21
-530.0534647652206
 31
0.0
  0
LINE
  5
26B6E
  8
0
 10
633.5166289199849
 20
-525.9034647652206
 30
0.0
 11
638.5166289199849
 21
-524.9034647652206
 31
0.0
  0
LINE
  5
26B6F
  8
0
 10
633.5166289199849
 20
-527.9034647652206
 30
0.0
 11
638.5166289199849
 21
-526.9034647652206
 31
0.0
  0
LINE
  5
26B70
  8
0
 10
633.5166289199849
 20
-529.9034647652206
 30
0.0
 11
638.5166289199849
 21
-528.9034647652206
 31
0.0
  0
LINE
  5
26B71
  8
0
 10
637.7666289199849
 20
-524.7534647652205
 30
0.0
 11
638.5166289199849
 21
-524.9034647652206
 31
0.0
  0
LINE
  5
26B72
  8
0
 10
637.7666289199849
 20
-526.7534647652205
 30
0.0
 11
638.5166289199849
 21
-526.9034647652206
 31
0.0
  0
LINE
  5
26B73
  8
0
 10
637.7666289199849
 20
-528.7534647652205
 30
0.0
 11
638.5166289199849
 21
-528.9034647652206
 31
0.0
  0
LINE
  5
26B74
  8
0
 10
637.7666289199849
 20
-530.7534647652205
 30
0.0
 11
638.5166289199849
 21
-530.9034647652206
 31
0.0
  0
LINE
  5
26B75
  8
0
 10
633.5166289199849
 20
-535.9034647652205
 30
0.0
 11
634.2666289199849
 21
-536.0534647652206
 31
0.0
  0
LINE
  5
26B76
  8
0
 10
633.5166289199849
 20
-533.9034647652205
 30
0.0
 11
634.2666289199849
 21
-534.0534647652206
 31
0.0
  0
LINE
  5
26B77
  8
0
 10
633.5166289199849
 20
-531.9034647652206
 30
0.0
 11
634.2666289199849
 21
-532.0534647652206
 31
0.0
  0
LINE
  5
26B78
  8
0
 10
633.5166289199849
 20
-537.9034647652205
 30
0.0
 11
634.2666289199849
 21
-538.0534647652206
 31
0.0
  0
LINE
  5
26B79
  8
0
 10
633.5166289199849
 20
-533.9034647652205
 30
0.0
 11
638.5166289199849
 21
-532.9034647652206
 31
0.0
  0
LINE
  5
26B7A
  8
0
 10
633.5166289199849
 20
-535.9034647652205
 30
0.0
 11
638.5166289199849
 21
-534.9034647652206
 31
0.0
  0
LINE
  5
26B7B
  8
0
 10
633.5166289199849
 20
-537.9034647652205
 30
0.0
 11
638.5166289199849
 21
-536.9034647652206
 31
0.0
  0
LINE
  5
26B7C
  8
0
 10
637.7666289199849
 20
-534.7534647652205
 30
0.0
 11
638.5166289199849
 21
-534.9034647652206
 31
0.0
  0
LINE
  5
26B7D
  8
0
 10
637.7666289199849
 20
-532.7534647652205
 30
0.0
 11
638.5166289199849
 21
-532.9034647652206
 31
0.0
  0
LINE
  5
26B7E
  8
0
 10
637.7666289199849
 20
-536.7534647652205
 30
0.0
 11
638.5166289199849
 21
-536.9034647652206
 31
0.0
  0
LINE
  5
26B7F
  8
0
 10
637.7666289199849
 20
-538.7534647652205
 30
0.0
 11
638.5166289199849
 21
-538.9034647652206
 31
0.0
  0
LINE
  5
26B80
  8
0
 10
633.5166289199849
 20
-539.9034647652205
 30
0.0
 11
634.2666289199849
 21
-540.0534647652206
 31
0.0
  0
LINE
  5
26B81
  8
0
 10
637.7666289199849
 20
-540.0213303512664
 30
0.0
 11
634.2666289199849
 21
-540.0213303512664
 31
0.0
  0
LINE
  5
26B82
  8
1DIM
 10
637.4555938585868
 20
-603.05063718056
 30
0.0
 11
672.2267151379049
 21
-603.05063718056
 31
0.0
1001
ACAD
1000
DSTYLE
1002
{
1070
    45
1040
0.5
1002
}
  0
LINE
  5
26B83
  8
1DIM
 10
643.0162416153646
 20
-535.8213303512664
 30
0.0
 11
672.2267151379049
 21
-535.8213303512664
 31
0.0
1001
ACAD
1000
DSTYLE
1002
{
1070
    45
1040
0.5
1002
}
  0
LINE
  5
26B84
  8
1DIM
 10
671.2267151379049
 20
-601.05063718056
 30
0.0
 11
671.2267151379049
 21
-537.8213303512664
 31
0.0
1001
ACAD
1000
DSTYLE
1002
{
1070
    45
1040
0.5
1002
}
  0
SOLID
  5
26B88
  8
1DIM
 10
610.6254291097456
 20
-574.3501597960849
 30
0.0
 11
612.0527952733075
 21
-575.7902073460739
 31
0.0
 12
610.2355415888605
 22
-574.890929770753
 32
0.0
 13
610.2355415888605
 23
-574.890929770753
 33
0.0
1001
ACAD
1000
DSTYLE
1002
{
1070
    45
1040
0.5
1002
}
  0
LINE
  5
26B89
  8
1DIM
 10
610.430485349303
 20
-574.620544783419
 30
0.0
 11
582.5498667174685
 21
-554.5190121756292
 31
0.0
1001
ACAD
1000
DSTYLE
1002
{
1070
    45
1040
0.5
1002
}
  0
LINE
  5
26B8A
  8
1DIM
 10
582.5498667174685
 20
-554.5190121756292
 30
0.0
 11
547.5332000508018
 21
-554.5190121756292
 31
0.0
1001
ACAD
1000
DSTYLE
1002
{
1070
    45
1040
0.5
1002
}
  0
TEXT
  5
26B8B
  8
1DIM
  6
CONTINUOUS
 10
547.2998667174684
 20
-547.9856788422958
 30
0.0
 40
3.5
  1
材質：ステンレス
  0
TEXT
  5
26B8C
  8
1DIM
  6
CONTINUOUS
 10
555.4665333841351
 20
-553.8190121756292
 30
0.0
 40
3.5
  1
仕上げ：鏡面
  0
SOLID
  5
26B8D
  8
1DIM
 10
614.4352468497643
 20
-559.3591149368349
 30
0.0
 11
615.8587606524198
 21
-560.802970734607
 31
0.0
 12
614.0439159857656
 22
-559.8988413483864
 32
0.0
 13
614.0439159857656
 23
-559.8988413483864
 33
0.0
1001
ACAD
1000
DSTYLE
1002
{
1070
    45
1040
0.5
1002
}
  0
LINE
  5
26B8E
  8
1DIM
 10
614.239581417765
 20
-559.6289781426107
 30
0.0
 11
582.5498667174685
 21
-536.6522196069474
 31
0.0
1001
ACAD
1000
DSTYLE
1002
{
1070
    45
1040
0.5
1002
}
  0
LINE
  5
26B8F
  8
1DIM
 10
582.5498667174685
 20
-536.6522196069474
 30
0.0
 11
547.5332000508018
 21
-536.6522196069474
 31
0.0
1001
ACAD
1000
DSTYLE
1002
{
1070
    45
1040
0.5
1002
}
  0
TEXT
  5
26B90
  8
1DIM
  6
CONTINUOUS
 10
547.2998667174684
 20
-530.118886273614
 30
0.0
 40
3.5
  1
材質：ステンレス
  0
TEXT
  5
26B91
  8
1DIM
  6
CONTINUOUS
 10
555.4665333841351
 20
-535.9522196069473
 30
0.0
 40
3.5
  1
仕上げ：鏡面
  0
SOLID
  5
26B92
  8
1DIM
 10
608.0148649966671
 20
-535.9109841305411
 30
0.0
 11
609.4329234597516
 21
-537.3601981611058
 31
0.0
 12
607.6215014442182
 22
-536.4492308769774
 32
0.0
 13
607.6215014442182
 23
-536.4492308769774
 33
0.0
1001
ACAD
1000
DSTYLE
1002
{
1070
    45
1040
0.5
1002
}
  0
LINE
  5
26B93
  8
1DIM
 10
607.8181832204426
 20
-536.1801075037592
 30
0.0
 11
582.5498667174685
 21
-517.7134194841447
 31
0.0
1001
ACAD
1000
DSTYLE
1002
{
1070
    45
1040
0.5
1002
}
  0
LINE
  5
26B94
  8
1DIM
 10
582.5498667174685
 20
-517.7134194841447
 30
0.0
 11
547.5332000508018
 21
-517.7134194841447
 31
0.0
1001
ACAD
1000
DSTYLE
1002
{
1070
    45
1040
0.5
1002
}
  0
TEXT
  5
26B95
  8
1DIM
  6
CONTINUOUS
 10
547.2998667174684
 20
-511.1800861508113
 30
0.0
 40
3.5
  1
材質：ステンレス
  0
TEXT
  5
26B96
  8
1DIM
  6
CONTINUOUS
 10
555.4665333841351
 20
-517.0134194841446
 30
0.0
 40
3.5
  1
仕上げ：鏡面
  0
LINE
  5
26B97
  8
1DIM
 10
710.5719575016125
 20
-669.8212812549688
 30
0.0
 11
681.9850727038787
 21
-669.8212812549688
 31
0.0
1001
ACAD
1000
DSTYLE
1002
{
1070
    45
1040
0.5
1002
}
  0
LINE
  5
26B98
  8
1DIM
 10
710.4217929412276
 20
-641.8213281663626
 30
0.0
 11
681.9850727038787
 21
-641.8213281663626
 31
0.0
1001
ACAD
1000
DSTYLE
1002
{
1070
    45
1040
0.5
1002
}
  0
LINE
  5
26B99
  8
1DIM
 10
682.9850727038787
 20
-667.8212812549688
 30
0.0
 11
682.9850727038787
 21
-643.8213281663626
 31
0.0
1001
ACAD
1000
DSTYLE
1002
{
1070
    45
1040
0.5
1002
}
  0
LINE
  5
26B9E
  8
1HATCH
 10
746.8660284417501
 20
-650.2213619839118
 30
0.0
 11
746.8662364573232
 21
-646.8713502344611
 31
0.0
  0
LINE
  5
26B9F
  8
1HATCH
 10
750.1660284416938
 20
-650.2213833904249
 30
0.0
 11
750.1662364569465
 21
-646.8714060776405
 31
0.0
  0
LINE
  5
26BA0
  8
1CENTER
 10
748.5160101858273
 20
-652.1828578465309
 30
0.0
 11
748.5162791748248
 21
-642.2816214446519
 31
0.0
  0
LINE
  5
26BA1
  8
1HATCH
 10
746.5160311112795
 20
-649.8713587264092
 30
0.0
 11
750.5160311111923
 21
-649.8713866479479
 31
0.0
  0
LINE
  5
26BA2
  8
0
 10
744.5162611212982
 20
-644.2213447665498
 30
0.0
 11
752.516261121125
 21
-644.2214006096274
 31
0.0
  0
LINE
  5
26BA3
  8
0
 10
744.5162583291443
 20
-644.5213447665377
 30
0.0
 11
752.5162583289712
 21
-644.5214006096152
 31
0.0
  0
LINE
  5
26BA4
  8
1HATCH
 10
750.1662364569465
 20
-646.8714060776405
 30
0.0
 11
750.516239714482
 21
-646.5214052632537
 31
0.0
  0
LINE
  5
26BA5
  8
1HATCH
 10
746.8662364573232
 20
-646.8713502344611
 30
0.0
 11
746.5162397148285
 21
-646.5213494200895
 31
0.0
  0
LINE
  5
26BA7
  8
1HATCH
 10
746.8660284417501
 20
-661.4212987186187
 30
0.0
 11
746.8662364573232
 21
-664.7713104680694
 31
0.0
  0
LINE
  5
26BA8
  8
1HATCH
 10
750.1660284416938
 20
-661.4212773121056
 30
0.0
 11
750.1662364569465
 21
-664.77125462489
 31
0.0
  0
LINE
  5
26BA9
  8
1CENTER
 10
748.5160101858273
 20
-659.4598028559997
 30
0.0
 11
748.5162791748248
 21
-669.3610392578786
 31
0.0
  0
LINE
  5
26BAA
  8
1HATCH
 10
746.5160311112795
 20
-661.7713019761213
 30
0.0
 11
750.5160311111923
 21
-661.7712740545826
 31
0.0
  0
LINE
  5
26BAB
  8
0
 10
744.5162611212982
 20
-667.4213159359807
 30
0.0
 11
752.516261121125
 21
-667.4212600929031
 31
0.0
  0
LINE
  5
26BAC
  8
0
 10
744.5162583291443
 20
-667.1213159359928
 30
0.0
 11
752.5162583289712
 21
-667.1212600929153
 31
0.0
  0
LINE
  5
26BAD
  8
1HATCH
 10
750.1662364569465
 20
-664.77125462489
 30
0.0
 11
750.516239714482
 21
-665.1212554392769
 31
0.0
  0
LINE
  5
26BAE
  8
1HATCH
 10
746.8662364573232
 20
-664.7713104680694
 30
0.0
 11
746.5162397148285
 21
-665.1213112824411
 31
0.0
  0
LINE
  5
26BAF
  8
1DIM1
 10
201.0156862752335
 20
-655.821579226679
 30
0.0
 11
201.0156862752335
 21
-728.4542280510815
 31
0.0
1001
ACAD
1000
DSTYLE
1002
{
1070
    40
1040
3.0
1070
    45
1040
0.5
1002
}
  0
LINE
  5
26BB0
  8
1DIM1
 10
626.015720897956
 20
-655.8215792266781
 30
0.0
 11
626.015720897956
 21
-728.4542280510815
 31
0.0
1001
ACAD
1000
DSTYLE
1002
{
1070
    40
1040
3.0
1070
    45
1040
0.5
1002
}
  0
LINE
  5
26BB1
  8
1DIM1
 10
207.0156862752335
 20
-725.4542280510815
 30
0.0
 11
620.015720897956
 21
-725.4542280510815
 31
0.0
1001
ACAD
1000
DSTYLE
1002
{
1070
    40
1040
3.0
1070
    45
1040
0.5
1002
}
  0
LINE
  5
26BB5
  8
1DIM1
 10
184.0156862752337
 20
-655.821579226679
 30
0.0
 11
184.0156862752337
 21
-756.0922744802328
 31
0.0
1001
ACAD
1000
DSTYLE
1002
{
1070
    40
1040
3.0
1070
    45
1040
0.5
1002
}
  0
LINE
  5
26BB6
  8
1DIM1
 10
643.0157208979558
 20
-652.9751224695146
 30
0.0
 11
643.0157208979558
 21
-756.0922744802328
 31
0.0
1001
ACAD
1000
DSTYLE
1002
{
1070
    40
1040
3.0
1070
    45
1040
0.5
1002
}
  0
LINE
  5
26BB7
  8
1DIM1
 10
190.0156862752337
 20
-753.0922744802328
 30
0.0
 11
637.0157208979558
 21
-753.0922744802328
 31
0.0
1001
ACAD
1000
DSTYLE
1002
{
1070
    40
1040
3.0
1070
    45
1040
0.5
1002
}
  0
LINE
  5
26BBB
  8
1DIM1
 10
211.016127890599
 20
-655.8215488754125
 30
0.0
 11
211.016127890599
 21
-702.2022586652593
 31
0.0
1001
ACAD
1000
DSTYLE
1002
{
1070
    40
1040
3.0
1070
    45
1040
0.5
1002
}
  0
LINE
  5
26BBC
  8
1DIM1
 10
616.0152936686261
 20
-655.8215792266781
 30
0.0
 11
616.0152936686261
 21
-702.2022586652593
 31
0.0
1001
ACAD
1000
DSTYLE
1002
{
1070
    40
1040
3.0
1070
    45
1040
0.5
1002
}
  0
LINE
  5
26BBD
  8
1DIM1
 10
217.016127890599
 20
-699.2022586652593
 30
0.0
 11
610.0152936686261
 21
-699.2022586652593
 31
0.0
1001
ACAD
1000
DSTYLE
1002
{
1070
    40
1040
3.0
1070
    45
1040
0.5
1002
}
  0
LINE
  5
26BC1
  8
1DIM1
 10
188.515686275233
 20
-600.2002588831199
 30
0.0
 11
188.515686275233
 21
-630.067790249573
 31
0.0
1001
ACAD
1000
DSTYLE
1002
{
1070
    40
1040
3.0
1070
    45
1040
0.5
1002
}
  0
LINE
  5
26BC2
  8
1DIM1
 10
638.5157208979565
 20
-600.2002588831199
 30
0.0
 11
638.5157208979565
 21
-630.067790249573
 31
0.0
1001
ACAD
1000
DSTYLE
1002
{
1070
    40
1040
3.0
1070
    45
1040
0.5
1002
}
  0
LINE
  5
26BC3
  8
1DIM1
 10
194.515686275233
 20
-627.067790249573
 30
0.0
 11
632.5157208979565
 21
-627.067790249573
 31
0.0
1001
ACAD
1000
DSTYLE
1002
{
1070
    40
1040
3.0
1070
    45
1040
0.5
1002
}
  0
LINE
  5
26BC7
  8
0
  6
BYBLOCK
 10
544.7817291663247
 20
-600.3213406087661
 30
0.0
 11
544.2458307863246
 21
-602.3213406087661
 31
0.0
  0
LINE
  5
26BC8
  8
0
  6
BYBLOCK
 10
544.2458307863246
 20
-602.3213406087661
 30
0.0
 11
543.7099324063246
 21
-600.3213406087661
 31
0.0
  0
LINE
  5
26BC9
  8
0
  6
BYBLOCK
 10
544.2458307863246
 20
-602.3213406087661
 30
0.0
 11
544.2458307863246
 21
-600.3213406087661
 31
0.0
  0
LINE
  5
26BCA
  8
0
  6
BYBLOCK
 10
543.7099324063246
 20
-579.3213406087661
 30
0.0
 11
544.2458307863246
 21
-577.3213406087661
 31
0.0
  0
LINE
  5
26BCB
  8
0
  6
BYBLOCK
 10
544.2458307863246
 20
-577.3213406087661
 30
0.0
 11
544.7817291663247
 21
-579.3213406087661
 31
0.0
  0
LINE
  5
26BCC
  8
0
  6
BYBLOCK
 10
544.2458307863246
 20
-577.3213406087661
 30
0.0
 11
544.2458307863246
 21
-579.3213406087661
 31
0.0
  0
TEXT
  5
26BCD
  8
1DIM
  6
CONTINUOUS
 10
543.5458307863247
 20
-573.2880072754325
 30
0.0
 40
3.5
  1
φ25
 50
90.0
1001
ACAD
1000
DSTYLE
1002
{
1070
     3
1000
φ<>
1070
    45
1040
0.5
1002
}
  0
LINE
  5
26BCE
  8
0
  6
BYBLOCK
 10
661.9239664100841
 20
-600.3213406087661
 30
0.0
 11
661.388068030084
 21
-602.3213406087661
 31
0.0
  0
LINE
  5
26BCF
  8
0
  6
BYBLOCK
 10
661.388068030084
 20
-602.3213406087661
 30
0.0
 11
660.852169650084
 21
-600.3213406087661
 31
0.0
  0
LINE
  5
26BD0
  8
0
  6
BYBLOCK
 10
661.388068030084
 20
-602.3213406087661
 30
0.0
 11
661.388068030084
 21
-600.3213406087661
 31
0.0
  0
LINE
  5
26BD1
  8
0
  6
BYBLOCK
 10
660.852169650084
 20
-537.8213303512664
 30
0.0
 11
661.388068030084
 21
-535.8213303512664
 31
0.0
  0
LINE
  5
26BD2
  8
0
  6
BYBLOCK
 10
661.388068030084
 20
-535.8213303512664
 30
0.0
 11
661.9239664100841
 21
-537.8213303512664
 31
0.0
  0
LINE
  5
26BD3
  8
0
  6
BYBLOCK
 10
661.388068030084
 20
-535.8213303512664
 30
0.0
 11
661.388068030084
 21
-537.8213303512664
 31
0.0
  0
TEXT
  5
26BD4
  8
1DIM
  6
CONTINUOUS
 10
660.6880680300841
 20
-574.3456410355717
 30
0.0
 40
3.5
  1
66.5
 50
90.0
1001
ACAD
1000
DSTYLE
1002
{
1070
    45
1040
0.5
1002
}
  0
LINE
  5
26BD5
  8
0
  6
BYBLOCK
 10
618.0158
 20
-691.9572287312675
 30
0.0
 11
616.0158
 21
-691.4213303512674
 31
0.0
  0
LINE
  5
26BD6
  8
0
  6
BYBLOCK
 10
616.0158
 20
-691.4213303512674
 30
0.0
 11
618.0158
 21
-690.8854319712674
 31
0.0
  0
LINE
  5
26BD7
  8
0
  6
BYBLOCK
 10
616.0158
 20
-691.4213303512674
 30
0.0
 11
618.0158
 21
-691.4213303512674
 31
0.0
  0
LINE
  5
26BD8
  8
0
  6
BYBLOCK
 10
634.0166
 20
-690.8854319712674
 30
0.0
 11
636.0166
 21
-691.4213303512674
 31
0.0
  0
LINE
  5
26BD9
  8
0
  6
BYBLOCK
 10
636.0166
 20
-691.4213303512674
 30
0.0
 11
634.0166
 21
-691.9572287312675
 31
0.0
  0
LINE
  5
26BDA
  8
0
  6
BYBLOCK
 10
636.0166
 20
-691.4213303512674
 30
0.0
 11
634.0166
 21
-691.4213303512674
 31
0.0
  0
TEXT
  5
26BDB
  8
1DIM
  6
CONTINUOUS
 10
621.5682833333334
 20
-690.7213303512674
 30
0.0
 40
3.5
  1
P20
1001
ACAD
1000
DSTYLE
1002
{
1070
    40
1040
1.0
1070
    45
1040
0.5
1002
}
  0
LINE
  5
26BDC
  8
0
  6
BYBLOCK
 10
761.0162416153653
 20
-700.8854319712665
 30
0.0
 11
763.0162416153653
 21
-701.4213303512665
 31
0.0
  0
LINE
  5
26BDD
  8
0
  6
BYBLOCK
 10
763.0162416153653
 20
-701.4213303512665
 30
0.0
 11
761.0162416153653
 21
-701.9572287312666
 31
0.0
  0
LINE
  5
26BDE
  8
0
  6
BYBLOCK
 10
763.0162416153653
 20
-701.4213303512665
 30
0.0
 11
761.0162416153653
 21
-701.4213303512665
 31
0.0
  0
LINE
  5
26BDF
  8
0
  6
BYBLOCK
 10
750.516285457171
 20
-701.9572287312666
 30
0.0
 11
748.516285457171
 21
-701.4213303512665
 31
0.0
  0
LINE
  5
26BE0
  8
0
  6
BYBLOCK
 10
748.516285457171
 20
-701.4213303512665
 30
0.0
 11
750.516285457171
 21
-700.8854319712665
 31
0.0
  0
LINE
  5
26BE1
  8
0
  6
BYBLOCK
 10
748.516285457171
 20
-701.4213303512665
 30
0.0
 11
750.516285457171
 21
-701.4213303512665
 31
0.0
  0
TEXT
  5
26BE2
  8
1DIM
  6
CONTINUOUS
 10
751.0995968696014
 20
-700.7213303512666
 30
0.0
 40
3.5
  1
14.5
1001
ACAD
1000
DSTYLE
1002
{
1070
    45
1040
0.5
1002
}
  0
LINE
  5
26BE3
  8
0
  6
BYBLOCK
 10
641.0162416153646
 20
-495.8385381665196
 30
0.0
 11
643.0162416153646
 21
-496.3744365465196
 31
0.0
  0
LINE
  5
26BE4
  8
0
  6
BYBLOCK
 10
643.0162416153646
 20
-496.3744365465196
 30
0.0
 11
641.0162416153646
 21
-496.9103349265196
 31
0.0
  0
LINE
  5
26BE5
  8
0
  6
BYBLOCK
 10
643.0162416153646
 20
-496.3744365465196
 30
0.0
 11
641.0162416153646
 21
-496.3744365465196
 31
0.0
  0
LINE
  5
26BE6
  8
0
  6
BYBLOCK
 10
611.0162416153646
 20
-496.9103349265196
 30
0.0
 11
609.0162416153646
 21
-496.3744365465196
 31
0.0
  0
LINE
  5
26BE7
  8
0
  6
BYBLOCK
 10
609.0162416153646
 20
-496.3744365465196
 30
0.0
 11
611.0162416153646
 21
-495.8385381665196
 31
0.0
  0
LINE
  5
26BE8
  8
0
  6
BYBLOCK
 10
609.0162416153646
 20
-496.3744365465196
 30
0.0
 11
611.0162416153646
 21
-496.3744365465196
 31
0.0
  0
TEXT
  5
26BE9
  8
1DIM
  6
CONTINUOUS
 10
620.5329082820314
 20
-495.6744365465196
 30
0.0
 40
3.5
  1
φ34
1001
ACAD
1000
DSTYLE
1002
{
1070
     3
1000
φ<>
1070
    45
1040
0.5
1002
}
  0
LINE
  5
26BEA
  8
0
 10
209.2665942972642
 20
-506.5524192645119
 30
0.0
 11
209.2665942972642
 21
-540.0213303512664
 31
0.0
  0
LINE
  5
26BEB
  8
0
 10
209.2665942972642
 20
-540.0213303512664
 30
0.0
 11
206.5165942972642
 21
-540.0213303512664
 31
0.0
  0
LINE
  5
26BEC
  8
0
 10
206.5165942972642
 20
-540.0213303512664
 30
0.0
 11
206.5165942972642
 21
-540.8213303512662
 31
0.0
  0
ARC
  5
26BED
  8
0
 10
209.0165942972642
 20
-540.8213303512664
 30
0.0
 40
2.5
 50
179.9999999999948
 51
270.0
  0
LINE
  5
26BEE
  8
0
 10
209.0165942972642
 20
-543.3213303512664
 30
0.0
 11
213.0165942972642
 21
-543.3213303512664
 31
0.0
  0
ARC
  5
26BEF
  8
0
 10
213.0165942972642
 20
-540.8213303512664
 30
0.0
 40
2.5
 50
270.0
 51
0.0
  0
LINE
  5
26BF0
  8
0
 10
215.5165942972642
 20
-540.8213303512664
 30
0.0
 11
215.5165942972642
 21
-540.0213303512664
 31
0.0
  0
LINE
  5
26BF1
  8
0
 10
215.5165942972642
 20
-540.0213303512664
 30
0.0
 11
212.7665942972642
 21
-540.0213303512664
 31
0.0
  0
LINE
  5
26BF2
  8
0
 10
212.7665942972642
 20
-540.0213303512664
 30
0.0
 11
212.7665942972642
 21
-506.5524192645119
 31
0.0
  0
LINE
  5
26BF3
  8
0
 10
212.7665942972642
 20
-506.5524192645119
 30
0.0
 11
211.0165942972642
 21
-500.0213303512664
 31
0.0
  0
LINE
  5
26BF4
  8
0
 10
211.0165942972642
 20
-500.0213303512664
 30
0.0
 11
209.2665942972642
 21
-506.5524192645119
 31
0.0
  0
LINE
  5
26BF5
  8
0
 10
189.2657797633149
 20
-506.5524192645119
 30
0.0
 11
189.2657797633149
 21
-540.0213303512664
 31
0.0
  0
LINE
  5
26BF6
  8
0
 10
189.2657797633149
 20
-540.0213303512664
 30
0.0
 11
186.5157797633149
 21
-540.0213303512664
 31
0.0
  0
LINE
  5
26BF7
  8
0
 10
186.5157797633149
 20
-540.0213303512664
 30
0.0
 11
186.5157797633149
 21
-540.8213303512662
 31
0.0
  0
ARC
  5
26BF8
  8
0
 10
189.0157797633149
 20
-540.8213303512664
 30
0.0
 40
2.5
 50
179.9999999999948
 51
270.0
  0
LINE
  5
26BF9
  8
0
 10
189.0157797633149
 20
-543.3213303512664
 30
0.0
 11
193.0157797633149
 21
-543.3213303512664
 31
0.0
  0
ARC
  5
26BFA
  8
0
 10
193.0157797633149
 20
-540.8213303512664
 30
0.0
 40
2.5
 50
270.0
 51
0.0
  0
LINE
  5
26BFB
  8
0
 10
195.5157797633149
 20
-540.8213303512664
 30
0.0
 11
195.5157797633149
 21
-540.0213303512664
 31
0.0
  0
LINE
  5
26BFC
  8
0
 10
195.5157797633149
 20
-540.0213303512664
 30
0.0
 11
192.7657797633149
 21
-540.0213303512664
 31
0.0
  0
LINE
  5
26BFD
  8
0
 10
192.7657797633149
 20
-540.0213303512664
 30
0.0
 11
192.7657797633149
 21
-506.5524192645119
 31
0.0
  0
LINE
  5
26BFE
  8
0
 10
192.7657797633149
 20
-506.5524192645119
 30
0.0
 11
191.0157797633149
 21
-500.0213303512664
 31
0.0
  0
LINE
  5
26BFF
  8
0
 10
191.0157797633149
 20
-500.0213303512664
 30
0.0
 11
189.2657797633149
 21
-506.5524192645119
 31
0.0
  0
LINE
  5
26C00
  8
0
 10
792.2851527021198
 20
-654.0713303512653
 30
0.0
 11
758.8162416153652
 21
-654.0713303512653
 31
0.0
  0
LINE
  5
26C01
  8
0
 10
758.8162416153652
 20
-654.0713303512653
 30
0.0
 11
758.8162416153652
 21
-651.3213303512653
 31
0.0
  0
LINE
  5
26C02
  8
0
 10
758.8162416153652
 20
-651.3213303512653
 30
0.0
 11
758.0162416153655
 21
-651.3213303512653
 31
0.0
  0
ARC
  5
26C03
  8
0
 10
758.0162416153653
 20
-653.8213303512653
 30
0.0
 40
2.5
 50
89.9999999999948
 51
180.0
  0
LINE
  5
26C04
  8
0
 10
755.5162416153653
 20
-653.8213303512653
 30
0.0
 11
755.5162416153653
 21
-657.8213303512653
 31
0.0
  0
ARC
  5
26C05
  8
0
 10
758.0162416153653
 20
-657.8213303512653
 30
0.0
 40
2.5
 50
180.0
 51
270.0
  0
LINE
  5
26C06
  8
0
 10
758.0162416153653
 20
-660.3213303512653
 30
0.0
 11
758.8162416153652
 21
-660.3213303512653
 31
0.0
  0
LINE
  5
26C07
  8
0
 10
758.8162416153652
 20
-660.3213303512653
 30
0.0
 11
758.8162416153652
 21
-657.5713303512653
 31
0.0
  0
LINE
  5
26C08
  8
0
 10
758.8162416153652
 20
-657.5713303512653
 30
0.0
 11
792.2851527021198
 21
-657.5713303512653
 31
0.0
  0
LINE
  5
26C09
  8
0
 10
792.2851527021198
 20
-657.5713303512653
 30
0.0
 11
798.8162416153652
 21
-655.8213303512653
 31
0.0
  0
LINE
  5
26C0A
  8
0
 10
798.8162416153652
 20
-655.8213303512653
 30
0.0
 11
792.2851527021198
 21
-654.0713303512653
 31
0.0
  0
LINE
  5
26C0B
  8
0
 10
614.2658143860356
 20
-506.5524192645119
 30
0.0
 11
614.2658143860356
 21
-540.0213303512664
 31
0.0
  0
LINE
  5
26C0C
  8
0
 10
614.2658143860356
 20
-540.0213303512664
 30
0.0
 11
611.5158143860356
 21
-540.0213303512664
 31
0.0
  0
LINE
  5
26C0D
  8
0
 10
611.5158143860356
 20
-540.0213303512664
 30
0.0
 11
611.5158143860356
 21
-540.8213303512662
 31
0.0
  0
ARC
  5
26C0E
  8
0
 10
614.0158143860356
 20
-540.8213303512664
 30
0.0
 40
2.5
 50
179.9999999999948
 51
270.0
  0
LINE
  5
26C0F
  8
0
 10
614.0158143860356
 20
-543.3213303512664
 30
0.0
 11
618.0158143860356
 21
-543.3213303512664
 31
0.0
  0
ARC
  5
26C10
  8
0
 10
618.0158143860356
 20
-540.8213303512664
 30
0.0
 40
2.5
 50
270.0
 51
0.0
  0
LINE
  5
26C11
  8
0
 10
620.5158143860356
 20
-540.8213303512664
 30
0.0
 11
620.5158143860356
 21
-540.0213303512664
 31
0.0
  0
LINE
  5
26C12
  8
0
 10
620.5158143860356
 20
-540.0213303512664
 30
0.0
 11
617.7658143860356
 21
-540.0213303512664
 31
0.0
  0
LINE
  5
26C13
  8
0
 10
617.7658143860356
 20
-540.0213303512664
 30
0.0
 11
617.7658143860356
 21
-506.5524192645119
 31
0.0
  0
LINE
  5
26C14
  8
0
 10
617.7658143860356
 20
-506.5524192645119
 30
0.0
 11
616.0158143860356
 21
-500.0213303512664
 31
0.0
  0
LINE
  5
26C15
  8
0
 10
616.0158143860356
 20
-500.0213303512664
 30
0.0
 11
614.2658143860356
 21
-506.5524192645119
 31
0.0
  0
LINE
  5
26C16
  8
0
 10
634.2666289199849
 20
-506.5524192645119
 30
0.0
 11
634.2666289199849
 21
-540.0213303512664
 31
0.0
  0
LINE
  5
26C17
  8
0
 10
634.2666289199849
 20
-540.0213303512664
 30
0.0
 11
631.5166289199849
 21
-540.0213303512664
 31
0.0
  0
LINE
  5
26C18
  8
0
 10
631.5166289199849
 20
-540.0213303512664
 30
0.0
 11
631.5166289199849
 21
-540.8213303512662
 31
0.0
  0
ARC
  5
26C19
  8
0
 10
634.0166289199849
 20
-540.8213303512664
 30
0.0
 40
2.5
 50
179.9999999999948
 51
270.0
  0
LINE
  5
26C1A
  8
0
 10
634.0166289199849
 20
-543.3213303512664
 30
0.0
 11
638.0166289199849
 21
-543.3213303512664
 31
0.0
  0
ARC
  5
26C1B
  8
0
 10
638.0166289199849
 20
-540.8213303512664
 30
0.0
 40
2.5
 50
270.0
 51
0.0
  0
LINE
  5
26C1C
  8
0
 10
640.5166289199849
 20
-540.8213303512664
 30
0.0
 11
640.5166289199849
 21
-540.0213303512664
 31
0.0
  0
LINE
  5
26C1D
  8
0
 10
640.5166289199849
 20
-540.0213303512664
 30
0.0
 11
637.7666289199849
 21
-540.0213303512664
 31
0.0
  0
LINE
  5
26C1E
  8
0
 10
637.7666289199849
 20
-540.0213303512664
 30
0.0
 11
637.7666289199849
 21
-506.5524192645119
 31
0.0
  0
LINE
  5
26C1F
  8
0
 10
637.7666289199849
 20
-506.5524192645119
 30
0.0
 11
636.0166289199849
 21
-500.0213303512664
 31
0.0
  0
LINE
  5
26C20
  8
0
 10
636.0166289199849
 20
-500.0213303512664
 30
0.0
 11
634.2666289199849
 21
-506.5524192645119
 31
0.0
  0
LINE
  5
26C21
  8
0
  6
BYBLOCK
 10
671.7626135179049
 20
-601.05063718056
 30
0.0
 11
671.2267151379049
 21
-603.05063718056
 31
0.0
  0
LINE
  5
26C22
  8
0
  6
BYBLOCK
 10
671.2267151379049
 20
-603.05063718056
 30
0.0
 11
670.6908167579048
 21
-601.05063718056
 31
0.0
  0
LINE
  5
26C23
  8
0
  6
BYBLOCK
 10
671.2267151379049
 20
-603.05063718056
 30
0.0
 11
671.2267151379049
 21
-601.05063718056
 31
0.0
  0
LINE
  5
26C24
  8
0
  6
BYBLOCK
 10
670.6908167579048
 20
-537.8213303512664
 30
0.0
 11
671.2267151379049
 21
-535.8213303512664
 31
0.0
  0
LINE
  5
26C25
  8
0
  6
BYBLOCK
 10
671.2267151379049
 20
-535.8213303512664
 30
0.0
 11
671.7626135179049
 21
-537.8213303512664
 31
0.0
  0
LINE
  5
26C26
  8
0
  6
BYBLOCK
 10
671.2267151379049
 20
-535.8213303512664
 30
0.0
 11
671.2267151379049
 21
-537.8213303512664
 31
0.0
  0
TEXT
  5
26C27
  8
1DIM
  6
CONTINUOUS
 10
670.5267151379048
 20
-572.3648032103575
 30
0.0
 40
3.5
  1
67
 50
90.0
1001
ACAD
1000
DSTYLE
1002
{
1070
    45
1040
0.5
1002
}
  0
LINE
  5
26C28
  8
0
  6
BYBLOCK
 10
683.5209710838787
 20
-667.8212812549688
 30
0.0
 11
682.9850727038787
 21
-669.8212812549688
 31
0.0
  0
LINE
  5
26C29
  8
0
  6
BYBLOCK
 10
682.9850727038787
 20
-669.8212812549688
 30
0.0
 11
682.4491743238787
 21
-667.8212812549688
 31
0.0
  0
LINE
  5
26C2A
  8
0
  6
BYBLOCK
 10
682.9850727038787
 20
-669.8212812549688
 30
0.0
 11
682.9850727038787
 21
-667.8212812549688
 31
0.0
  0
LINE
  5
26C2B
  8
0
  6
BYBLOCK
 10
682.4491743238787
 20
-643.8213281663626
 30
0.0
 11
682.9850727038787
 21
-641.8213281663626
 31
0.0
  0
LINE
  5
26C2C
  8
0
  6
BYBLOCK
 10
682.9850727038787
 20
-641.8213281663626
 30
0.0
 11
683.5209710838787
 21
-643.8213281663626
 31
0.0
  0
LINE
  5
26C2D
  8
0
  6
BYBLOCK
 10
682.9850727038787
 20
-641.8213281663626
 30
0.0
 11
682.9850727038787
 21
-643.8213281663626
 31
0.0
  0
TEXT
  5
26C2E
  8
1DIM
  6
CONTINUOUS
 10
682.2850727038787
 20
-658.7379713773323
 30
0.0
 40
3.5
  1
28
 50
90.0
1001
ACAD
1000
DSTYLE
1002
{
1070
    45
1040
0.5
1002
}
  0
LINE
  5
26C2F
  8
0
 10
746.5162397148285
 20
-646.5213494200895
 30
0.0
 11
746.5160311112795
 21
-649.8713587264092
 31
0.0
  0
LINE
  5
26C30
  8
0
 10
746.5160311112795
 20
-649.8713587264092
 30
0.0
 11
746.8660284417567
 21
-650.2213611695336
 31
0.0
  0
LINE
  5
26C31
  8
0
 10
746.8660284417567
 20
-650.2213611695336
 30
0.0
 11
750.1660284416871
 21
-650.221384204803
 31
0.0
  0
LINE
  5
26C32
  8
0
 10
750.1660284416871
 20
-650.221384204803
 30
0.0
 11
750.5160311111923
 21
-649.8713866479479
 31
0.0
  0
LINE
  5
26C33
  8
0
 10
750.5160311111923
 20
-649.8713866479479
 30
0.0
 11
750.516239714482
 21
-646.5214052632537
 31
0.0
  0
LINE
  5
26C34
  8
0
 10
750.516239714482
 20
-646.5214052632537
 30
0.0
 11
752.5162583289712
 21
-644.5214006096152
 31
0.0
  0
LINE
  5
26C35
  8
0
 10
752.5162583289712
 20
-644.5214006096152
 30
0.0
 11
752.516261121125
 21
-644.2214006096274
 31
0.0
  0
ARC
  5
26C36
  8
0
 10
748.5162022145207
 20
-652.6602615766059
 30
0.0
 40
9.338888888743533
 50
64.63883306928125
 51
115.3603670375536
  0
LINE
  5
26C37
  8
0
 10
744.5162611212982
 20
-644.2213447665498
 30
0.0
 11
744.5162583291443
 21
-644.5213447665377
 31
0.0
  0
LINE
  5
26C38
  8
0
 10
744.5162583291443
 20
-644.5213447665377
 30
0.0
 11
746.5162397148285
 21
-646.5213494200895
 31
0.0
  0
LINE
  5
26C39
  8
0
 10
746.5160311112795
 20
-661.7713019761213
 30
0.0
 11
746.5162397148285
 21
-665.1213112824411
 31
0.0
  0
LINE
  5
26C3A
  8
0
 10
746.5162397148285
 20
-665.1213112824411
 30
0.0
 11
744.5162583291443
 21
-667.1213159359928
 31
0.0
  0
LINE
  5
26C3B
  8
0
 10
744.5162583291443
 20
-667.1213159359928
 30
0.0
 11
744.5162611212982
 21
-667.4213159359807
 31
0.0
  0
ARC
  5
26C3C
  8
0
 10
748.5162022145207
 20
-658.9823991259246
 30
0.0
 40
9.338888888743533
 50
244.6396329624463
 51
295.3611669307188
  0
LINE
  5
26C3D
  8
0
 10
752.516261121125
 20
-667.4212600929031
 30
0.0
 11
752.5162583289712
 21
-667.1212600929153
 31
0.0
  0
LINE
  5
26C3E
  8
0
 10
752.5162583289712
 20
-667.1212600929153
 30
0.0
 11
750.516239714482
 21
-665.1212554392769
 31
0.0
  0
LINE
  5
26C3F
  8
0
 10
750.516239714482
 20
-665.1212554392769
 30
0.0
 11
750.5160311111923
 21
-661.7712740545826
 31
0.0
  0
LINE
  5
26C40
  8
0
 10
750.5160311111923
 20
-661.7712740545826
 30
0.0
 11
750.1660284416871
 21
-661.4212764977275
 31
0.0
  0
LINE
  5
26C41
  8
0
 10
750.1660284416871
 20
-661.4212764977275
 30
0.0
 11
746.8660284417567
 21
-661.421299532997
 31
0.0
  0
LINE
  5
26C42
  8
0
 10
746.8660284417567
 20
-661.421299532997
 30
0.0
 11
746.5160311112795
 21
-661.7713019761213
 31
0.0
  0
LINE
  5
26C43
  8
0
  6
BYBLOCK
 10
207.0156862752335
 20
-727.0619231910815
 30
0.0
 11
201.0156862752335
 21
-725.4542280510815
 31
0.0
  0
LINE
  5
26C44
  8
0
  6
BYBLOCK
 10
201.0156862752335
 20
-725.4542280510815
 30
0.0
 11
207.0156862752335
 21
-723.8465329110815
 31
0.0
  0
LINE
  5
26C45
  8
0
  6
BYBLOCK
 10
201.0156862752335
 20
-725.4542280510815
 30
0.0
 11
207.0156862752335
 21
-725.4542280510815
 31
0.0
  0
LINE
  5
26C46
  8
0
  6
BYBLOCK
 10
620.015720897956
 20
-723.8465329110815
 30
0.0
 11
626.015720897956
 21
-725.4542280510815
 31
0.0
  0
LINE
  5
26C47
  8
0
  6
BYBLOCK
 10
626.015720897956
 20
-725.4542280510815
 30
0.0
 11
620.015720897956
 21
-727.0619231910815
 31
0.0
  0
LINE
  5
26C48
  8
0
  6
BYBLOCK
 10
626.015720897956
 20
-725.4542280510815
 30
0.0
 11
620.015720897956
 21
-725.4542280510815
 31
0.0
  0
TEXT
  5
26C49
  8
1DIM1
  6
CONTINUOUS
 10
394.2657035865948
 20
-723.3542280510815
 30
0.0
 40
10.5
  1
P425
1001
ACAD
1000
DSTYLE
1002
{
1070
    40
1040
3.0
1070
    45
1040
0.5
1002
}
  0
LINE
  5
26C4A
  8
0
  6
BYBLOCK
 10
190.0156862752337
 20
-754.6999696202329
 30
0.0
 11
184.0156862752337
 21
-753.0922744802328
 31
0.0
  0
LINE
  5
26C4B
  8
0
  6
BYBLOCK
 10
184.0156862752337
 20
-753.0922744802328
 30
0.0
 11
190.0156862752337
 21
-751.4845793402328
 31
0.0
  0
LINE
  5
26C4C
  8
0
  6
BYBLOCK
 10
184.0156862752337
 20
-753.0922744802328
 30
0.0
 11
190.0156862752337
 21
-753.0922744802328
 31
0.0
  0
LINE
  5
26C4D
  8
0
  6
BYBLOCK
 10
637.0157208979558
 20
-751.4845793402328
 30
0.0
 11
643.0157208979558
 21
-753.0922744802328
 31
0.0
  0
LINE
  5
26C4E
  8
0
  6
BYBLOCK
 10
643.0157208979558
 20
-753.0922744802328
 30
0.0
 11
637.0157208979558
 21
-754.6999696202329
 31
0.0
  0
LINE
  5
26C4F
  8
0
  6
BYBLOCK
 10
643.0157208979558
 20
-753.0922744802328
 30
0.0
 11
637.0157208979558
 21
-753.0922744802328
 31
0.0
  0
TEXT
  5
26C50
  8
1DIM1
  6
CONTINUOUS
 10
399.4768146977059
 20
-750.9922744802328
 30
0.0
 40
10.5
  1
459
1001
ACAD
1000
DSTYLE
1002
{
1070
    40
1040
3.0
1070
    45
1040
0.5
1002
}
  0
LINE
  5
26C51
  8
0
  6
BYBLOCK
 10
217.016127890599
 20
-700.8099538052593
 30
0.0
 11
211.016127890599
 21
-699.2022586652593
 31
0.0
  0
LINE
  5
26C52
  8
0
  6
BYBLOCK
 10
211.016127890599
 20
-699.2022586652593
 30
0.0
 11
217.016127890599
 21
-697.5945635252592
 31
0.0
  0
LINE
  5
26C53
  8
0
  6
BYBLOCK
 10
211.016127890599
 20
-699.2022586652593
 30
0.0
 11
217.016127890599
 21
-699.2022586652593
 31
0.0
  0
LINE
  5
26C54
  8
0
  6
BYBLOCK
 10
610.0152936686261
 20
-697.5945635252592
 30
0.0
 11
616.0152936686261
 21
-699.2022586652593
 31
0.0
  0
LINE
  5
26C55
  8
0
  6
BYBLOCK
 10
616.0152936686261
 20
-699.2022586652593
 30
0.0
 11
610.0152936686261
 21
-700.8099538052593
 31
0.0
  0
LINE
  5
26C56
  8
0
  6
BYBLOCK
 10
616.0152936686261
 20
-699.2022586652593
 30
0.0
 11
610.0152936686261
 21
-699.2022586652593
 31
0.0
  0
TEXT
  5
26C57
  8
1DIM1
  6
CONTINUOUS
 10
404.8907107796125
 20
-697.1022586652592
 30
0.0
 40
10.5
  1
405
1001
ACAD
1000
DSTYLE
1002
{
1070
    40
1040
3.0
1070
    45
1040
0.5
1002
}
  0
LINE
  5
26C58
  8
0
  6
BYBLOCK
 10
194.515686275233
 20
-628.675485389573
 30
0.0
 11
188.515686275233
 21
-627.067790249573
 31
0.0
  0
LINE
  5
26C59
  8
0
  6
BYBLOCK
 10
188.515686275233
 20
-627.067790249573
 30
0.0
 11
194.515686275233
 21
-625.460095109573
 31
0.0
  0
LINE
  5
26C5A
  8
0
  6
BYBLOCK
 10
188.515686275233
 20
-627.067790249573
 30
0.0
 11
194.515686275233
 21
-627.067790249573
 31
0.0
  0
LINE
  5
26C5B
  8
0
  6
BYBLOCK
 10
632.5157208979565
 20
-625.460095109573
 30
0.0
 11
638.5157208979565
 21
-627.067790249573
 31
0.0
  0
LINE
  5
26C5C
  8
0
  6
BYBLOCK
 10
638.5157208979565
 20
-627.067790249573
 30
0.0
 11
632.5157208979565
 21
-628.675485389573
 31
0.0
  0
LINE
  5
26C5D
  8
0
  6
BYBLOCK
 10
638.5157208979565
 20
-627.067790249573
 30
0.0
 11
632.5157208979565
 21
-627.067790249573
 31
0.0
  0
TEXT
  5
26C5E
  8
1DIM1
  6
CONTINUOUS
 10
400.1354952532615
 20
-624.967790249573
 30
0.0
 40
10.5
  1
450
1001
ACAD
1000
DSTYLE
1002
{
1070
    40
1040
3.0
1070
    45
1040
0.5
1002
}
  0
VIEWPORT
  5
57
 67
     1
  8
0
 10
0.0
 20
0.0
 30
0.0
 40
554.37576499388
 41
297.0
 68
     1
 69
     1
1001
ACAD
1000
MVIEW
1002
{
1070
    16
1010
0.0
1020
0.0
1030
0.0
1010
0.0
1020
0.0
1030
1.0
1040
0.0
1040
297.0
1040
-4.171999999925333
1040
12.83903210976956
1040
50.0
1040
0.0
1040
0.0
1070
    16
1070
   100
1070
     0
1070
     1
1070
     0
1070
     0
1070
     0
1070
     0
1040
0.0
1040
0.0
1040
0.0
1040
10.0
1040
10.0
1040
10.0
1040
10.0
1070
     0
1002
{
1002
}
1002
}
  0
ENDSEC
  0
EOF
