  0
SECTION
  2
HEADER
  9
$ACADVER
  1
AC1009
  9
$DWGCODEPAGE
  3
ansi_1252
  9
$INSBASE
 10
0.0
 20
0.0
 30
0.0
  9
$EXTMIN
 10
13249.49816706879
 20
-281.7165719786726
 30
0.0
  9
$EXTMAX
 10
14062.7505916779
 20
169.9985090214988
 30
0.0
  9
$LIMMIN
 10
0.0
 20
0.0
  9
$LIMMAX
 10
420.0
 20
297.0
  9
$ORTHOMODE
 70
     0
  9
$REGENMODE
 70
     1
  9
$FILLMODE
 70
     1
  9
$QTEXTMODE
 70
     0
  9
$MIRRTEXT
 70
     0
  9
$DRAGMODE
 70
     2
  9
$LTSCALE
 40
0.5
  9
$OSMODE
 70
  2687
  9
$ATTMODE
 70
     1
  9
$TEXTSIZE
 40
4.0
  9
$TRACEWID
 40
1.0
  9
$TEXTSTYLE
  7
STANDARD
  9
$CLAYER
  8
1TEXT
  9
$CELTYPE
  6
BYLAYER
  9
$CECOLOR
 62
   256
  9
$DIMSCALE
 40
1.0
  9
$DIMASZ
 40
2.0
  9
$DIMEXO
 40
0.0
  9
$DIMDLI
 40
7.0
  9
$DIMRND
 40
0.0
  9
$DIMDLE
 40
0.0
  9
$DIMEXE
 40
1.0
  9
$DIMTP
 40
0.0
  9
$DIMTM
 40
0.0
  9
$DIMTXT
 40
3.5
  9
$DIMCEN
 40
0.0
  9
$DIMTSZ
 40
0.0
  9
$DIMTOL
 70
     0
  9
$DIMLIM
 70
     0
  9
$DIMTIH
 70
     0
  9
$DIMTOH
 70
     0
  9
$DIMSE1
 70
     0
  9
$DIMSE2
 70
     0
  9
$DIMTAD
 70
     1
  9
$DIMZIN
 70
     8
  9
$DIMBLK
  1

  9
$DIMASO
 70
     1
  9
$DIMSHO
 70
     1
  9
$DIMPOST
  1
 
  9
$DIMAPOST
  1

  9
$DIMALT
 70
     0
  9
$DIMALTD
 70
     2
  9
$DIMALTF
 40
25.4
  9
$DIMLFAC
 40
1.0
  9
$DIMTOFL
 70
     1
  9
$DIMTVP
 40
0.0
  9
$DIMTIX
 70
     0
  9
$DIMSOXD
 70
     0
  9
$DIMSAH
 70
     1
  9
$DIMBLK1
  1
OPEN30
  9
$DIMBLK2
  1
OPEN30
  9
$DIMSTYLE
  2
NEWX10
  9
$DIMCLRD
 70
   256
  9
$DIMCLRE
 70
   256
  9
$DIMCLRT
 70
   201
  9
$DIMTFAC
 40
0.7
  9
$DIMGAP
 40
0.7
  9
$LUNITS
 70
     2
  9
$LUPREC
 70
     4
  9
$SKETCHINC
 40
1.0
  9
$FILLETRAD
 40
0.0
  9
$AUNITS
 70
     0
  9
$AUPREC
 70
     2
  9
$MENU
  1
acad
  9
$ELEVATION
 40
0.0
  9
$PELEVATION
 40
0.0
  9
$THICKNESS
 40
0.0
  9
$LIMCHECK
 70
     0
  9
$CHAMFERA
 40
10.0
  9
$CHAMFERB
 40
10.0
  9
$SKPOLY
 70
     0
  9
$TDCREATE
 40
2451318.57968625
  9
$TDUPDATE
 40
2460132.648568669
  9
$TDINDWG
 40
1.8282061227
  9
$TDUSRTIMER
 40
1.8282061227
  9
$USRTIMER
 70
     1
  9
$ANGBASE
 50
0.0
  9
$ANGDIR
 70
     0
  9
$PDMODE
 70
     0
  9
$PDSIZE
 40
0.0
  9
$PLINEWID
 40
0.0
  9
$COORDS
 70
     2
  9
$SPLFRAME
 70
     0
  9
$SPLINETYPE
 70
     6
  9
$SPLINESEGS
 70
     8
  9
$ATTDIA
 70
     0
  9
$ATTREQ
 70
     1
  9
$HANDLING
 70
     1
  9
$HANDSEED
  5
1F294
  9
$SURFTAB1
 70
     6
  9
$SURFTAB2
 70
     6
  9
$SURFTYPE
 70
     6
  9
$SURFU
 70
     6
  9
$SURFV
 70
     6
  9
$UCSNAME
  2

  9
$UCSORG
 10
0.0
 20
0.0
 30
0.0
  9
$UCSXDIR
 10
1.0
 20
0.0
 30
0.0
  9
$UCSYDIR
 10
0.0
 20
1.0
 30
0.0
  9
$PUCSNAME
  2

  9
$PUCSORG
 10
0.0
 20
0.0
 30
0.0
  9
$PUCSXDIR
 10
1.0
 20
0.0
 30
0.0
  9
$PUCSYDIR
 10
0.0
 20
1.0
 30
0.0
  9
$USERI1
 70
     0
  9
$USERI2
 70
     0
  9
$USERI3
 70
     0
  9
$USERI4
 70
     0
  9
$USERI5
 70
     0
  9
$USERR1
 40
0.0
  9
$USERR2
 40
0.0
  9
$USERR3
 40
0.0
  9
$USERR4
 40
0.0
  9
$USERR5
 40
0.0
  9
$WORLDVIEW
 70
     1
  9
$SHADEDGE
 70
     3
  9
$SHADEDIF
 70
    70
  9
$TILEMODE
 70
     1
  9
$MAXACTVP
 70
    48
  9
$PLIMCHECK
 70
     0
  9
$PEXTMIN
 10
1.000000000000000E+20
 20
1.000000000000000E+20
 30
1.000000000000000E+20
  9
$PEXTMAX
 10
-1.000000000000000E+20
 20
-1.000000000000000E+20
 30
-1.000000000000000E+20
  9
$PLIMMIN
 10
0.0
 20
0.0
  9
$PLIMMAX
 10
420.0
 20
297.0
  9
$UNITMODE
 70
     0
  9
$VISRETAIN
 70
     1
  9
$PLINEGEN
 70
     0
  9
$PSLTSCALE
 70
     1
  0
ENDSEC
  0
SECTION
  2
TABLES
  0
TABLE
  2
VPORT
 70
     1
  0
VPORT
  2
*ACTIVE
 70
     0
 10
0.0
 20
0.0
 11
1.0
 21
1.0
 12
13656.12437937334
 22
-55.85903147858693
 13
0.0
 23
0.0
 14
10.0
 24
10.0
 15
10.0
 25
10.0
 16
0.0
 26
0.0
 36
1.0
 17
0.0
 27
0.0
 37
0.0
 40
484.9993501264998
 41
2.12079701120797
 42
50.0
 43
0.0
 44
0.0
 50
0.0
 51
0.0
 71
    16
 72
   100
 73
     1
 74
     1
 75
     0
 76
     0
 77
     0
 78
     0
  0
ENDTAB
  0
TABLE
  2
LTYPE
 70
    17
  0
LTYPE
  2
CONTINUOUS
 70
     0
  3
Solid line
 72
    65
 73
     0
 40
0.0
  0
LTYPE
  2
HIDS
 70
     0
  3
(\U+7834\U+7DDA1)- - - - - - - - - - - - - - - - - - - - 
 72
    65
 73
     2
 40
2.5
 49
1.5
 49
-1.0
  0
LTYPE
  2
PHAS
 70
     0
  3
(2\U+70B9\U+9396\U+7DDA1)---- - - ---- - - ---- - - ---- - - -
 72
    65
 73
     6
 40
15.0
 49
10.0
 49
-1.0
 49
1.0
 49
-1.0
 49
1.0
 49
-1.0
  0
LTYPE
  2
CENS
 70
     0
  3
(1\U+70B9\U+9396\U+7DDA1)---- - ---- - ---- - ---- - ---- - --
 72
    65
 73
     4
 40
13.0
 49
10.0
 49
-1.0
 49
1.0
 49
-1.0
  0
ENDTAB
  0
TABLE
  2
LAYER
 70
    59
  0
LAYER
  2
0
 70
     0
 62
     7
  6
CONTINUOUS
  0
LAYER
  2
1TEXT
 70
     0
 62
     7
  6
CONTINUOUS
  0
LAYER
  2
01
 70
     0
 62
     1
  6
CONTINUOUS
  0
ENDTAB
  0
TABLE
  2
STYLE
 70
    21
  0
STYLE
  2
STANDARD
 70
     0
 40
0.0
 41
1.0
 50
0.0
 71
     0
 42
4.0
  3
txt.shx
  4
extfont.shx
  0
STYLE
  2
STANDARD06
 70
     0
 40
0.0
 41
0.6
 50
0.0
 71
     0
 42
2.0
  3
romans.shx
  4
extfont2.shx
  0
STYLE
  2
STD
 70
     0
 40
0.0
 41
1.0
 50
0.0
 71
     0
 42
4.0
  3
TXT.shx
  4
bigfont.shx
  0
ENDTAB
  0
TABLE
  2
VIEW
 70
     0
  0
ENDTAB
  0
TABLE
  2
UCS
 70
     0
  0
ENDTAB
  0
TABLE
  2
APPID
 70
    33
  0
APPID
  2
ACAD
 70
     0
  0
APPID
  2
DRAWINGVARIABLESXDATA
 70
     0
  0
APPID
  2
CONTENTTABDATA
 70
     0
  0
APPID
  2
CONTENTCURRENTTAB
 70
     0
  0
APPID
  2
CONTENTBLOCKDESCRIPTION
 70
     0
  0
APPID
  2
CONTENTBLOCKICON
 70
     0
  0
APPID
  2
CONTENTLONGBLOCKNAME
 70
     0
  0
APPID
  2
ACAD_PSEXT
 70
     0
  0
APPID
  2
ACAD_MLEADERVER
 70
     0
  0
APPID
  2
ACAD_EXEMPT_FROM_CAD_STAND
 70
     0
  0
APPID
  2
ACAECLAYERSTANDARD
 70
     0
  0
APPID
  2
ACADANNOTATIVE
 70
     0
  0
APPID
  2
ACDBBLOCKREPETAG
 70
     0
  0
APPID
  2
ACAD_OBJECT_CHANGE_GUID
 70
     0
  0
APPID
  2
ACLAYERTOOLS
 70
     0
  0
APPID
  2
ACAD_NAV_VCDISPLAY
 70
     0
  0
APPID
  2
ACADSTRINGINFO
 70
     0
  0
APPID
  2
GRADIENTCOLOR1ACI
 70
     0
  0
APPID
  2
GRADIENTCOLOR2ACI
 70
     0
  0
APPID
  2
ACADANNOMONITORALERTICONDI
 70
     0
  0
APPID
  2
ACAD_DSTYLE_DIMJOGGED_JOGA
 70
     0
  0
APPID
  2
ACAD_DSTYLE_DIM_LINETYPE
 70
     0
  0
APPID
  2
ACAD_DSTYLE_DIM_EXT1_LINET
 70
     0
  0
APPID
  2
ACAD_DSTYLE_DIM_EXT2_LINET
 70
     0
  0
APPID
  2
ACAD_DSTYLE_DIMJAG
 70
     0
  0
APPID
  2
ACAD_DSTYLE_DIMTALN
 70
     0
  0
APPID
  2
ASKOBJSC
 70
     0
  0
APPID
  2
ASKDWGSC
 70
     0
  0
APPID
  2
ACAD_DSTYLE_DIMRADIAL_EXTE
 70
     0
  0
APPID
  2
ACADANNOTATIVEDECOMPOSITIO
 70
     0
  0
APPID
  2
AECBASE
 70
     0
  0
APPID
  2
AEC_2DSECTION_XDATA
 70
     0
  0
APPID
  2
AEC_MASSGROUP_XDADA
 70
     0
  0
ENDTAB
  0
TABLE
  2
DIMSTYLE
 70
     5
  0
DIMSTYLE
  2
NEWX10
 70
     0
  3
 
  4

  5

  6
OPEN30
  7
OPEN30
 40
1.0
 41
2.0
 42
0.0
 43
7.0
 44
1.0
 45
0.0
 46
0.0
 47
0.0
 48
0.0
140
3.5
141
0.0
142
0.0
143
25.4
144
1.0
145
0.0
146
0.7
147
0.7
 71
     0
 72
     0
 73
     0
 74
     0
 75
     0
 76
     0
 77
     1
 78
     8
170
     0
171
     2
172
     1
173
     1
174
     0
175
     0
176
   256
177
   256
178
   201
  0
DIMSTYLE
  2
ISO-25
 70
     0
  3

  4

  5

  6

  7

 40
1.0
 41
20.0
 42
3.0
 43
3.75
 44
2.0
 45
0.0
 46
0.0
 47
0.0
 48
0.0
140
30.0
141
5.0
142
0.0
143
0.03937
144
1.0
145
0.0
146
1.0
147
8.0
 71
     0
 72
     0
 73
     0
 74
     0
 75
     0
 76
     0
 77
     1
 78
     8
170
     0
171
     3
172
     1
173
     0
174
     0
175
     0
176
     1
177
     1
178
     1
  0
ENDTAB
  0
ENDSEC
  0
SECTION
  2
BLOCKS
  0
BLOCK
  8
0
  2
$MODEL_SPACE
 70
     0
 10
0.0
 20
0.0
 30
0.0
  3
$MODEL_SPACE
  1

  0
ENDBLK
  5
1A
  8
0
  0
BLOCK
 67
     1
  8
0
  2
$PAPER_SPACE
 70
     0
 10
0.0
 20
0.0
 30
0.0
  3
$PAPER_SPACE
  1

  0
ENDBLK
  5
17
 67
     1
  8
0
  0
BLOCK
  8
0
  2
_OPEN30
 70
     0
 10
0.0
 20
0.0
 30
0.0
  3
_OPEN30
  1

  0
LINE
  5
44
  8
0
  6
BYBLOCK
 62
     0
 10
-1.0
 20
0.26794919
 30
0.0
 11
0.0
 21
0.0
 31
0.0
  0
LINE
  5
45
  8
0
  6
BYBLOCK
 62
     0
 10
0.0
 20
0.0
 30
0.0
 11
-1.0
 21
-0.26794919
 31
0.0
  0
LINE
  5
46
  8
0
  6
BYBLOCK
 62
     0
 10
0.0
 20
0.0
 30
0.0
 11
-1.0
 21
0.0
 31
0.0
  0
ENDBLK
  5
47
  8
0
  0
BLOCK
  8
0
  2
A3WAKUKAWAJUN2017_HYOUDAI_
 70
     0
 10
0.0
 20
0.0
 30
0.0
  3
A3WAKUKAWAJUN2017_HYOUDAI_
  1

  0
LINE
  5
1057F
  8
0
 10
13.26299999998673
 20
-0.0001000000000317
 30
0.0
 11
9.236999999990758
 21
8.999899999990987
 31
0.0
1001
ACAD
1000
ASC_BOUNDS
1002
{
1070
    19
1005
105C0
1002
}
  0
LINE
  5
10580
  8
0
 10
5.657999999994331
 20
0.9999999999989768
 30
0.0
 11
9.236999999990758
 21
8.999999999991019
 31
0.0
1001
ACAD
1000
ASC_BOUNDS
1002
{
1070
    19
1005
105C0
1002
}
  0
LINE
  5
10581
  8
0
 10
18.59199999998134
 20
-0.2368999999997641
 30
0.0
 11
16.46099999998353
 21
5.432899999994561
 31
0.0
1001
ACAD
1000
ASC_BOUNDS
1002
{
1070
    19
1005
105C1
1002
}
  0
LINE
  5
10582
  8
0
 10
18.59199999998134
 20
-0.2368999999997641
 30
0.0
 11
22.38199999997767
 21
8.763099999991255
 31
0.0
1001
ACAD
1000
ASC_BOUNDS
1002
{
1070
    19
1005
105C1
1002
}
  0
LINE
  5
10583
  8
0
 10
14.32899999998563
 20
-0.2368999999997641
 30
0.0
 11
16.46099999998353
 21
5.432899999994561
 31
0.0
1001
ACAD
1000
ASC_BOUNDS
1002
{
1070
    19
1005
105C1
1002
}
  0
LINE
  5
10584
  8
0
 10
14.32899999998563
 20
-0.2368999999997641
 30
0.0
 11
10.53899999998941
 21
8.763099999991255
 31
0.0
1001
ACAD
1000
ASC_BOUNDS
1002
{
1070
    19
1005
105C1
1002
}
  0
LINE
  5
10585
  8
0
 10
19.53899999998043
 20
-0.0001000000000317
 30
0.0
 11
23.56599999997638
 21
8.999899999990987
 31
0.0
1001
ACAD
1000
ASC_BOUNDS
1002
{
1070
    19
1005
105C2
1002
}
  0
LINE
  5
10586
  8
0
 10
26.97358892824991
 20
1.383099999991202
 30
0.0
 11
23.56599999997638
 21
8.999899999990987
 31
0.0
1001
ACAD
1000
ASC_BOUNDS
1002
{
1070
    19
1005
105C2
1002
}
  0
LINE
  5
10587
  8
0
 10
5.657999999994331
 20
0.9999999999989768
 30
0.0
 11
3.181999999996833
 21
4.668599999995308
 31
0.0
1001
ACAD
1000
ASC_BOUNDS
1002
{
1070
    19
1005
105C0
1002
}
  0
LINE
  5
10588
  8
0
 10
4.617999999995391
 20
-0.0001000000000317
 30
0.0
 11
1.420999999998571
 21
4.736799999995242
 31
0.0
1001
ACAD
1000
ASC_BOUNDS
1002
{
1070
    19
1005
105C0
1002
}
  0
LINE
  5
10589
  8
0
 10
1.420999999998571
 20
8.763099999991255
 30
0.0
 11
1.420999999998571
 21
0.0
 31
0.0
1001
ACAD
1000
ASC_BOUNDS
1002
{
1070
    19
1005
105C5
1002
}
  0
LINE
  5
1058A
  8
0
 10
0.0
 20
8.763099999991255
 30
0.0
 11
0.0
 21
0.0
 31
0.0
1001
ACAD
1000
ASC_BOUNDS
1002
{
1070
    19
1005
105C5
1002
}
  0
LINE
  5
1058B
  8
0
 10
6.766999999993232
 20
-0.0001000000000317
 30
0.0
 11
7.826999999992154
 21
2.368399999997621
 31
0.0
1001
ACAD
1000
ASC_BOUNDS
1002
{
1070
    19
1005
105C0
1002
}
  0
LINE
  5
1058C
  8
0
 10
0.0
 20
0.0
 30
0.0
 11
1.420999999998571
 21
0.0
 31
0.0
1001
ACAD
1000
ASC_BOUNDS
1002
{
1070
    19
1005
105C5
1002
}
  0
LINE
  5
1058D
  8
0
 10
4.617999999995391
 20
0.0
 30
0.0
 11
6.766999999993232
 21
0.0
 31
0.0
1001
ACAD
1000
ASC_BOUNDS
1002
{
1070
    19
1005
105C0
1002
}
  0
LINE
  5
1058E
  8
0
 10
11.70599999998831
 20
-0.0001000000000317
 30
0.0
 11
10.64699999998936
 21
2.368399999997621
 31
0.0
1001
ACAD
1000
ASC_BOUNDS
1002
{
1070
    19
1005
105C0
1002
}
  0
LINE
  5
1058F
  8
0
 10
7.826999999992154
 20
2.368399999997621
 30
0.0
 11
10.64699999998936
 21
2.368399999997621
 31
0.0
1001
ACAD
1000
ASC_BOUNDS
1002
{
1070
    19
1005
105C0
1002
}
  0
LINE
  5
10590
  8
0
 10
11.70599999998831
 20
0.0
 30
0.0
 11
13.26299999998673
 21
0.0
 31
0.0
1001
ACAD
1000
ASC_BOUNDS
1002
{
1070
    19
1005
105C0
1002
}
  0
LINE
  5
10591
  8
0
 10
22.15599999997789
 20
2.368399999997621
 30
0.0
 11
24.97599999997499
 21
2.368399999997621
 31
0.0
1001
ACAD
1000
ASC_BOUNDS
1002
{
1070
    19
1005
105C2
1002
}
  0
LINE
  5
10592
  8
0
 10
19.53899999998043
 20
0.0
 30
0.0
 11
21.09599999997886
 21
0.0
 31
0.0
1001
ACAD
1000
ASC_BOUNDS
1002
{
1070
    19
1005
105C2
1002
}
  0
LINE
  5
10593
  8
0
 10
21.09599999997886
 20
-0.0001000000000317
 30
0.0
 11
22.15599999997789
 21
2.368399999997621
 31
0.0
1001
ACAD
1000
ASC_BOUNDS
1002
{
1070
    19
1005
105C2
1002
}
  0
LINE
  5
10594
  8
0
 10
26.02015566812236
 20
0.0330999999912365
 30
0.0
 11
24.97599999997499
 21
2.368399999997621
 31
0.0
1001
ACAD
1000
ASC_BOUNDS
1002
{
1070
    19
1005
105C2
1002
}
  0
LINE
  5
10595
  8
0
 10
14.32399999998563
 20
3.315799999996671
 30
0.0
 11
16.46099999998353
 21
8.999899999990987
 31
0.0
1001
ACAD
1000
ASC_BOUNDS
1002
{
1070
    19
1005
105C1
1002
}
  0
LINE
  5
10596
  8
0
 10
6.432999999993513
 20
8.763099999991255
 30
0.0
 11
3.181999999996833
 21
4.668599999995308
 31
0.0
1001
ACAD
1000
ASC_BOUNDS
1002
{
1070
    19
1005
105C0
1002
}
  0
LINE
  5
10597
  8
0
 10
4.617999999995391
 20
8.763099999991255
 30
0.0
 11
1.420999999998571
 21
4.736799999995242
 31
0.0
1001
ACAD
1000
ASC_BOUNDS
1002
{
1070
    19
1005
105C0
1002
}
  0
LINE
  5
10598
  8
0
 10
0.0
 20
8.763099999991255
 30
0.0
 11
1.420999999998571
 21
8.763099999991255
 31
0.0
1001
ACAD
1000
ASC_BOUNDS
1002
{
1070
    19
1005
105C5
1002
}
  0
LINE
  5
10599
  8
0
 10
4.617999999995391
 20
8.763099999991255
 30
0.0
 11
6.432999999993513
 21
8.763099999991255
 31
0.0
1001
ACAD
1000
ASC_BOUNDS
1002
{
1070
    19
1005
105C0
1002
}
  0
LINE
  5
1059A
  8
0
 10
14.32399999998563
 20
3.315799999996671
 30
0.0
 11
12.02999999998792
 21
8.763099999991255
 31
0.0
1001
ACAD
1000
ASC_BOUNDS
1002
{
1070
    19
1005
105C1
1002
}
  0
LINE
  5
1059B
  8
0
 10
10.06399999998996
 20
3.670999999996297
 30
0.0
 11
9.236999999990758
 21
5.5200999999945
 31
0.0
1001
ACAD
1000
ASC_BOUNDS
1002
{
1070
    19
1005
105C0
1002
}
  0
LINE
  5
1059C
  8
0
 10
8.409999999991555
 20
3.670999999996297
 30
0.0
 11
9.236999999990758
 21
5.5200999999945
 31
0.0
1001
ACAD
1000
ASC_BOUNDS
1002
{
1070
    19
1005
105C0
1002
}
  0
LINE
  5
1059D
  8
0
 10
8.409999999991555
 20
3.670999999996297
 30
0.0
 11
10.06399999998996
 21
3.670999999996297
 31
0.0
1001
ACAD
1000
ASC_BOUNDS
1002
{
1070
    19
1005
105C0
1002
}
  0
LINE
  5
1059E
  8
0
 10
10.53899999998941
 20
8.763099999991255
 30
0.0
 11
12.02999999998792
 21
8.763099999991255
 31
0.0
1001
ACAD
1000
ASC_BOUNDS
1002
{
1070
    19
1005
105C1
1002
}
  0
LINE
  5
1059F
  8
0
 10
22.7389999999773
 20
3.670999999996297
 30
0.0
 11
23.56599999997638
 21
5.5200999999945
 31
0.0
1001
ACAD
1000
ASC_BOUNDS
1002
{
1070
    19
1005
105C2
1002
}
  0
LINE
  5
105A0
  8
0
 10
22.7389999999773
 20
3.670999999996297
 30
0.0
 11
24.39299999997559
 21
3.670999999996297
 31
0.0
1001
ACAD
1000
ASC_BOUNDS
1002
{
1070
    19
1005
105C2
1002
}
  0
LINE
  5
105A1
  8
0
 10
18.59799999998143
 20
3.315799999996671
 30
0.0
 11
20.89099999997916
 21
8.763099999991255
 31
0.0
1001
ACAD
1000
ASC_BOUNDS
1002
{
1070
    19
1005
105C1
1002
}
  0
LINE
  5
105A2
  8
0
 10
18.59799999998143
 20
3.315799999996671
 30
0.0
 11
16.46099999998353
 21
8.999899999990987
 31
0.0
1001
ACAD
1000
ASC_BOUNDS
1002
{
1070
    19
1005
105C1
1002
}
  0
LINE
  5
105A3
  8
0
 10
20.89099999997916
 20
8.763099999991255
 30
0.0
 11
22.38199999997767
 21
8.763099999991255
 31
0.0
1001
ACAD
1000
ASC_BOUNDS
1002
{
1070
    19
1005
105C1
1002
}
  0
LINE
  5
105A4
  8
0
 10
24.39299999997559
 20
3.670999999996297
 30
0.0
 11
23.56599999997638
 21
5.5200999999945
 31
0.0
1001
ACAD
1000
ASC_BOUNDS
1002
{
1070
    19
1005
105C2
1002
}
  0
LINE
  5
105A5
  8
0
 10
44.99999999995498
 20
-0.2368999999997641
 30
0.0
 11
40.02599999995994
 21
5.341799999994635
 31
0.0
1001
ACAD
1000
ASC_BOUNDS
1002
{
1070
    19
1005
105C4
1002
}
  0
LINE
  5
105A6
  8
0
 10
40.02599999995994
 20
5.341799999994635
 30
0.0
 11
40.02599999995994
 21
0.0
 31
0.0
1001
ACAD
1000
ASC_BOUNDS
1002
{
1070
    19
1005
105C4
1002
}
  0
LINE
  5
105A7
  8
0
 10
38.60499999996136
 20
8.999999999991019
 30
0.0
 11
38.60499999996136
 21
0.0
 31
0.0
1001
ACAD
1000
ASC_BOUNDS
1002
{
1070
    19
1005
105C4
1002
}
  0
LINE
  5
105A8
  8
0
 10
44.99999999995498
 20
8.763099999991255
 30
0.0
 11
44.99999999995498
 21
-0.2368999999997641
 31
0.0
1001
ACAD
1000
ASC_BOUNDS
1002
{
1070
    19
1005
105C4
1002
}
  0
LINE
  5
105A9
  8
0
 10
38.60499999996136
 20
0.0
 30
0.0
 11
40.02599999995994
 21
0.0
 31
0.0
1001
ACAD
1000
ASC_BOUNDS
1002
{
1070
    19
1005
105C4
1002
}
  0
LINE
  5
105AA
  8
0
 10
43.57899999995641
 20
3.421199999996588
 30
0.0
 11
38.60499999996136
 21
8.999899999990987
 31
0.0
1001
ACAD
1000
ASC_BOUNDS
1002
{
1070
    19
1005
105C4
1002
}
  0
LINE
  5
105AB
  8
0
 10
43.57899999995641
 20
8.763099999991255
 30
0.0
 11
43.57899999995641
 21
3.421199999996588
 31
0.0
1001
ACAD
1000
ASC_BOUNDS
1002
{
1070
    19
1005
105C4
1002
}
  0
LINE
  5
105AC
  8
0
 10
43.57899999995641
 20
8.763099999991255
 30
0.0
 11
44.99999999995498
 21
8.763099999991255
 31
0.0
1001
ACAD
1000
ASC_BOUNDS
1002
{
1070
    19
1005
105C4
1002
}
  0
LINE
  5
105AD
  8
0
 10
37.67199999996831
 20
8.763099999991255
 30
0.0
 11
36.23199999996837
 21
8.763099999991255
 31
0.0
  0
LINE
  5
105AE
  8
0
 10
31.64199999996833
 20
8.763099999991255
 30
0.0
 11
31.64199999996833
 21
2.481619422925121
 31
0.0
  0
LINE
  5
105AF
  8
0
 10
37.67199999996831
 20
8.763099999991255
 30
0.0
 11
37.67199999996831
 21
2.481619422925121
 31
0.0
  0
LINE
  5
105B0
  8
0
 10
36.23199999996837
 20
8.763099999991255
 30
0.0
 11
36.23199999996837
 21
2.481619422925064
 31
0.0
  0
LINE
  5
105B1
  8
0
 10
33.08199999996839
 20
8.763099999991255
 30
0.0
 11
33.08199999996839
 21
2.481619422925121
 31
0.0
  0
ARC
  5
105B2
  8
0
 10
34.65699999996832
 20
3.183099999991214
 30
0.0
 40
3.420000000000007
 50
240.0000000000255
 51
299.9999999999766
  0
ARC
  5
105B3
  8
0
 10
34.65699999996832
 20
3.183099999991214
 30
0.0
 40
1.97999999999999
 50
240.000000000026
 51
299.9999999999703
  0
LINE
  5
105B4
  8
0
 10
33.08199999996828
 20
8.763099999991255
 30
0.0
 11
31.64199999996833
 21
8.763099999991255
 31
0.0
  0
ARC
  5
105B5
  8
0
 10
35.06199999996829
 20
2.481619422925064
 30
0.0
 40
1.17
 50
299.9999999999699
 51
0.0
  0
ARC
  5
105B6
  8
0
 10
34.25199999996835
 20
2.481619422925121
 30
0.0
 40
1.17
 50
180.0
 51
240.0000000000238
  0
ARC
  5
105B7
  8
0
 10
35.06199999996841
 20
2.481619422925121
 30
0.0
 40
2.61
 50
299.9999999999756
 51
0.0
  0
ARC
  5
105B8
  8
0
 10
34.25199999996835
 20
2.481619422925121
 30
0.0
 40
2.61
 50
180.0
 51
240.0000000000244
  0
LINE
  5
105B9
  8
0
 10
29.30199999996933
 20
8.763099999991255
 30
0.0
 11
30.74199999996927
 21
8.763099999991255
 31
0.0
1001
ACAD
1000
ASC_BOUNDS
1002
{
1070
    19
1005
105C2
1002
}
  0
LINE
  5
105BA
  8
0
 10
30.74199999996927
 20
8.763099999991255
 30
0.0
 11
30.74199999996927
 21
2.373099999991211
 31
0.0
1001
ACAD
1000
ASC_BOUNDS
1002
{
1070
    19
1005
105C2
1002
}
  0
LINE
  5
105BB
  8
0
 10
26.02015566812236
 20
0.0330999999912365
 30
0.0
 11
28.40199999996923
 21
0.0330999999912365
 31
0.0
1001
ACAD
1000
ASC_BOUNDS
1002
{
1070
    19
1005
105C2
1002
}
  0
LINE
  5
105BC
  8
0
 10
29.30199999996933
 20
8.763099999991255
 30
0.0
 11
29.30199999996933
 21
2.283099999991236
 31
0.0
1001
ACAD
1000
ASC_BOUNDS
1002
{
1070
    19
1005
105C2
1002
}
  0
LINE
  5
105BD
  8
0
 10
26.97358892824991
 20
1.383099999991202
 30
0.0
 11
28.40199999996923
 21
1.383099999991202
 31
0.0
1001
ACAD
1000
ASC_BOUNDS
1002
{
1070
    19
1005
105C2
1002
}
  0
ARC
  5
105BE
  8
0
 10
28.40199999996923
 20
2.283099999991236
 30
0.0
 40
0.9
 50
270.0
 51
0.0
1001
ACAD
1000
ASC_BOUNDS
1002
{
1070
    19
1005
105C2
1002
}
  0
ARC
  5
105BF
  8
0
 10
28.40199999996923
 20
2.373099999991211
 30
0.0
 40
2.34
 50
270.0
 51
0.0
1001
ACAD
1000
ASC_BOUNDS
1002
{
1070
    19
1005
105C2
1002
}
  0
INSERT
  5
105C0
  8
0
  2
*X784
 10
0.0
 20
0.0
 30
0.0
1001
ACAD
1000
HATCH
1002
{
1070
    19
1000
ANSI37
1040
0.15
1040
0.0
1000
ASC_BOUNDS
1070
     2
1070
     2
1070
    12
1005
1057F
1005
10580
1005
10587
1005
10596
1005
10599
1005
10597
1005
10588
1005
1058D
1005
1058B
1005
1058F
1005
1058E
1005
10590
1070
     2
1070
     3
1005
1059B
1005
1059D
1005
1059C
1000
ASC_SEEDPOINT
1011
3.614004224891801
1021
2.996669441146025
1031
0.0
1021
2.996669441146025
1031
0.0
1000
R14_HATCH_DATA
1000
105C0
1011
1.0
1021
0.0
1031
0.0
1021
0.0
1031
0.0
1011
0.0
1021
1.0
1031
0.0
1021
1.0
1031
0.0
1011
0.0
1021
0.0
1031
1.0
1021
0.0
1031
1.0
1040
0.0
1010
0.0
1020
0.0
1030
1.0
1000
ANSI37
1070
     0
1070
     1
1071
        2
1071
        7
1070
     0
1070
     1
1071
       17
1040
13.26299999998673
1040
-0.0001000000000317
1040
9.236999999990758
1040
8.999899999990987
1040
9.236999999990758
1040
8.999999999991019
1040
5.657999999994331
1040
0.9999999999989768
1040
3.181999999996833
1040
4.668599999995308
1040
6.432999999993513
1040
8.763099999991255
1040
4.617999999995391
1040
8.763099999991255
1040
1.420999999998571
1040
4.736799999995242
1040
4.617999999995391
1040
-0.0001000000000317
1040
4.617999999995391
1040
0.0
1040
6.766999999993232
1040
0.0
1040
6.766999999993232
1040
-0.0001000000000317
1040
7.826999999992154
1040
2.368399999997621
1040
10.64699999998936
1040
2.368399999997621
1040
11.70599999998831
1040
-0.0001000000000317
1040
11.70599999998831
1040
0.0
1040
13.26299999998673
1040
0.0
1071
       12
1005
1057F
1005
10580
1005
10587
1005
10596
1005
10599
1005
10597
1005
10588
1005
1058D
1005
1058B
1005
1058F
1005
1058E
1005
10590
1071
       22
1070
     0
1070
     1
1071
        3
1040
9.236999999990758
1040
5.5200999999945
1040
10.06399999998996
1040
3.670999999996297
1040
8.409999999991555
1040
3.670999999996297
1071
        3
1005
1059B
1005
1059D
1005
1059C
1070
     0
1070
     1
1040
0.0
1040
0.15
1070
     0
1070
     2
1040
0.7853981633974483
1040
49.29960901727088
1040
-10.17736998311392
1040
-0.3367596045400932
1040
0.3367596045400932
1070
     0
1040
2.356194490192345
1040
49.29960901727088
1040
-10.17736998311392
1040
-0.3367596045400932
1040
-0.3367596045400932
1070
     0
1040
0.0110235143455945
1071
        2
1040
3.614004224891801
1040
2.996669441146025
1040
0.0
1040
3.614004224891801
1040
2.996669441146025
1040
0.0
1002
}
  0
INSERT
  5
105C1
  8
0
  2
*X785
 10
0.0
 20
0.0
 30
0.0
1001
ACAD
1000
HATCH
1002
{
1070
    19
1000
ANSI37
1040
0.15
1040
0.0
1000
ASC_BOUNDS
1070
     1
1070
     2
1070
    10
1005
10581
1005
10582
1005
105A3
1005
105A1
1005
105A2
1005
10595
1005
1059A
1005
1059E
1005
10584
1005
10583
1000
ASC_SEEDPOINT
1011
14.73245321214324
1021
2.798246178283421
1031
0.0
1021
2.798246178283421
1031
0.0
1000
R14_HATCH_DATA
1000
105C1
1011
1.0
1021
0.0
1031
0.0
1021
0.0
1031
0.0
1011
0.0
1021
1.0
1031
0.0
1021
1.0
1031
0.0
1011
0.0
1021
0.0
1031
1.0
1021
0.0
1031
1.0
1040
0.0
1010
0.0
1020
0.0
1030
1.0
1000
ANSI37
1070
     0
1070
     1
1071
        1
1071
        7
1070
     0
1070
     1
1071
       10
1040
16.46099999998353
1040
5.432899999994561
1040
18.59199999998134
1040
-0.2368999999997641
1040
22.38199999997767
1040
8.763099999991255
1040
20.89099999997916
1040
8.763099999991255
1040
18.59799999998143
1040
3.315799999996671
1040
16.46099999998353
1040
8.999899999990987
1040
14.32399999998563
1040
3.315799999996671
1040
12.02999999998792
1040
8.763099999991255
1040
10.53899999998941
1040
8.763099999991255
1040
14.32899999998563
1040
-0.2368999999997641
1071
       10
1005
10581
1005
10582
1005
105A3
1005
105A1
1005
105A2
1005
10595
1005
1059A
1005
1059E
1005
10584
1005
10583
1070
     0
1070
     1
1040
0.0
1040
0.15
1070
     0
1070
     2
1040
0.7853981633974483
1040
49.29960901727088
1040
-10.17736998311392
1040
-0.3367596045400932
1040
0.3367596045400932
1070
     0
1040
2.356194490192345
1040
49.29960901727088
1040
-10.17736998311392
1040
-0.3367596045400932
1040
-0.3367596045400932
1070
     0
1040
0.0110235143455945
1071
        1
1040
14.73245321214324
1040
2.798246178283421
1040
0.0
1002
}
  0
INSERT
  5
105C2
  8
0
  2
*X786
 10
0.0
 20
0.0
 30
0.0
1001
ACAD
1000
HATCH
1002
{
1070
    19
1000
ANSI37
1040
0.15
1040
0.0
1000
ASC_BOUNDS
1070
     2
1070
     2
1070
    13
1005
10585
1005
10592
1005
10593
1005
10591
1005
10594
1005
105BB
1005
105BF
1005
105BA
1005
105B9
1005
105BC
1005
105BE
1005
105BD
1005
10586
1070
     2
1070
     3
1005
1059F
1005
105A4
1005
105A0
1000
ASC_SEEDPOINT
1011
21.97929957367762
1021
3.294304244259308
1031
0.0
1021
3.294304244259308
1031
0.0
1000
R14_HATCH_DATA
1000
105C2
1011
1.0
1021
0.0
1031
0.0
1021
0.0
1031
0.0
1011
0.0
1021
1.0
1031
0.0
1021
1.0
1031
0.0
1011
0.0
1021
0.0
1031
1.0
1021
0.0
1031
1.0
1040
0.0
1010
0.0
1020
0.0
1030
1.0
1000
ANSI37
1070
     0
1070
     1
1071
        2
1071
        7
1070
     1
1070
     1
1071
       15
1040
23.56599999997638
1040
8.999899999990987
1040
0.0
1040
19.53899999998043
1040
-0.0001000000000317
1040
0.0
1040
19.53899999998043
1040
0.0
1040
0.0
1040
21.09599999997886
1040
0.0
1040
0.0
1040
21.09599999997886
1040
-0.0001000000000317
1040
0.0
1040
22.15599999997789
1040
2.368399999997621
1040
0.0
1040
24.97599999997499
1040
2.368399999997621
1040
0.0
1040
26.02015566812236
1040
0.0330999999912365
1040
0.0
1040
28.40199999996923
1040
0.0330999999912365
1040
0.414213562373095
1040
30.74199999996923
1040
2.373099999991211
1040
0.0
1040
30.74199999996927
1040
8.763099999991255
1040
0.0
1040
29.30199999996933
1040
8.763099999991255
1040
0.0
1040
29.30199999996933
1040
2.283099999991236
1040
-0.414213562373095
1040
28.40199999996923
1040
1.383099999991237
1040
0.0
1040
26.97358892824991
1040
1.383099999991202
1040
0.0
1071
       13
1005
10585
1005
10592
1005
10593
1005
10591
1005
10594
1005
105BB
1005
105BF
1005
105BA
1005
105B9
1005
105BC
1005
105BE
1005
105BD
1005
10586
1071
       22
1070
     0
1070
     1
1071
        3
1040
22.7389999999773
1040
3.670999999996297
1040
23.56599999997638
1040
5.5200999999945
1040
24.39299999997559
1040
3.670999999996297
1071
        3
1005
1059F
1005
105A4
1005
105A0
1070
     0
1070
     1
1040
0.0
1040
0.15
1070
     0
1070
     2
1040
0.7853981633974483
1040
49.29960901727088
1040
-10.17736998311392
1040
-0.3367596045400932
1040
0.3367596045400932
1070
     0
1040
2.356194490192345
1040
49.29960901727088
1040
-10.17736998311392
1040
-0.3367596045400932
1040
-0.3367596045400932
1070
     0
1040
0.0110235143455945
1071
        2
1040
21.97929957367762
1040
3.294304244259308
1040
0.0
1040
21.97929957367762
1040
3.294304244259308
1040
0.0
1002
}
  0
INSERT
  5
105C3
  8
0
  2
*X787
 10
0.0
 20
0.0
 30
0.0
1001
ACAD
1000
HATCH
1002
{
1070
    19
1000
ANSI37
1040
0.15
1040
0.0
1000
R14_HATCH_DATA
1000
105C3
1011
1.0
1021
0.0
1031
0.0
1021
0.0
1031
0.0
1011
0.0
1021
1.0
1031
0.0
1021
1.0
1031
0.0
1011
0.0
1021
0.0
1031
1.0
1021
0.0
1031
1.0
1040
0.0
1010
0.0
1020
0.0
1030
1.0
1000
ANSI37
1070
     0
1070
     1
1071
        1
1071
        7
1070
     1
1070
     1
1071
       12
1040
31.64199999996833
1040
2.481619422925121
1040
0.2679491924310942
1040
32.94699999997067
1040
0.2212931190493919
1040
0.2679491924301353
1040
36.36699999995983
1040
0.2212931190459813
1040
0.2679491924321411
1040
37.67199999996831
1040
2.481619422928361
1040
0.0
1040
37.67199999996831
1040
8.763099999991255
1040
0.0
1040
36.23199999996837
1040
8.763099999991255
1040
0.0
1040
36.23199999996837
1040
2.481619422925064
1040
-0.2679491924310291
1040
35.64699999996708
1040
1.468369700498386
1040
-0.267949192430519
1040
33.66699999997093
1040
1.468369700497703
1040
-0.267949192431809
1040
33.08199999996839
1040
2.481619422926997
1040
0.0
1040
33.08199999996839
1040
8.763099999991255
1040
0.0
1040
31.64199999996833
1040
8.763099999991255
1040
0.0
1071
        0
1070
     0
1070
     1
1040
0.0
1040
0.15
1070
     0
1070
     2
1040
0.7853981633974483
1040
49.29960901727088
1040
-10.17736998311392
1040
-0.3367596045400932
1040
0.3367596045400932
1070
     0
1040
2.356194490192345
1040
49.29960901727088
1040
-10.17736998311392
1040
-0.3367596045400932
1040
-0.3367596045400932
1070
     0
1040
0.0110235143455945
1071
        1
1040
32.30357378967278
1040
3.988785755459219
1040
0.0
1002
}
  0
INSERT
  5
105C4
  8
0
  2
*X788
 10
0.0
 20
0.0
 30
0.0
1001
ACAD
1000
HATCH
1002
{
1070
    19
1000
ANSI37
1040
0.15
1040
0.0
1000
ASC_BOUNDS
1070
     1
1070
     2
1070
     8
1005
105A5
1005
105A8
1005
105AC
1005
105AB
1005
105AA
1005
105A7
1005
105A9
1005
105A6
1000
ASC_SEEDPOINT
1011
39.74896370716704
1021
4.484843821435049
1031
0.0
1021
4.484843821435049
1031
0.0
1000
R14_HATCH_DATA
1000
105C4
1011
1.0
1021
0.0
1031
0.0
1021
0.0
1031
0.0
1011
0.0
1021
1.0
1031
0.0
1021
1.0
1031
0.0
1011
0.0
1021
0.0
1031
1.0
1021
0.0
1031
1.0
1040
0.0
1010
0.0
1020
0.0
1030
1.0
1000
ANSI37
1070
     0
1070
     1
1071
        1
1071
        7
1070
     0
1070
     1
1071
        9
1040
40.02599999995994
1040
5.341799999994635
1040
44.99999999995498
1040
-0.2368999999997641
1040
44.99999999995498
1040
8.763099999991255
1040
43.57899999995641
1040
8.763099999991255
1040
43.57899999995641
1040
3.421199999996588
1040
38.60499999996136
1040
8.999899999990987
1040
38.60499999996136
1040
8.999999999991019
1040
38.60499999996136
1040
0.0
1040
40.02599999995994
1040
0.0
1071
        8
1005
105A5
1005
105A8
1005
105AC
1005
105AB
1005
105AA
1005
105A7
1005
105A9
1005
105A6
1070
     0
1070
     1
1040
0.0
1040
0.15
1070
     0
1070
     2
1040
0.7853981633974483
1040
49.29960901727088
1040
-10.17736998311392
1040
-0.3367596045400932
1040
0.3367596045400932
1070
     0
1040
2.356194490192345
1040
49.29960901727088
1040
-10.17736998311392
1040
-0.3367596045400932
1040
-0.3367596045400932
1070
     0
1040
0.0110235143455945
1071
        1
1040
39.74896370716704
1040
4.484843821435049
1040
0.0
1002
}
  0
INSERT
  5
105C5
  8
0
  2
*X789
 10
0.0
 20
0.0
 30
0.0
1001
ACAD
1000
HATCH
1002
{
1070
    19
1000
ANSI37
1040
0.15
1040
0.0
1000
ASC_BOUNDS
1070
     1
1070
     2
1070
     4
1005
10589
1005
10598
1005
1058A
1005
1058C
1000
ASC_SEEDPOINT
1011
1.079051535452663
1021
4.148538732891836
1031
0.0
1021
4.148538732891836
1031
0.0
1000
R14_HATCH_DATA
1000
105C5
1011
1.0
1021
0.0
1031
0.0
1021
0.0
1031
0.0
1011
0.0
1021
1.0
1031
0.0
1021
1.0
1031
0.0
1011
0.0
1021
0.0
1031
1.0
1021
0.0
1031
1.0
1040
0.0
1010
0.0
1020
0.0
1030
1.0
1000
ANSI37
1070
     0
1070
     1
1071
        1
1071
        7
1070
     0
1070
     1
1071
        4
1040
1.420999999998571
1040
0.0
1040
1.420999999998571
1040
8.763099999991255
1040
0.0
1040
8.763099999991255
1040
0.0
1040
0.0
1071
        4
1005
10589
1005
10598
1005
1058A
1005
1058C
1070
     0
1070
     1
1040
0.0
1040
0.15
1070
     0
1070
     2
1040
0.7853981633974483
1040
49.29960901727088
1040
-10.17736998311392
1040
-0.3367596045400932
1040
0.3367596045400932
1070
     0
1040
2.356194490192345
1040
49.29960901727088
1040
-10.17736998311392
1040
-0.3367596045400932
1040
-0.3367596045400932
1070
     0
1040
0.0053004257112761
1071
        1
1040
1.079051535452663
1040
4.148538732891836
1040
0.0
1002
}
  0
ENDBLK
  5
10C7D
  8
0
  0
BLOCK
  8
0
  2
NO3CIRCLE
 70
     2
 10
0.0
 20
0.0
 30
0.0
  3
NO3CIRCLE
  1

  0
CIRCLE
  5
13C6E
  8
0
  6
BYBLOCK
 62
     0
 10
0.0
 20
0.0
 30
0.0
 40
4.2
  0
ATTDEF
  5
13C6F
  8
1TEXT
 10
-3.428571428571427
 20
-2.0
 30
0.0
 40
4.0
  1
000
 41
0.6
  7
STANDARD06
 72
     4
 11
0.0
 21
0.0
 31
0.0
  3
NO3
  2
NO3
 70
     0
  0
ENDBLK
  5
13C70
  8
0
  0
BLOCK
  8
0
  2
ARRI
 70
     0
 10
0.0
 20
0.0
 30
0.0
  3
ARRI
  1

  0
LINE
  5
15308
  8
0
  6
BYBLOCK
 62
     0
 10
-0.9999999999995168
 20
-0.2125565616699987
 30
0.0
 11
0.0000000000005826
 21
0.0000000000000142
 31
0.0
  0
LINE
  5
15309
  8
0
  6
BYBLOCK
 62
     0
 10
0.0000000000004832
 20
0.0
 30
0.0
 11
-0.9999999999995168
 21
0.0000000000000284
 31
0.0
  0
LINE
  5
1530A
  8
0
  6
BYBLOCK
 62
     0
 10
0.0000000000005826
 20
0.0000000000000142
 30
0.0
 11
-0.9999999999995168
 21
0.2125565616699276
 31
0.0
  0
ENDBLK
  5
157A1
  8
0
  0
BLOCK
  8
0
  2
*X784
 70
     1
 10
0.0
 20
0.0
 30
0.0
  3
*X784
  1

  0
LINE
  5
1F0FB
  8
0
  6
CONTINUOUS
 10
3.418023043697893
 20
7.251849696850613
 30
0.0
 11
4.929273346838536
 21
8.763099999991255
 31
0.0
  0
LINE
  5
1F0FC
  8
0
  6
CONTINUOUS
 10
1.483656411257782
 20
4.643963855330318
 30
0.0
 11
5.60279255591872
 21
8.763099999991255
 31
0.0
  0
LINE
  5
1F0FD
  8
0
  6
CONTINUOUS
 10
1.755053947328235
 20
4.241842182320584
 30
0.0
 11
6.276311764998907
 21
8.763099999991255
 31
0.0
  0
LINE
  5
1F0FE
  8
0
  6
CONTINUOUS
 10
2.026451483398688
 20
3.839720509310849
 30
0.0
 11
4.441040904851878
 21
6.254309930764039
 31
0.0
  0
LINE
  5
1F0FF
  8
0
  6
CONTINUOUS
 10
2.297849019469139
 20
3.437598836301114
 30
0.0
 11
3.321765168359338
 21
4.461514985191313
 31
0.0
  0
LINE
  5
1F100
  8
0
  6
CONTINUOUS
 10
2.569246555539591
 20
3.03547716329138
 30
0.0
 11
3.593163397972743
 21
4.059394005724531
 31
0.0
  0
LINE
  5
1F101
  8
0
  6
CONTINUOUS
 10
2.840644091610043
 20
2.633355490281646
 30
0.0
 11
3.864561627586149
 21
3.657273026257751
 31
0.0
  0
LINE
  5
1F102
  8
0
  6
CONTINUOUS
 10
3.112041627680496
 20
2.231233817271911
 30
0.0
 11
4.135959857199554
 21
3.25515204679097
 31
0.0
  0
LINE
  5
1F103
  8
0
  6
CONTINUOUS
 10
3.383439163750948
 20
1.829112144262177
 30
0.0
 11
4.40735808681296
 21
2.853031067324189
 31
0.0
  0
LINE
  5
1F104
  8
0
  6
CONTINUOUS
 10
3.654836699821399
 20
1.426990471252442
 30
0.0
 11
4.678756316426365
 21
2.450910087857407
 31
0.0
  0
LINE
  5
1F105
  8
0
  6
CONTINUOUS
 10
3.926234235891853
 20
1.024868798242709
 30
0.0
 11
4.95015454603977
 21
2.048789108390626
 31
0.0
  0
LINE
  5
1F106
  8
0
  6
CONTINUOUS
 10
4.197631771962304
 20
0.6227471252329737
 30
0.0
 11
5.221552775653176
 21
1.646668128923846
 31
0.0
  0
LINE
  5
1F107
  8
0
  6
CONTINUOUS
 10
8.715877546767851
 20
7.835069736359266
 30
0.0
 11
9.435953450375058
 21
8.555145639966472
 31
0.0
  0
LINE
  5
1F108
  8
0
  6
CONTINUOUS
 10
8.170620868422267
 20
6.616293848933497
 30
0.0
 11
9.644120833743461
 21
8.08979381425469
 31
0.0
  0
LINE
  5
1F109
  8
0
  6
CONTINUOUS
 10
7.625364190076684
 20
5.397517961507727
 30
0.0
 11
9.852288217111864
 21
7.624441988542907
 31
0.0
  0
LINE
  5
1F10A
  8
0
  6
CONTINUOUS
 10
7.080107511731101
 20
4.178742074081957
 30
0.0
 11
10.06045560048027
 21
7.159090162831124
 31
0.0
  0
LINE
  5
1F10B
  8
0
  6
CONTINUOUS
 10
6.534850833385518
 20
2.959966186656187
 30
0.0
 11
10.26862298384867
 21
6.693738337119342
 31
0.0
  0
LINE
  5
1F10C
  8
0
  6
CONTINUOUS
 10
4.469029308032756
 20
0.2206254522232385
 30
0.0
 11
5.492951005266582
 21
1.244547149457064
 31
0.0
  0
LINE
  5
1F10D
  8
0
  6
CONTINUOUS
 10
5.989594155039935
 20
1.741190299230417
 30
0.0
 11
8.806950407233131
 21
4.558546551423613
 31
0.0
  0
LINE
  5
1F10E
  8
0
  6
CONTINUOUS
 10
9.401251593263643
 20
5.152847737454126
 30
0.0
 11
10.47679036721708
 21
6.228386511407559
 31
0.0
  0
LINE
  5
1F10F
  8
0
  6
CONTINUOUS
 10
4.921837203428691
 20
-0.0000858614610131
 30
0.0
 11
8.592923064886001
 21
3.670999999996297
 31
0.0
  0
LINE
  5
1F110
  8
0
  6
CONTINUOUS
 10
9.609390446785305
 20
4.6874673818956
 30
0.0
 11
10.68495775058548
 21
5.763034685695775
 31
0.0
  0
LINE
  5
1F111
  8
0
  6
CONTINUOUS
 10
5.595387755019432
 20
-0.0000545189504582
 30
0.0
 11
7.716137258923768
 21
2.120694984953879
 31
0.0
  0
LINE
  5
1F112
  8
0
  6
CONTINUOUS
 10
6.268938306610172
 20
-0.000023176439905
 30
0.0
 11
7.170485805526503
 21
0.9015243224764267
 31
0.0
  0
LINE
  5
1F113
  8
0
  6
CONTINUOUS
 10
7.963842273967511
 20
2.368399999997621
 30
0.0
 11
9.266442273966188
 21
3.670999999996297
 31
0.0
  0
LINE
  5
1F114
  8
0
  6
CONTINUOUS
 10
8.637361483047696
 20
2.368399999997621
 30
0.0
 11
9.939961483046375
 21
3.670999999996297
 31
0.0
  0
LINE
  5
1F115
  8
0
  6
CONTINUOUS
 10
9.817529300306965
 20
4.222087026337075
 30
0.0
 11
10.89312513395388
 21
5.297682859983993
 31
0.0
  0
LINE
  5
1F116
  8
0
  6
CONTINUOUS
 10
10.02566815382863
 20
3.756706670778549
 30
0.0
 11
11.10129251732229
 21
4.832331034272211
 31
0.0
  0
LINE
  5
1F117
  8
0
  6
CONTINUOUS
 10
9.310880692127883
 20
2.368399999997621
 30
0.0
 11
11.30945990069069
 21
4.366979208560428
 31
0.0
  0
LINE
  5
1F118
  8
0
  6
CONTINUOUS
 10
9.98439990120807
 20
2.36839999999762
 30
0.0
 11
11.5176272840591
 21
3.901627382848645
 31
0.0
  0
LINE
  5
1F119
  8
0
  6
CONTINUOUS
 10
10.65037369446246
 20
2.36085458417182
 30
0.0
 11
11.7257946674275
 21
3.436275557136862
 31
0.0
  0
LINE
  5
1F11A
  8
0
  6
CONTINUOUS
 10
10.85847197087848
 20
1.895433651507656
 30
0.0
 11
11.9339620507959
 21
2.97092373142508
 31
0.0
  0
LINE
  5
1F11B
  8
0
  6
CONTINUOUS
 10
11.0665702472945
 20
1.430012718843491
 30
0.0
 11
12.14212943416431
 21
2.505571905713296
 31
0.0
  0
LINE
  5
1F11C
  8
0
  6
CONTINUOUS
 10
11.27466852371052
 20
0.9645917861793256
 30
0.0
 11
12.35029681753271
 21
2.040220080001513
 31
0.0
  0
LINE
  5
1F11D
  8
0
  6
CONTINUOUS
 10
11.48276680012654
 20
0.4991708535151611
 30
0.0
 11
12.55846420090111
 21
1.57486825428973
 31
0.0
  0
LINE
  5
1F11E
  8
0
  6
CONTINUOUS
 10
11.69086507654257
 20
0.0337499208509957
 30
0.0
 11
12.76663158426952
 21
1.109516428577947
 31
0.0
  0
LINE
  5
1F11F
  8
0
  6
CONTINUOUS
 10
12.33057447873954
 20
-0.0000598860322123
 30
0.0
 11
12.97479896763792
 21
0.6441646028661663
 31
0.0
  0
LINE
  5
1F120
  8
0
  6
CONTINUOUS
 10
13.00413694809395
 20
-0.0000166257579952
 30
0.0
 11
13.18296635100632
 21
0.1788127771543824
 31
0.0
  0
LINE
  5
1F121
  8
0
  6
CONTINUOUS
 10
4.772852165289667
 20
-0.000092794222212
 30
0.0
 11
4.296495091028902
 21
0.4762642800385528
 31
0.0
  0
LINE
  5
1F122
  8
0
  6
CONTINUOUS
 10
5.446340034776103
 20
-0.0000614546284616
 30
0.0
 11
2.898195908335625
 21
2.548082671812017
 31
0.0
  0
LINE
  5
1F123
  8
0
  6
CONTINUOUS
 10
6.119827904262539
 20
-0.0000301150347113
 30
0.0
 11
1.499896725642348
 21
4.61990106358548
 31
0.0
  0
LINE
  5
1F124
  8
0
  6
CONTINUOUS
 10
6.775136745476159
 20
0.0181802528318542
 30
0.0
 11
5.699826040202669
 21
1.093490958105344
 31
0.0
  0
LINE
  5
1F125
  8
0
  6
CONTINUOUS
 10
6.983376846288489
 20
0.4834593610997118
 30
0.0
 11
5.908008617934405
 21
1.558827589453796
 31
0.0
  0
LINE
  5
1F126
  8
0
  6
CONTINUOUS
 10
5.377063484962296
 20
1.416253513345719
 30
0.0
 11
1.702276957014131
 21
5.091040041293883
 31
0.0
  0
LINE
  5
1F127
  8
0
  6
CONTINUOUS
 10
3.978745891735324
 20
3.488090315652877
 30
0.0
 11
2.000373521109399
 21
5.466462686278803
 31
0.0
  0
LINE
  5
1F128
  8
0
  6
CONTINUOUS
 10
7.191616947100819
 20
0.948738469367568
 30
0.0
 11
6.11619119566614
 21
2.024164220802247
 31
0.0
  0
LINE
  5
1F129
  8
0
  6
CONTINUOUS
 10
7.399857047913149
 20
1.414017577635424
 30
0.0
 11
6.324373773397875
 21
2.489500852150698
 31
0.0
  0
LINE
  5
1F12A
  8
0
  6
CONTINUOUS
 10
7.608097148725479
 20
1.879296685903281
 30
0.0
 11
6.53255635112961
 21
2.95483748349915
 31
0.0
  0
LINE
  5
1F12B
  8
0
  6
CONTINUOUS
 10
7.816337249537808
 20
2.344575794171138
 30
0.0
 11
6.740738928861345
 21
3.420174114847601
 31
0.0
  0
LINE
  5
1F12C
  8
0
  6
CONTINUOUS
 10
3.310241080789734
 20
4.830114335678653
 30
0.0
 11
2.298470085204666
 21
5.84188533126372
 31
0.0
  0
LINE
  5
1F12D
  8
0
  6
CONTINUOUS
 10
3.60832983563551
 20
5.205544789913063
 30
0.0
 11
2.596566649299935
 21
6.217307976248638
 31
0.0
  0
LINE
  5
1F12E
  8
0
  6
CONTINUOUS
 10
3.906418590481286
 20
5.580975244147473
 30
0.0
 11
2.894663213395203
 21
6.592730621233557
 31
0.0
  0
LINE
  5
1F12F
  8
0
  6
CONTINUOUS
 10
4.204507345327062
 20
5.956405698381884
 30
0.0
 11
3.192759777490472
 21
6.968153266218474
 31
0.0
  0
LINE
  5
1F130
  8
0
  6
CONTINUOUS
 10
8.466032252791512
 20
2.368399999997621
 30
0.0
 11
6.948921506593081
 21
3.885510746196053
 31
0.0
  0
LINE
  5
1F131
  8
0
  6
CONTINUOUS
 10
9.139551461871699
 20
2.36839999999762
 30
0.0
 11
7.157104084324816
 21
4.350847377544504
 31
0.0
  0
LINE
  5
1F132
  8
0
  6
CONTINUOUS
 10
4.502596100172839
 20
6.331836152616295
 30
0.0
 11
3.49085634158574
 21
7.343575911203393
 31
0.0
  0
LINE
  5
1F133
  8
0
  6
CONTINUOUS
 10
4.800684855018615
 20
6.707266606850705
 30
0.0
 11
3.788952905681008
 21
7.718998556188312
 31
0.0
  0
LINE
  5
1F134
  8
0
  6
CONTINUOUS
 10
12.18154012887317
 20
-0.0000694579236642
 30
0.0
 11
11.32140332908496
 21
0.8600673418645499
 31
0.0
  0
LINE
  5
1F135
  8
0
  6
CONTINUOUS
 10
12.85501608323566
 20
-0.0000262032059659
 30
0.0
 11
10.77672456435345
 21
2.078265315676246
 31
0.0
  0
LINE
  5
1F136
  8
0
  6
CONTINUOUS
 10
9.813070670951886
 20
2.36839999999762
 30
0.0
 11
8.51047067095321
 21
3.670999999996297
 31
0.0
  0
LINE
  5
1F137
  8
0
  6
CONTINUOUS
 10
10.48658988003207
 20
2.36839999999762
 30
0.0
 11
9.183989880033396
 21
3.670999999996297
 31
0.0
  0
LINE
  5
1F138
  8
0
  6
CONTINUOUS
 10
8.441048632286794
 20
3.740422038662712
 30
0.0
 11
7.365286662056551
 21
4.816184008892956
 31
0.0
  0
LINE
  5
1F139
  8
0
  6
CONTINUOUS
 10
8.649187485808454
 20
4.205802394221237
 30
0.0
 11
7.573469239788285
 21
5.281520640241407
 31
0.0
  0
LINE
  5
1F13A
  8
0
  6
CONTINUOUS
 10
5.098773609864391
 20
7.082697061085115
 30
0.0
 11
4.087049469776277
 21
8.09442120117323
 31
0.0
  0
LINE
  5
1F13B
  8
0
  6
CONTINUOUS
 10
5.396862364710167
 20
7.458127515319526
 30
0.0
 11
4.385146033871544
 21
8.469843846158149
 31
0.0
  0
LINE
  5
1F13C
  8
0
  6
CONTINUOUS
 10
13.04801363231285
 20
0.4804954567970334
 30
0.0
 11
9.85750908911358
 21
3.670999999996297
 31
0.0
  0
LINE
  5
1F13D
  8
0
  6
CONTINUOUS
 10
8.857326339330116
 20
4.671182749779763
 30
0.0
 11
7.781651817520021
 21
5.746857271589858
 31
0.0
  0
LINE
  5
1F13E
  8
0
  6
CONTINUOUS
 10
5.694951119555943
 20
7.833557969553937
 30
0.0
 11
4.765409089118624
 21
8.763099999991255
 31
0.0
  0
LINE
  5
1F13F
  8
0
  6
CONTINUOUS
 10
12.50286117236978
 20
1.699167125820288
 30
0.0
 11
9.68611877250287
 21
4.515909525687196
 31
0.0
  0
LINE
  5
1F140
  8
0
  6
CONTINUOUS
 10
9.065465192851777
 20
5.136563105338288
 30
0.0
 11
7.989834395251757
 21
6.21219390293831
 31
0.0
  0
LINE
  5
1F141
  8
0
  6
CONTINUOUS
 10
5.993039874401719
 20
8.208988423788346
 30
0.0
 11
5.43892829819881
 21
8.763099999991255
 31
0.0
  0
LINE
  5
1F142
  8
0
  6
CONTINUOUS
 10
11.95770871242671
 20
2.917838794843543
 30
0.0
 11
8.19801697298349
 21
6.677530534286761
 31
0.0
  0
LINE
  5
1F143
  8
0
  6
CONTINUOUS
 10
6.291128629247495
 20
8.584418878022756
 30
0.0
 11
6.112447507278997
 21
8.763099999991255
 31
0.0
  0
LINE
  5
1F144
  8
0
  6
CONTINUOUS
 10
11.41255625248364
 20
4.136510463866797
 30
0.0
 11
8.406199550715227
 21
7.142867165635211
 31
0.0
  0
LINE
  5
1F145
  8
0
  6
CONTINUOUS
 10
10.86740379254057
 20
5.355182132890051
 30
0.0
 11
8.614382128446962
 21
7.608203796983664
 31
0.0
  0
LINE
  5
1F146
  8
0
  6
CONTINUOUS
 10
10.3222513325975
 20
6.573853801913305
 30
0.0
 11
8.822564706178696
 21
8.073540428332114
 31
0.0
  0
LINE
  5
1F147
  8
0
  6
CONTINUOUS
 10
9.777098872654436
 20
7.792525470936562
 30
0.0
 11
9.030747283910433
 21
8.538877059680566
 31
0.0
  0
ENDBLK
  5
1F289
  8
0
  0
BLOCK
  8
0
  2
*X785
 70
     1
 10
0.0
 20
0.0
 30
0.0
  3
*X785
  1

  0
LINE
  5
1F149
  8
0
  6
CONTINUOUS
 10
10.67292308101235
 20
8.445076852443387
 30
0.0
 11
10.99094622856022
 21
8.763099999991255
 31
0.0
  0
LINE
  5
1F14A
  8
0
  6
CONTINUOUS
 10
10.87250383178748
 20
7.971138394138331
 30
0.0
 11
11.6644654376404
 21
8.763099999991255
 31
0.0
  0
LINE
  5
1F14B
  8
0
  6
CONTINUOUS
 10
11.07208458256261
 20
7.497199935833273
 30
0.0
 11
12.12126590876355
 21
8.546381262034211
 31
0.0
  0
LINE
  5
1F14C
  8
0
  6
CONTINUOUS
 10
11.27166533333774
 20
7.023261477528216
 30
0.0
 11
12.32085164573666
 21
8.072447789927136
 31
0.0
  0
LINE
  5
1F14D
  8
0
  6
CONTINUOUS
 10
11.47124608411287
 20
6.549323019223158
 30
0.0
 11
12.52043738270977
 21
7.59851431782006
 31
0.0
  0
LINE
  5
1F14E
  8
0
  6
CONTINUOUS
 10
11.670826834888
 20
6.075384560918101
 30
0.0
 11
12.72002311968288
 21
7.124580845712984
 31
0.0
  0
LINE
  5
1F14F
  8
0
  6
CONTINUOUS
 10
11.87040758566313
 20
5.601446102613043
 30
0.0
 11
12.91960885665599
 21
6.650647373605907
 31
0.0
  0
LINE
  5
1F150
  8
0
  6
CONTINUOUS
 10
12.06998833643825
 20
5.127507644307986
 30
0.0
 11
13.1191945936291
 21
6.176713901498832
 31
0.0
  0
LINE
  5
1F151
  8
0
  6
CONTINUOUS
 10
12.26956908721338
 20
4.65356918600293
 30
0.0
 11
13.31878033060221
 21
5.702780429391757
 31
0.0
  0
LINE
  5
1F152
  8
0
  6
CONTINUOUS
 10
12.46914983798851
 20
4.179630727697873
 30
0.0
 11
13.51836606757532
 21
5.228846957284683
 31
0.0
  0
LINE
  5
1F153
  8
0
  6
CONTINUOUS
 10
12.66873058876364
 20
3.705692269392816
 30
0.0
 11
13.71795180454843
 21
4.754913485177607
 31
0.0
  0
LINE
  5
1F154
  8
0
  6
CONTINUOUS
 10
12.86831133953877
 20
3.231753811087759
 30
0.0
 11
13.91753754152154
 21
4.280980013070531
 31
0.0
  0
LINE
  5
1F155
  8
0
  6
CONTINUOUS
 10
13.0678920903139
 20
2.757815352782702
 30
0.0
 11
14.11712327849465
 21
3.807046540963456
 31
0.0
  0
LINE
  5
1F156
  8
0
  6
CONTINUOUS
 10
13.26747284108903
 20
2.283876894477644
 30
0.0
 11
14.31670901546777
 21
3.333113068856379
 31
0.0
  0
LINE
  5
1F157
  8
0
  6
CONTINUOUS
 10
16.36767838827179
 20
8.751678487061342
 30
0.0
 11
16.50332410898388
 21
8.887324207773432
 31
0.0
  0
LINE
  5
1F158
  8
0
  6
CONTINUOUS
 10
15.96190732182191
 20
7.67238821153127
 30
0.0
 11
16.68735328004734
 21
8.397834169756699
 31
0.0
  0
LINE
  5
1F159
  8
0
  6
CONTINUOUS
 10
15.55613625537202
 20
6.593097936001196
 30
0.0
 11
16.87138245111079
 21
7.908344131739965
 31
0.0
  0
LINE
  5
1F15A
  8
0
  6
CONTINUOUS
 10
15.15036518892213
 20
5.513807660471122
 30
0.0
 11
17.05541162217424
 21
7.418854093723231
 31
0.0
  0
LINE
  5
1F15B
  8
0
  6
CONTINUOUS
 10
14.74459412247225
 20
4.434517384941048
 30
0.0
 11
17.2394407932377
 21
6.929364055706499
 31
0.0
  0
LINE
  5
1F15C
  8
0
  6
CONTINUOUS
 10
14.33882305602236
 20
3.355227109410975
 30
0.0
 11
17.42346996430115
 21
6.439874017689766
 31
0.0
  0
LINE
  5
1F15D
  8
0
  6
CONTINUOUS
 10
13.46705359186416
 20
1.809938436172586
 30
0.0
 11
16.0819338255367
 21
4.424818669845129
 31
0.0
  0
LINE
  5
1F15E
  8
0
  6
CONTINUOUS
 10
16.63283254238972
 20
4.975717386698149
 30
0.0
 11
17.60749913536461
 21
5.950383979673033
 31
0.0
  0
LINE
  5
1F15F
  8
0
  6
CONTINUOUS
 10
13.66663434263929
 20
1.335999977867529
 30
0.0
 11
15.67604797733754
 21
3.345413612565779
 31
0.0
  0
LINE
  5
1F160
  8
0
  6
CONTINUOUS
 10
13.86621509341442
 20
0.8620615195624723
 30
0.0
 11
15.27016212913838
 21
2.26600855528643
 31
0.0
  0
LINE
  5
1F161
  8
0
  6
CONTINUOUS
 10
16.81682257348267
 20
4.486188208710908
 30
0.0
 11
17.79152830642806
 21
5.460893941656299
 31
0.0
  0
LINE
  5
1F162
  8
0
  6
CONTINUOUS
 10
17.00081260457561
 20
3.996659030723667
 30
0.0
 11
17.97555747749151
 21
4.971403903639565
 31
0.0
  0
LINE
  5
1F163
  8
0
  6
CONTINUOUS
 10
20.74362343514722
 20
8.412989070375462
 30
0.0
 11
21.09373436476302
 21
8.763099999991256
 31
0.0
  0
LINE
  5
1F164
  8
0
  6
CONTINUOUS
 10
20.25401257174777
 20
7.249858997895826
 30
0.0
 11
21.7672535738432
 21
8.763099999991255
 31
0.0
  0
LINE
  5
1F165
  8
0
  6
CONTINUOUS
 10
14.06579584418955
 20
0.3881230612574149
 30
0.0
 11
14.86427628093921
 21
1.186603498007082
 31
0.0
  0
LINE
  5
1F166
  8
0
  6
CONTINUOUS
 10
14.26537659496467
 20
-0.0858153970476412
 30
0.0
 11
14.45839043274005
 21
0.1071984407277329
 31
0.0
  0
LINE
  5
1F167
  8
0
  6
CONTINUOUS
 10
17.18480263566856
 20
3.507129852736426
 30
0.0
 11
18.15958664855496
 21
4.481913865622833
 31
0.0
  0
LINE
  5
1F168
  8
0
  6
CONTINUOUS
 10
17.3687926667615
 20
3.017600674749186
 30
0.0
 11
18.34361581961842
 21
3.9924238276061
 31
0.0
  0
LINE
  5
1F169
  8
0
  6
CONTINUOUS
 10
19.76440170834832
 20
6.086728925416191
 30
0.0
 11
22.33924590259489
 21
8.661573119662755
 31
0.0
  0
LINE
  5
1F16A
  8
0
  6
CONTINUOUS
 10
19.27479084494887
 20
4.923598852936555
 30
0.0
 11
21.84929622842713
 21
7.498104236414807
 31
0.0
  0
LINE
  5
1F16B
  8
0
  6
CONTINUOUS
 10
17.55278269785445
 20
2.528071496761945
 30
0.0
 11
18.52764499068187
 21
3.502933789589366
 31
0.0
  0
LINE
  5
1F16C
  8
0
  6
CONTINUOUS
 10
18.78517998154942
 20
3.760468780456919
 30
0.0
 11
21.35934655425936
 21
6.33463535316686
 31
0.0
  0
LINE
  5
1F16D
  8
0
  6
CONTINUOUS
 10
17.73677272894739
 20
2.038542318774704
 30
0.0
 11
20.8693968800916
 21
5.171166469918914
 31
0.0
  0
LINE
  5
1F16E
  8
0
  6
CONTINUOUS
 10
17.92076276004034
 20
1.549013140787464
 30
0.0
 11
20.37944720592384
 21
4.007697586670968
 31
0.0
  0
LINE
  5
1F16F
  8
0
  6
CONTINUOUS
 10
18.10475279113329
 20
1.059483962800223
 30
0.0
 11
19.88949753175608
 21
2.84422870342302
 31
0.0
  0
LINE
  5
1F170
  8
0
  6
CONTINUOUS
 10
18.28874282222623
 20
0.5699547848129822
 30
0.0
 11
19.39954785758832
 21
1.680759820175074
 31
0.0
  0
LINE
  5
1F171
  8
0
  6
CONTINUOUS
 10
18.47273285331918
 20
0.0804256068257416
 30
0.0
 11
18.90959818342056
 21
0.517290936927127
 31
0.0
  0
LINE
  5
1F172
  8
0
  6
CONTINUOUS
 10
14.3590401358224
 20
-0.1570118376323384
 30
0.0
 11
14.24903296539946
 21
-0.0470046672093929
 31
0.0
  0
LINE
  5
1F173
  8
0
  6
CONTINUOUS
 10
14.54309291258661
 20
0.332454594683643
 30
0.0
 11
13.75908329123172
 21
1.116464216038529
 31
0.0
  0
LINE
  5
1F174
  8
0
  6
CONTINUOUS
 10
14.72714568935081
 20
0.8219210269996244
 30
0.0
 11
13.26913361706399
 21
2.27993309928645
 31
0.0
  0
LINE
  5
1F175
  8
0
  6
CONTINUOUS
 10
14.91119846611502
 20
1.311387459315606
 30
0.0
 11
12.77918394289625
 21
3.443401982534371
 31
0.0
  0
LINE
  5
1F176
  8
0
  6
CONTINUOUS
 10
15.09525124287922
 20
1.800853891631587
 30
0.0
 11
12.28923426872852
 21
4.606870865782293
 31
0.0
  0
LINE
  5
1F177
  8
0
  6
CONTINUOUS
 10
15.27930401964343
 20
2.290320323947569
 30
0.0
 11
11.79928459456078
 21
5.770339749030213
 31
0.0
  0
LINE
  5
1F178
  8
0
  6
CONTINUOUS
 10
15.46335679640763
 20
2.77978675626355
 30
0.0
 11
14.48885470994921
 21
3.754288842721972
 31
0.0
  0
LINE
  5
1F179
  8
0
  6
CONTINUOUS
 10
13.88507249233704
 20
4.358071060334137
 30
0.0
 11
11.30933492039305
 21
6.933808632278135
 31
0.0
  0
LINE
  5
1F17A
  8
0
  6
CONTINUOUS
 10
18.75840522805855
 20
0.1582575336928151
 30
0.0
 11
18.25383727664818
 21
0.6628254851031863
 31
0.0
  0
LINE
  5
1F17B
  8
0
  6
CONTINUOUS
 10
15.64740957317184
 20
3.269253188579531
 30
0.0
 11
14.67288388101266
 21
4.243778880738705
 31
0.0
  0
LINE
  5
1F17C
  8
0
  6
CONTINUOUS
 10
13.39509276772158
 20
5.521569994029786
 30
0.0
 11
10.81938524622531
 21
8.097277515526056
 31
0.0
  0
LINE
  5
1F17D
  8
0
  6
CONTINUOUS
 10
18.95798597883369
 20
0.6321959919978686
 30
0.0
 11
17.84825644852853
 21
1.741925522303024
 31
0.0
  0
LINE
  5
1F17E
  8
0
  6
CONTINUOUS
 10
19.15756672960882
 20
1.106134450302922
 30
0.0
 11
17.44267562040888
 21
2.821025559502861
 31
0.0
  0
LINE
  5
1F17F
  8
0
  6
CONTINUOUS
 10
15.83146234993604
 20
3.758719620895513
 30
0.0
 11
14.85691305207612
 21
4.733268918755439
 31
0.0
  0
LINE
  5
1F180
  8
0
  6
CONTINUOUS
 10
16.01551512670025
 20
4.248186053211494
 30
0.0
 11
15.04094222313957
 21
5.222758956772172
 31
0.0
  0
LINE
  5
1F181
  8
0
  6
CONTINUOUS
 10
12.90511304310612
 20
6.685068927725435
 30
0.0
 11
10.8270819708403
 21
8.763099999991255
 31
0.0
  0
LINE
  5
1F182
  8
0
  6
CONTINUOUS
 10
12.41513331849066
 20
7.848567861421083
 30
0.0
 11
11.50060117992049
 21
8.763099999991255
 31
0.0
  0
LINE
  5
1F183
  8
0
  6
CONTINUOUS
 10
19.35714748038395
 20
1.580072908607975
 30
0.0
 11
17.03709479228923
 21
3.900125596702697
 31
0.0
  0
LINE
  5
1F184
  8
0
  6
CONTINUOUS
 10
19.55672823115909
 20
2.054011366913028
 30
0.0
 11
16.63151396416958
 21
4.979225633902534
 31
0.0
  0
LINE
  5
1F185
  8
0
  6
CONTINUOUS
 10
16.19956790346445
 20
4.737652485527476
 30
0.0
 11
15.22497139420302
 21
5.712248994788904
 31
0.0
  0
LINE
  5
1F186
  8
0
  6
CONTINUOUS
 10
16.38362068022866
 20
5.227118917843457
 30
0.0
 11
15.40900056526648
 21
6.201739032805637
 31
0.0
  0
LINE
  5
1F187
  8
0
  6
CONTINUOUS
 10
19.75630898193422
 20
2.527949825218081
 30
0.0
 11
18.70774536448286
 21
3.576513442669441
 31
0.0
  0
LINE
  5
1F188
  8
0
  6
CONTINUOUS
 10
19.95588973270936
 20
3.001888283523134
 30
0.0
 11
18.90726987211446
 21
4.050508144118028
 31
0.0
  0
LINE
  5
1F189
  8
0
  6
CONTINUOUS
 10
20.15547048348449
 20
3.475826741828186
 30
0.0
 11
19.10679437974606
 21
4.524502845566614
 31
0.0
  0
LINE
  5
1F18A
  8
0
  6
CONTINUOUS
 10
20.35505123425962
 20
3.94976520013324
 30
0.0
 11
19.30631888737766
 21
4.998497547015201
 31
0.0
  0
LINE
  5
1F18B
  8
0
  6
CONTINUOUS
 10
20.55463198503475
 20
4.423703658438292
 30
0.0
 11
19.50584339500926
 21
5.472492248463787
 31
0.0
  0
LINE
  5
1F18C
  8
0
  6
CONTINUOUS
 10
18.37481191085755
 20
3.909446896294752
 30
0.0
 11
15.59302973632993
 21
6.691229070822371
 31
0.0
  0
LINE
  5
1F18D
  8
0
  6
CONTINUOUS
 10
17.96904084440766
 20
4.988737171824825
 30
0.0
 11
15.77705890739338
 21
7.180719108839104
 31
0.0
  0
LINE
  5
1F18E
  8
0
  6
CONTINUOUS
 10
17.56326977795777
 20
6.068027447354899
 30
0.0
 11
15.96108807845684
 21
7.670209146855838
 31
0.0
  0
LINE
  5
1F18F
  8
0
  6
CONTINUOUS
 10
17.15749871150789
 20
7.147317722884972
 30
0.0
 11
16.14511724952029
 21
8.15969918487257
 31
0.0
  0
LINE
  5
1F190
  8
0
  6
CONTINUOUS
 10
16.751727645058
 20
8.226607998415046
 30
0.0
 11
16.32914642058374
 21
8.649189222889303
 31
0.0
  0
LINE
  5
1F191
  8
0
  6
CONTINUOUS
 10
20.75421273580989
 20
4.897642116743345
 30
0.0
 11
19.70536790264086
 21
5.946486949912374
 31
0.0
  0
LINE
  5
1F192
  8
0
  6
CONTINUOUS
 10
20.95379348658502
 20
5.371580575048398
 30
0.0
 11
19.90489241027246
 21
6.42048165136096
 31
0.0
  0
LINE
  5
1F193
  8
0
  6
CONTINUOUS
 10
21.15337423736015
 20
5.845519033353452
 30
0.0
 11
20.10441691790406
 21
6.894476352809547
 31
0.0
  0
LINE
  5
1F194
  8
0
  6
CONTINUOUS
 10
21.35295498813529
 20
6.319457491658505
 30
0.0
 11
20.30394142553566
 21
7.368471054258134
 31
0.0
  0
LINE
  5
1F195
  8
0
  6
CONTINUOUS
 10
21.55253573891042
 20
6.793395949963558
 30
0.0
 11
20.50346593316726
 21
7.842465755706721
 31
0.0
  0
LINE
  5
1F196
  8
0
  6
CONTINUOUS
 10
21.75211648968556
 20
7.267334408268612
 30
0.0
 11
20.70299044079886
 21
8.316460457155308
 31
0.0
  0
LINE
  5
1F197
  8
0
  6
CONTINUOUS
 10
21.95169724046069
 20
7.741272866573663
 30
0.0
 11
20.9298701070431
 21
8.763099999991256
 31
0.0
  0
LINE
  5
1F198
  8
0
  6
CONTINUOUS
 10
22.15127799123582
 20
8.215211324878716
 30
0.0
 11
21.60338931612328
 21
8.763099999991256
 31
0.0
  0
LINE
  5
1F199
  8
0
  6
CONTINUOUS
 10
22.35085874201096
 20
8.689149783183769
 30
0.0
 11
22.27690852520347
 21
8.763099999991255
 31
0.0
  0
ENDBLK
  5
1F28B
  8
0
  0
BLOCK
  8
0
  2
*X786
 70
     1
 10
0.0
 20
0.0
 30
0.0
  3
*X786
  1

  0
LINE
  5
1F19B
  8
0
  6
CONTINUOUS
 10
23.19462913593892
 20
8.169917934846424
 30
0.0
 11
23.70775465517246
 21
8.683043454079957
 31
0.0
  0
LINE
  5
1F19C
  8
0
  6
CONTINUOUS
 10
22.64923161835078
 20
6.951001208178088
 30
0.0
 11
23.9159364069932
 21
8.217705996820516
 31
0.0
  0
LINE
  5
1F19D
  8
0
  6
CONTINUOUS
 10
22.10383410076263
 20
5.732084481509751
 30
0.0
 11
24.12411815881395
 21
7.752368539561078
 31
0.0
  0
LINE
  5
1F19E
  8
0
  6
CONTINUOUS
 10
21.55843658317447
 20
4.513167754841414
 30
0.0
 11
24.3322999106347
 21
7.287031082301639
 31
0.0
  0
LINE
  5
1F19F
  8
0
  6
CONTINUOUS
 10
21.01303906558632
 20
3.294251028173077
 30
0.0
 11
24.54048166245544
 21
6.821693625042199
 31
0.0
  0
LINE
  5
1F1A0
  8
0
  6
CONTINUOUS
 10
20.46764154799817
 20
2.075334301504738
 30
0.0
 11
23.28571549467848
 21
4.89340824818505
 31
0.0
  0
LINE
  5
1F1A1
  8
0
  6
CONTINUOUS
 10
19.92224403041002
 20
0.8564175748364002
 30
0.0
 11
22.74075865492779
 21
3.674932199354171
 31
0.0
  0
LINE
  5
1F1A2
  8
0
  6
CONTINUOUS
 10
23.67305085490148
 20
5.280743608408048
 30
0.0
 11
24.74866341427619
 21
6.356356167782759
 31
0.0
  0
LINE
  5
1F1A3
  8
0
  6
CONTINUOUS
 10
23.88118970842314
 20
4.815363252849522
 30
0.0
 11
24.95684516609694
 21
5.89101871052332
 31
0.0
  0
LINE
  5
1F1A4
  8
0
  6
CONTINUOUS
 10
19.73925852647308
 20
-0.0000871381807288
 30
0.0
 11
23.4103456646501
 21
3.670999999996297
 31
0.0
  0
LINE
  5
1F1A5
  8
0
  6
CONTINUOUS
 10
24.0893285619448
 20
4.349982897290997
 30
0.0
 11
25.16502691791769
 21
5.42568125326388
 31
0.0
  0
LINE
  5
1F1A6
  8
0
  6
CONTINUOUS
 10
20.41282099582748
 20
-0.0000438779065108
 30
0.0
 11
21.64944178675636
 21
1.236576913022366
 31
0.0
  0
LINE
  5
1F1A7
  8
0
  6
CONTINUOUS
 10
22.78126487373161
 20
2.36839999999762
 30
0.0
 11
24.08386487373029
 21
3.670999999996297
 31
0.0
  0
LINE
  5
1F1A8
  8
0
  6
CONTINUOUS
 10
24.29746741546646
 20
3.884602541732471
 30
0.0
 11
25.37320866973843
 21
4.960343796004441
 31
0.0
  0
LINE
  5
1F1A9
  8
0
  6
CONTINUOUS
 10
21.08638346518189
 20
-0.0000006176322938
 30
0.0
 11
21.10379033335899
 21
0.0174062505448083
 31
0.0
  0
LINE
  5
1F1AA
  8
0
  6
CONTINUOUS
 10
23.4547840828118
 20
2.36839999999762
 30
0.0
 11
25.58139042155918
 21
4.495006338745002
 31
0.0
  0
LINE
  5
1F1AB
  8
0
  6
CONTINUOUS
 10
29.30199999996933
 20
8.215615917155148
 30
0.0
 11
29.84948408280543
 21
8.763099999991255
 31
0.0
  0
LINE
  5
1F1AC
  8
0
  6
CONTINUOUS
 10
24.12830329189199
 20
2.36839999999762
 30
0.0
 11
25.78957217337993
 21
4.029668881485562
 31
0.0
  0
LINE
  5
1F1AD
  8
0
  6
CONTINUOUS
 10
29.30199999996933
 20
7.54209670807496
 30
0.0
 11
30.52300329188562
 21
8.763099999991255
 31
0.0
  0
LINE
  5
1F1AE
  8
0
  6
CONTINUOUS
 10
24.80182250097217
 20
2.36839999999762
 30
0.0
 11
25.99775392520067
 21
3.564331424226122
 31
0.0
  0
LINE
  5
1F1AF
  8
0
  6
CONTINUOUS
 10
29.30199999996933
 20
6.868577498994774
 30
0.0
 11
30.74199999996926
 21
8.308577498994712
 31
0.0
  0
LINE
  5
1F1B0
  8
0
  6
CONTINUOUS
 10
25.13028238392013
 20
2.023340673865392
 30
0.0
 11
26.20593567702142
 21
3.098993966966683
 31
0.0
  0
LINE
  5
1F1B1
  8
0
  6
CONTINUOUS
 10
25.33838066033617
 20
1.557919741201244
 30
0.0
 11
26.41411742884217
 21
2.633656509707244
 31
0.0
  0
LINE
  5
1F1B2
  8
0
  6
CONTINUOUS
 10
25.54647893675221
 20
1.092498808537098
 30
0.0
 11
26.62229918066291
 21
2.168319052447804
 31
0.0
  0
LINE
  5
1F1B3
  8
0
  6
CONTINUOUS
 10
25.75457721316825
 20
0.62707787587295
 30
0.0
 11
26.83048093248366
 21
1.702981595188365
 31
0.0
  0
LINE
  5
1F1B4
  8
0
  6
CONTINUOUS
 10
29.30199999996933
 20
6.195058289914587
 30
0.0
 11
30.74199999996926
 21
7.635058289914522
 31
0.0
  0
LINE
  5
1F1B5
  8
0
  6
CONTINUOUS
 10
29.30199999996933
 20
5.521539080834401
 30
0.0
 11
30.74199999996926
 21
6.961539080834331
 31
0.0
  0
LINE
  5
1F1B6
  8
0
  6
CONTINUOUS
 10
29.30199999996933
 20
4.848019871754214
 30
0.0
 11
30.74199999996925
 21
6.288019871754143
 31
0.0
  0
LINE
  5
1F1B7
  8
0
  6
CONTINUOUS
 10
29.30199999996933
 20
4.174500662674028
 30
0.0
 11
30.74199999996925
 21
5.614500662673953
 31
0.0
  0
LINE
  5
1F1B8
  8
0
  6
CONTINUOUS
 10
25.96267548958429
 20
0.1616569432088024
 30
0.0
 11
27.18411854636669
 21
1.383099999991207
 31
0.0
  0
LINE
  5
1F1B9
  8
0
  6
CONTINUOUS
 10
29.30199999996933
 20
3.500981453593841
 30
0.0
 11
30.74199999996925
 21
4.940981453593762
 31
0.0
  0
LINE
  5
1F1BA
  8
0
  6
CONTINUOUS
 10
26.50763775544691
 20
0.0330999999912356
 30
0.0
 11
27.85763775544689
 21
1.383099999991223
 31
0.0
  0
LINE
  5
1F1BB
  8
0
  6
CONTINUOUS
 10
29.30199999996933
 20
2.827462244513656
 30
0.0
 11
30.74199999996925
 21
4.267462244513574
 31
0.0
  0
LINE
  5
1F1BC
  8
0
  6
CONTINUOUS
 10
27.18115696452709
 20
0.0330999999912356
 30
0.0
 11
28.55073879889363
 21
1.402681834357775
 31
0.0
  0
LINE
  5
1F1BD
  8
0
  6
CONTINUOUS
 10
29.28241816560272
 20
2.134361201066866
 30
0.0
 11
30.74199999996924
 21
3.593943035433383
 31
0.0
  0
LINE
  5
1F1BE
  8
0
  6
CONTINUOUS
 10
27.85467617360728
 20
0.0330999999912356
 30
0.0
 11
30.74199999996924
 21
2.920423826353195
 31
0.0
  0
LINE
  5
1F1BF
  8
0
  6
CONTINUOUS
 10
28.53897559587887
 20
0.0438802131826428
 30
0.0
 11
30.73121978677781
 21
2.236124404081585
 31
0.0
  0
LINE
  5
1F1C0
  8
0
  6
CONTINUOUS
 10
29.45140055588722
 20
0.2827859641107988
 30
0.0
 11
30.49231403584965
 21
1.323699444073236
 31
0.0
  0
LINE
  5
1F1C1
  8
0
  6
CONTINUOUS
 10
19.59027867740337
 20
-0.0000967065718083
 30
0.0
 11
19.55485265190471
 21
0.035329318926844
 31
0.0
  0
LINE
  5
1F1C2
  8
0
  6
CONTINUOUS
 10
20.26375463176586
 20
-0.0000534518541091
 30
0.0
 11
19.76305575737534
 21
0.5006454225364014
 31
0.0
  0
LINE
  5
1F1C3
  8
0
  6
CONTINUOUS
 10
20.93723058612834
 20
-0.0000101971364099
 30
0.0
 11
19.97125886284597
 21
0.965961526145958
 31
0.0
  0
LINE
  5
1F1C4
  8
0
  6
CONTINUOUS
 10
21.25514828313686
 20
0.355591314935257
 30
0.0
 11
20.1794619683166
 21
1.431277629755512
 31
0.0
  0
LINE
  5
1F1C5
  8
0
  6
CONTINUOUS
 10
21.46338838394921
 20
0.8208704232030986
 30
0.0
 11
20.38766507378723
 21
1.896593733365069
 31
0.0
  0
LINE
  5
1F1C6
  8
0
  6
CONTINUOUS
 10
21.67162848476155
 20
1.28614953147094
 30
0.0
 11
20.59586817925786
 21
2.361909836974626
 31
0.0
  0
LINE
  5
1F1C7
  8
0
  6
CONTINUOUS
 10
21.8798685855739
 20
1.751428639738782
 30
0.0
 11
20.80407128472849
 21
2.827225940584183
 31
0.0
  0
LINE
  5
1F1C8
  8
0
  6
CONTINUOUS
 10
22.08810868638624
 20
2.216707748006623
 30
0.0
 11
21.01227439019912
 21
3.292542044193739
 31
0.0
  0
LINE
  5
1F1C9
  8
0
  6
CONTINUOUS
 10
22.60993564347543
 20
2.36839999999762
 30
0.0
 11
21.22047749566975
 21
3.757858147803296
 31
0.0
  0
LINE
  5
1F1CA
  8
0
  6
CONTINUOUS
 10
23.28345485255561
 20
2.36839999999762
 30
0.0
 11
21.42868060114038
 21
4.223174251412853
 31
0.0
  0
LINE
  5
1F1CB
  8
0
  6
CONTINUOUS
 10
26.29227406164219
 20
0.0330999999912356
 30
0.0
 11
25.80009199592872
 21
0.5252820657046957
 31
0.0
  0
LINE
  5
1F1CC
  8
0
  6
CONTINUOUS
 10
23.9569740616358
 20
2.36839999999762
 30
0.0
 11
21.63688370661101
 21
4.688490355022409
 31
0.0
  0
LINE
  5
1F1CD
  8
0
  6
CONTINUOUS
 10
26.96579327072237
 20
0.0330999999912356
 30
0.0
 11
25.2554132311971
 21
1.743480039516508
 31
0.0
  0
LINE
  5
1F1CE
  8
0
  6
CONTINUOUS
 10
24.63049327071599
 20
2.36839999999762
 30
0.0
 11
23.32789327071731
 21
3.670999999996297
 31
0.0
  0
LINE
  5
1F1CF
  8
0
  6
CONTINUOUS
 10
22.92098674744635
 20
4.077906523267254
 30
0.0
 11
21.84508681208164
 21
5.153806458631966
 31
0.0
  0
LINE
  5
1F1D0
  8
0
  6
CONTINUOUS
 10
27.63931247980256
 20
0.0330999999912356
 30
0.0
 11
24.0014124797975
 21
3.670999999996297
 31
0.0
  0
LINE
  5
1F1D1
  8
0
  6
CONTINUOUS
 10
23.129125600968
 20
4.5432868788258
 30
0.0
 11
22.05328991755227
 21
5.619122562241522
 31
0.0
  0
LINE
  5
1F1D2
  8
0
  6
CONTINUOUS
 10
28.31283168888275
 20
0.0330999999912356
 30
0.0
 11
24.16488385994816
 21
4.181047828925828
 31
0.0
  0
LINE
  5
1F1D3
  8
0
  6
CONTINUOUS
 10
23.33726445448964
 20
5.008667234384345
 30
0.0
 11
22.2614930230229
 21
6.084438665851079
 31
0.0
  0
LINE
  5
1F1D4
  8
0
  6
CONTINUOUS
 10
28.92085740005492
 20
0.0985934978992438
 30
0.0
 11
27.63635089796295
 21
1.383099999991217
 31
0.0
  0
LINE
  5
1F1D5
  8
0
  6
CONTINUOUS
 10
26.43704649509776
 20
2.582404402856405
 30
0.0
 11
23.61992702019732
 21
5.399523877756844
 31
0.0
  0
LINE
  5
1F1D6
  8
0
  6
CONTINUOUS
 10
23.54540330801128
 20
5.47404758994289
 30
0.0
 11
22.46969612849353
 21
6.549754769460635
 31
0.0
  0
LINE
  5
1F1D7
  8
0
  6
CONTINUOUS
 10
29.42225615078443
 20
0.2707139562499279
 30
0.0
 11
28.30987010704312
 21
1.383099999991234
 31
0.0
  0
LINE
  5
1F1D8
  8
0
  6
CONTINUOUS
 10
25.89179548232307
 20
3.801174624711282
 30
0.0
 11
22.67789923396416
 21
7.015070873070191
 31
0.0
  0
LINE
  5
1F1D9
  8
0
  6
CONTINUOUS
 10
29.83624534690007
 20
0.5302439692144705
 30
0.0
 11
28.85811781497101
 21
1.508371501143527
 31
0.0
  0
LINE
  5
1F1DA
  8
0
  6
CONTINUOUS
 10
25.34654446954838
 20
5.01994484656616
 30
0.0
 11
22.88610233943479
 21
7.480386976679748
 31
0.0
  0
LINE
  5
1F1DB
  8
0
  6
CONTINUOUS
 10
30.17865975401872
 20
0.8613487711760022
 30
0.0
 11
29.18888744090175
 21
1.851121084292977
 31
0.0
  0
LINE
  5
1F1DC
  8
0
  6
CONTINUOUS
 10
24.80129345677369
 20
6.238715068421037
 30
0.0
 11
23.09430544490542
 21
7.945703080289305
 31
0.0
  0
LINE
  5
1F1DD
  8
0
  6
CONTINUOUS
 10
30.45496647202376
 20
1.258561262251155
 30
0.0
 11
29.30199999996933
 21
2.411527734305588
 31
0.0
  0
LINE
  5
1F1DE
  8
0
  6
CONTINUOUS
 10
24.256042443999
 20
7.457485290275915
 30
0.0
 11
23.30250855037605
 21
8.411019183898862
 31
0.0
  0
LINE
  5
1F1DF
  8
0
  6
CONTINUOUS
 10
30.64868582078271
 20
1.738361122572387
 30
0.0
 11
29.30199999996933
 21
3.085046943385775
 31
0.0
  0
LINE
  5
1F1E0
  8
0
  6
CONTINUOUS
 10
23.71079143122431
 20
8.676255512130794
 30
0.0
 11
23.51071165584668
 21
8.876335287508416
 31
0.0
  0
LINE
  5
1F1E1
  8
0
  6
CONTINUOUS
 10
30.73802122914428
 20
2.322544923291007
 30
0.0
 11
29.30199999996933
 21
3.758566152465961
 31
0.0
  0
LINE
  5
1F1E2
  8
0
  6
CONTINUOUS
 10
30.74199999996924
 20
2.992085361546236
 30
0.0
 11
29.30199999996933
 21
4.432085361546148
 31
0.0
  0
LINE
  5
1F1E3
  8
0
  6
CONTINUOUS
 10
30.74199999996924
 20
3.665604570626419
 30
0.0
 11
29.30199999996933
 21
5.105604570626333
 31
0.0
  0
LINE
  5
1F1E4
  8
0
  6
CONTINUOUS
 10
30.74199999996925
 20
4.339123779706602
 30
0.0
 11
29.30199999996933
 21
5.77912377970652
 31
0.0
  0
LINE
  5
1F1E5
  8
0
  6
CONTINUOUS
 10
30.74199999996925
 20
5.012642988786785
 30
0.0
 11
29.30199999996933
 21
6.452642988786707
 31
0.0
  0
LINE
  5
1F1E6
  8
0
  6
CONTINUOUS
 10
30.74199999996925
 20
5.68616219786697
 30
0.0
 11
29.30199999996933
 21
7.126162197866894
 31
0.0
  0
LINE
  5
1F1E7
  8
0
  6
CONTINUOUS
 10
30.74199999996925
 20
6.359681406947153
 30
0.0
 11
29.30199999996933
 21
7.799681406947081
 31
0.0
  0
LINE
  5
1F1E8
  8
0
  6
CONTINUOUS
 10
30.74199999996926
 20
7.033200616027337
 30
0.0
 11
29.30199999996933
 21
8.473200616027269
 31
0.0
  0
LINE
  5
1F1E9
  8
0
  6
CONTINUOUS
 10
30.74199999996926
 20
7.706719825107518
 30
0.0
 11
29.68561982508552
 21
8.763099999991255
 31
0.0
  0
LINE
  5
1F1EA
  8
0
  6
CONTINUOUS
 10
30.74199999996926
 20
8.380239034187703
 30
0.0
 11
30.35913903416571
 21
8.763099999991255
 31
0.0
  0
ENDBLK
  5
1F28D
  8
0
  0
BLOCK
  8
0
  2
*X787
 70
     1
 10
0.0
 20
0.0
 30
0.0
  3
*X787
  1

  0
LINE
  5
1F1EC
  8
0
  6
CONTINUOUS
 10
31.64199999996833
 20
8.535058289913598
 30
0.0
 11
31.87004171004599
 21
8.763099999991255
 31
0.0
  0
LINE
  5
1F1ED
  8
0
  6
CONTINUOUS
 10
31.64199999996833
 20
7.861539080833412
 30
0.0
 11
32.54356091912618
 21
8.763099999991255
 31
0.0
  0
LINE
  5
1F1EE
  8
0
  6
CONTINUOUS
 10
31.64199999996833
 20
7.188019871753226
 30
0.0
 11
33.08199999996839
 21
8.628019871753281
 31
0.0
  0
LINE
  5
1F1EF
  8
0
  6
CONTINUOUS
 10
31.64199999996833
 20
6.51450066267304
 30
0.0
 11
33.08199999996839
 21
7.954500662673095
 31
0.0
  0
LINE
  5
1F1F0
  8
0
  6
CONTINUOUS
 10
31.64199999996833
 20
5.840981453592853
 30
0.0
 11
33.08199999996839
 21
7.280981453592908
 31
0.0
  0
LINE
  5
1F1F1
  8
0
  6
CONTINUOUS
 10
31.64199999996833
 20
5.167462244512667
 30
0.0
 11
33.08199999996839
 21
6.607462244512721
 31
0.0
  0
LINE
  5
1F1F2
  8
0
  6
CONTINUOUS
 10
31.64199999996833
 20
4.493943035432481
 30
0.0
 11
33.08199999996839
 21
5.933943035432535
 31
0.0
  0
LINE
  5
1F1F3
  8
0
  6
CONTINUOUS
 10
31.64199999996833
 20
3.820423826352293
 30
0.0
 11
33.08199999996839
 21
5.260423826352348
 31
0.0
  0
LINE
  5
1F1F4
  8
0
  6
CONTINUOUS
 10
31.64199999996833
 20
3.146904617272106
 30
0.0
 11
33.08199999996839
 21
4.586904617272161
 31
0.0
  0
LINE
  5
1F1F5
  8
0
  6
CONTINUOUS
 10
36.23199999996837
 20
8.410423826352325
 30
0.0
 11
36.5846761736073
 21
8.763099999991255
 31
0.0
  0
LINE
  5
1F1F6
  8
0
  6
CONTINUOUS
 10
36.23199999996837
 20
7.73690461727214
 30
0.0
 11
37.25819538268748
 21
8.763099999991255
 31
0.0
  0
LINE
  5
1F1F7
  8
0
  6
CONTINUOUS
 10
31.64257403601376
 20
2.473959444237348
 30
0.0
 11
33.08199999996839
 21
3.913385408191974
 31
0.0
  0
LINE
  5
1F1F8
  8
0
  6
CONTINUOUS
 10
36.23199999996837
 20
7.063385408191953
 30
0.0
 11
37.67199999996831
 21
8.503385408191894
 31
0.0
  0
LINE
  5
1F1F9
  8
0
  6
CONTINUOUS
 10
31.72013636841932
 20
1.87800256756272
 30
0.0
 11
33.08199999996839
 21
3.239866199111788
 31
0.0
  0
LINE
  5
1F1FA
  8
0
  6
CONTINUOUS
 10
36.23199999996837
 20
6.389866199111767
 30
0.0
 11
37.67199999996831
 21
7.829866199111708
 31
0.0
  0
LINE
  5
1F1FB
  8
0
  6
CONTINUOUS
 10
31.89042734314753
 20
1.374774333210744
 30
0.0
 11
33.08199999996839
 21
2.566346990031601
 31
0.0
  0
LINE
  5
1F1FC
  8
0
  6
CONTINUOUS
 10
36.23199999996837
 20
5.71634699003158
 30
0.0
 11
37.67199999996831
 21
7.156346990031521
 31
0.0
  0
LINE
  5
1F1FD
  8
0
  6
CONTINUOUS
 10
32.14210568064475
 20
0.952933461627778
 30
0.0
 11
33.18745552475986
 21
1.998283305742888
 31
0.0
  0
LINE
  5
1F1FE
  8
0
  6
CONTINUOUS
 10
36.23199999996837
 20
5.042827780951393
 30
0.0
 11
37.67199999996831
 21
6.482827780951334
 31
0.0
  0
LINE
  5
1F1FF
  8
0
  6
CONTINUOUS
 10
32.45820639400955
 20
0.5955149659123915
 30
0.0
 11
33.47242681921943
 21
1.60973539112227
 31
0.0
  0
LINE
  5
1F200
  8
0
  6
CONTINUOUS
 10
36.23199999996837
 20
4.369308571871207
 30
0.0
 11
37.67199999996831
 21
5.809308571871147
 31
0.0
  0
LINE
  5
1F201
  8
0
  6
CONTINUOUS
 10
32.83432456621412
 20
0.2981139290367771
 30
0.0
 11
33.89722476612215
 21
1.361014128944803
 31
0.0
  0
LINE
  5
1F202
  8
0
  6
CONTINUOUS
 10
36.23199999996837
 20
3.69578936279102
 30
0.0
 11
37.67199999996831
 21
5.135789362790962
 31
0.0
  0
LINE
  5
1F203
  8
0
  6
CONTINUOUS
 10
33.2711633111245
 20
0.0614334648669672
 30
0.0
 11
34.43247338014423
 21
1.222743533886696
 31
0.0
  0
LINE
  5
1F204
  8
0
  6
CONTINUOUS
 10
36.23199999996837
 20
3.022270153710834
 30
0.0
 11
37.67199999996831
 21
4.462270153710775
 31
0.0
  0
LINE
  5
1F205
  8
0
  6
CONTINUOUS
 10
33.76515245874577
 20
-0.1180965965919523
 30
0.0
 11
35.1587445516215
 21
1.27549549628378
 31
0.0
  0
LINE
  5
1F206
  8
0
  6
CONTINUOUS
 10
36.21639478609585
 20
2.333145730758136
 30
0.0
 11
37.67199999996831
 21
3.788750944630588
 31
0.0
  0
LINE
  5
1F207
  8
0
  6
CONTINUOUS
 10
34.34060583368432
 20
-0.2161624307335863
 30
0.0
 11
37.67199999996831
 21
3.115231735550401
 31
0.0
  0
LINE
  5
1F208
  8
0
  6
CONTINUOUS
 10
35.01698193613905
 20
-0.2133055373590427
 30
0.0
 11
37.66876712070525
 21
2.438479647207154
 31
0.0
  0
LINE
  5
1F209
  8
0
  6
CONTINUOUS
 10
35.90743367693304
 20
0.0036269943547609
 30
0.0
 11
37.51723902192366
 21
1.613432339345381
 31
0.0
  0
LINE
  5
1F20A
  8
0
  6
CONTINUOUS
 10
32.55309425579761
 20
0.5074718966376706
 30
0.0
 11
32.27784730925847
 21
0.7827188431768102
 31
0.0
  0
LINE
  5
1F20B
  8
0
  6
CONTINUOUS
 10
33.87496468909684
 20
-0.1408793275813673
 30
0.0
 11
31.67993083278052
 21
2.054154528734943
 31
0.0
  0
LINE
  5
1F20C
  8
0
  6
CONTINUOUS
 10
34.64362813207632
 20
-0.2360235614806649
 30
0.0
 11
31.64199999996833
 21
2.765604570627322
 31
0.0
  0
LINE
  5
1F20D
  8
0
  6
CONTINUOUS
 10
35.25801106796118
 20
-0.1768872882853429
 30
0.0
 11
31.64199999996833
 21
3.439123779707508
 31
0.0
  0
LINE
  5
1F20E
  8
0
  6
CONTINUOUS
 10
35.79065650332146
 20
-0.0360135145654361
 30
0.0
 11
34.54143210838231
 21
1.213210880373721
 31
0.0
  0
LINE
  5
1F20F
  8
0
  6
CONTINUOUS
 10
33.08199999996839
 20
2.67264298878764
 30
0.0
 11
31.64199999996833
 21
4.112642988787695
 31
0.0
  0
LINE
  5
1F210
  8
0
  6
CONTINUOUS
 10
36.25975597779143
 20
0.1684062200447833
 30
0.0
 11
35.15395110240023
 21
1.274211095435983
 31
0.0
  0
LINE
  5
1F211
  8
0
  6
CONTINUOUS
 10
33.08199999996839
 20
3.346162197867826
 30
0.0
 11
31.64199999996833
 21
4.786162197867881
 31
0.0
  0
LINE
  5
1F212
  8
0
  6
CONTINUOUS
 10
36.67226329638774
 20
0.4294181105286579
 30
0.0
 11
35.63766478748767
 21
1.464016619428737
 31
0.0
  0
LINE
  5
1F213
  8
0
  6
CONTINUOUS
 10
33.08199999996839
 20
4.019681406948012
 30
0.0
 11
31.64199999996833
 21
5.459681406948068
 31
0.0
  0
LINE
  5
1F214
  8
0
  6
CONTINUOUS
 10
37.01677749710036
 20
0.7584231188962329
 30
0.0
 11
35.99563422741351
 21
1.779566388583076
 31
0.0
  0
LINE
  5
1F215
  8
0
  6
CONTINUOUS
 10
33.08199999996839
 20
4.693200616028199
 30
0.0
 11
31.64199999996833
 21
6.133200616028255
 31
0.0
  0
LINE
  5
1F216
  8
0
  6
CONTINUOUS
 10
37.29859977568887
 20
1.1501200493879
 30
0.0
 11
36.20680593341555
 21
2.241913891661226
 31
0.0
  0
LINE
  5
1F217
  8
0
  6
CONTINUOUS
 10
33.08199999996839
 20
5.366719825108386
 30
0.0
 11
31.64199999996833
 21
6.80671982510844
 31
0.0
  0
LINE
  5
1F218
  8
0
  6
CONTINUOUS
 10
37.5148623517228
 20
1.607376682434161
 30
0.0
 11
36.23199999996837
 21
2.890239034188594
 31
0.0
  0
LINE
  5
1F219
  8
0
  6
CONTINUOUS
 10
33.08199999996839
 20
6.040239034188573
 30
0.0
 11
31.64199999996833
 21
7.480239034188627
 31
0.0
  0
LINE
  5
1F21A
  8
0
  6
CONTINUOUS
 10
37.64705163358367
 20
2.148706609653477
 30
0.0
 11
36.23199999996837
 21
3.56375824326878
 31
0.0
  0
LINE
  5
1F21B
  8
0
  6
CONTINUOUS
 10
33.08199999996839
 20
6.713758243268758
 30
0.0
 11
31.64199999996833
 21
8.153758243268815
 31
0.0
  0
LINE
  5
1F21C
  8
0
  6
CONTINUOUS
 10
37.67199999996831
 20
2.797277452349026
 30
0.0
 11
36.23199999996837
 21
4.237277452348967
 31
0.0
  0
LINE
  5
1F21D
  8
0
  6
CONTINUOUS
 10
37.67199999996831
 20
3.470796661429213
 30
0.0
 11
36.23199999996837
 21
4.910796661429154
 31
0.0
  0
LINE
  5
1F21E
  8
0
  6
CONTINUOUS
 10
37.67199999996831
 20
4.144315870509399
 30
0.0
 11
36.23199999996837
 21
5.58431587050934
 31
0.0
  0
LINE
  5
1F21F
  8
0
  6
CONTINUOUS
 10
33.08199999996839
 20
7.387277452348945
 30
0.0
 11
31.70617745232608
 21
8.763099999991255
 31
0.0
  0
LINE
  5
1F220
  8
0
  6
CONTINUOUS
 10
33.08199999996839
 20
8.060796661429132
 30
0.0
 11
32.37969666140626
 21
8.763099999991255
 31
0.0
  0
LINE
  5
1F221
  8
0
  6
CONTINUOUS
 10
33.08199999996839
 20
8.734315870509318
 30
0.0
 11
33.05321587048645
 21
8.763099999991255
 31
0.0
  0
LINE
  5
1F222
  8
0
  6
CONTINUOUS
 10
37.67199999996831
 20
4.817835079589585
 30
0.0
 11
36.23199999996837
 21
6.257835079589526
 31
0.0
  0
LINE
  5
1F223
  8
0
  6
CONTINUOUS
 10
37.67199999996831
 20
5.491354288669771
 30
0.0
 11
36.23199999996837
 21
6.931354288669713
 31
0.0
  0
LINE
  5
1F224
  8
0
  6
CONTINUOUS
 10
37.67199999996831
 20
6.164873497749958
 30
0.0
 11
36.23199999996837
 21
7.6048734977499
 31
0.0
  0
LINE
  5
1F225
  8
0
  6
CONTINUOUS
 10
37.67199999996831
 20
6.838392706830144
 30
0.0
 11
36.23199999996837
 21
8.278392706830086
 31
0.0
  0
LINE
  5
1F226
  8
0
  6
CONTINUOUS
 10
37.67199999996831
 20
7.511911915910332
 30
0.0
 11
36.42081191588738
 21
8.763099999991255
 31
0.0
  0
LINE
  5
1F227
  8
0
  6
CONTINUOUS
 10
37.67199999996831
 20
8.185431124990519
 30
0.0
 11
37.09433112496757
 21
8.763099999991255
 31
0.0
  0
ENDBLK
  5
1F28F
  8
0
  0
BLOCK
  8
0
  2
*X788
 70
     1
 10
0.0
 20
0.0
 30
0.0
  3
*X788
  1

  0
LINE
  5
1F229
  8
0
  6
CONTINUOUS
 10
38.60499999996136
 20
8.762866199104765
 30
0.0
 11
38.71672554182345
 21
8.874591740966855
 31
0.0
  0
LINE
  5
1F22A
  8
0
  6
CONTINUOUS
 10
38.60499999996136
 20
8.089346990024577
 30
0.0
 11
39.03418785440363
 21
8.518534844466847
 31
0.0
  0
LINE
  5
1F22B
  8
0
  6
CONTINUOUS
 10
38.60499999996136
 20
7.41582778094439
 30
0.0
 11
39.35165016698382
 21
8.16247794796684
 31
0.0
  0
LINE
  5
1F22C
  8
0
  6
CONTINUOUS
 10
38.60499999996136
 20
6.742308571864204
 30
0.0
 11
39.66911247956399
 21
7.806421051466834
 31
0.0
  0
LINE
  5
1F22D
  8
0
  6
CONTINUOUS
 10
38.60499999996136
 20
6.068789362784018
 30
0.0
 11
39.98657479214418
 21
7.450364154966827
 31
0.0
  0
LINE
  5
1F22E
  8
0
  6
CONTINUOUS
 10
38.60499999996136
 20
5.395270153703832
 30
0.0
 11
40.30403710472435
 21
7.09430725846682
 31
0.0
  0
LINE
  5
1F22F
  8
0
  6
CONTINUOUS
 10
38.60499999996136
 20
4.721750944623645
 30
0.0
 11
40.62149941730453
 21
6.738250361966813
 31
0.0
  0
LINE
  5
1F230
  8
0
  6
CONTINUOUS
 10
38.60499999996136
 20
4.048231735543458
 30
0.0
 11
40.93896172988471
 21
6.382193465466806
 31
0.0
  0
LINE
  5
1F231
  8
0
  6
CONTINUOUS
 10
38.60499999996136
 20
3.374712526463272
 30
0.0
 11
40.02599999995994
 21
4.795712526461843
 31
0.0
  0
LINE
  5
1F232
  8
0
  6
CONTINUOUS
 10
38.60499999996136
 20
2.701193317383085
 30
0.0
 11
40.02599999995994
 21
4.122193317381657
 31
0.0
  0
LINE
  5
1F233
  8
0
  6
CONTINUOUS
 10
40.28339754687704
 20
5.053110073378947
 30
0.0
 11
41.25642404246489
 21
6.026136568966799
 31
0.0
  0
LINE
  5
1F234
  8
0
  6
CONTINUOUS
 10
40.60085985945722
 20
4.697053176878939
 30
0.0
 11
41.57388635504507
 21
5.670079672466793
 31
0.0
  0
LINE
  5
1F235
  8
0
  6
CONTINUOUS
 10
43.57899999995641
 20
8.348712526458318
 30
0.0
 11
43.99338747348935
 21
8.763099999991255
 31
0.0
  0
LINE
  5
1F236
  8
0
  6
CONTINUOUS
 10
43.57899999995641
 20
7.675193317378131
 30
0.0
 11
44.66690668256953
 21
8.763099999991255
 31
0.0
  0
LINE
  5
1F237
  8
0
  6
CONTINUOUS
 10
38.60499999996136
 20
2.027674108302898
 30
0.0
 11
40.02599999995994
 21
3.44867410830147
 31
0.0
  0
LINE
  5
1F238
  8
0
  6
CONTINUOUS
 10
38.60499999996136
 20
1.354154899222712
 30
0.0
 11
40.02599999995994
 21
2.775154899221284
 31
0.0
  0
LINE
  5
1F239
  8
0
  6
CONTINUOUS
 10
38.60499999996136
 20
0.6806356901425255
 30
0.0
 11
40.02599999995994
 21
2.101635690141098
 31
0.0
  0
LINE
  5
1F23A
  8
0
  6
CONTINUOUS
 10
38.60499999996136
 20
0.0071164810623383
 30
0.0
 11
40.02599999995994
 21
1.428116481060911
 31
0.0
  0
LINE
  5
1F23B
  8
0
  6
CONTINUOUS
 10
40.9183221720374
 20
4.340996280378933
 30
0.0
 11
41.89134866762525
 21
5.314022775966786
 31
0.0
  0
LINE
  5
1F23C
  8
0
  6
CONTINUOUS
 10
41.23578448461758
 20
3.984939383878926
 30
0.0
 11
42.20881098020543
 21
4.957965879466778
 31
0.0
  0
LINE
  5
1F23D
  8
0
  6
CONTINUOUS
 10
41.55324679719776
 20
3.628882487378919
 30
0.0
 11
42.52627329278561
 21
4.601908982966772
 31
0.0
  0
LINE
  5
1F23E
  8
0
  6
CONTINUOUS
 10
41.87070910977793
 20
3.272825590878912
 30
0.0
 11
42.84373560536579
 21
4.245852086466765
 31
0.0
  0
LINE
  5
1F23F
  8
0
  6
CONTINUOUS
 10
43.57899999995641
 20
7.001674108297943
 30
0.0
 11
44.99999999995498
 21
8.422674108296516
 31
0.0
  0
LINE
  5
1F240
  8
0
  6
CONTINUOUS
 10
43.57899999995641
 20
6.328154899217758
 30
0.0
 11
44.99999999995498
 21
7.749154899216329
 31
0.0
  0
LINE
  5
1F241
  8
0
  6
CONTINUOUS
 10
43.57899999995641
 20
5.654635690137571
 30
0.0
 11
44.99999999995498
 21
7.075635690136142
 31
0.0
  0
LINE
  5
1F242
  8
0
  6
CONTINUOUS
 10
43.57899999995641
 20
4.981116481057384
 30
0.0
 11
44.99999999995498
 21
6.402116481055955
 31
0.0
  0
LINE
  5
1F243
  8
0
  6
CONTINUOUS
 10
39.27140272797921
 20
-0.0000000000000009
 30
0.0
 11
40.02599999995994
 21
0.7545972719807246
 31
0.0
  0
LINE
  5
1F244
  8
0
  6
CONTINUOUS
 10
39.9449219370594
 20
-0.0000000000000009
 30
0.0
 11
40.02599999995994
 21
0.0810780629005379
 31
0.0
  0
LINE
  5
1F245
  8
0
  6
CONTINUOUS
 10
42.18817142235812
 20
2.916768694378905
 30
0.0
 11
43.16119791794597
 21
3.889795189966758
 31
0.0
  0
LINE
  5
1F246
  8
0
  6
CONTINUOUS
 10
42.50563373493829
 20
2.560711797878898
 30
0.0
 11
43.47866023052615
 21
3.533738293466751
 31
0.0
  0
LINE
  5
1F247
  8
0
  6
CONTINUOUS
 10
43.57899999995641
 20
4.307597271977198
 30
0.0
 11
44.99999999995498
 21
5.728597271975769
 31
0.0
  0
LINE
  5
1F248
  8
0
  6
CONTINUOUS
 10
43.57899999995641
 20
3.634078062897011
 30
0.0
 11
44.99999999995498
 21
5.055078062895582
 31
0.0
  0
LINE
  5
1F249
  8
0
  6
CONTINUOUS
 10
42.82309604751848
 20
2.204654901378891
 30
0.0
 11
44.99999999995498
 21
4.381558853815395
 31
0.0
  0
LINE
  5
1F24A
  8
0
  6
CONTINUOUS
 10
43.14055836009865
 20
1.848598004878885
 30
0.0
 11
44.99999999995498
 21
3.70803964473521
 31
0.0
  0
LINE
  5
1F24B
  8
0
  6
CONTINUOUS
 10
43.45802067267883
 20
1.492541108378878
 30
0.0
 11
44.99999999995498
 21
3.034520435655023
 31
0.0
  0
LINE
  5
1F24C
  8
0
  6
CONTINUOUS
 10
43.77548298525902
 20
1.136484211878871
 30
0.0
 11
44.99999999995498
 21
2.361001226574837
 31
0.0
  0
LINE
  5
1F24D
  8
0
  6
CONTINUOUS
 10
44.09294529783919
 20
0.7804273153788639
 30
0.0
 11
44.99999999995498
 21
1.687482017494649
 31
0.0
  0
LINE
  5
1F24E
  8
0
  6
CONTINUOUS
 10
44.41040761041938
 20
0.4243704188788566
 30
0.0
 11
44.99999999995498
 21
1.013962808414463
 31
0.0
  0
LINE
  5
1F24F
  8
0
  6
CONTINUOUS
 10
44.72786992299955
 20
0.0683135223788494
 30
0.0
 11
44.99999999995498
 21
0.340443599334276
 31
0.0
  0
LINE
  5
1F250
  8
0
  6
CONTINUOUS
 10
39.12223903415696
 20
-0.0000000000000009
 30
0.0
 11
38.60499999996136
 21
0.5172390341955961
 31
0.0
  0
LINE
  5
1F251
  8
0
  6
CONTINUOUS
 10
39.79575824323715
 20
-0.0000000000000009
 30
0.0
 11
38.60499999996136
 21
1.190758243275783
 31
0.0
  0
LINE
  5
1F252
  8
0
  6
CONTINUOUS
 10
40.02599999995994
 20
0.443277452357397
 30
0.0
 11
38.60499999996136
 21
1.864277452355969
 31
0.0
  0
LINE
  5
1F253
  8
0
  6
CONTINUOUS
 10
40.02599999995994
 20
1.116796661437583
 30
0.0
 11
38.60499999996136
 21
2.537796661436155
 31
0.0
  0
LINE
  5
1F254
  8
0
  6
CONTINUOUS
 10
40.02599999995994
 20
1.79031587051777
 30
0.0
 11
38.60499999996136
 21
3.211315870516341
 31
0.0
  0
LINE
  5
1F255
  8
0
  6
CONTINUOUS
 10
40.02599999995994
 20
2.463835079597956
 30
0.0
 11
38.60499999996136
 21
3.884835079596527
 31
0.0
  0
LINE
  5
1F256
  8
0
  6
CONTINUOUS
 10
40.02599999995994
 20
3.137354288678143
 30
0.0
 11
38.60499999996136
 21
4.558354288676714
 31
0.0
  0
LINE
  5
1F257
  8
0
  6
CONTINUOUS
 10
40.02599999995994
 20
3.810873497758329
 30
0.0
 11
38.60499999996136
 21
5.2318734977569
 31
0.0
  0
LINE
  5
1F258
  8
0
  6
CONTINUOUS
 10
40.02599999995994
 20
4.484392706838515
 30
0.0
 11
38.60499999996136
 21
5.905392706837086
 31
0.0
  0
LINE
  5
1F259
  8
0
  6
CONTINUOUS
 10
44.99999999995498
 20
0.183911915923658
 30
0.0
 11
41.53858364506288
 21
3.64532827081576
 31
0.0
  0
LINE
  5
1F25A
  8
0
  6
CONTINUOUS
 10
40.02599999995994
 20
5.157911915918703
 30
0.0
 11
38.60499999996136
 21
6.578911915917274
 31
0.0
  0
LINE
  5
1F25B
  8
0
  6
CONTINUOUS
 10
44.99999999995498
 20
0.8574311250038447
 30
0.0
 11
38.60499999996136
 21
7.25243112499746
 31
0.0
  0
LINE
  5
1F25C
  8
0
  6
CONTINUOUS
 10
44.99999999995498
 20
1.530950334084031
 30
0.0
 11
38.60499999996136
 21
7.925950334077647
 31
0.0
  0
LINE
  5
1F25D
  8
0
  6
CONTINUOUS
 10
44.99999999995498
 20
2.204469543164218
 30
0.0
 11
43.57899999995641
 21
3.625469543162789
 31
0.0
  0
LINE
  5
1F25E
  8
0
  6
CONTINUOUS
 10
41.89876730984767
 20
5.305702233271528
 30
0.0
 11
38.60499999996136
 21
8.599469543157834
 31
0.0
  0
LINE
  5
1F25F
  8
0
  6
CONTINUOUS
 10
44.99999999995498
 20
2.877988752244405
 30
0.0
 11
43.57899999995641
 21
4.298988752242975
 31
0.0
  0
LINE
  5
1F260
  8
0
  6
CONTINUOUS
 10
44.99999999995498
 20
3.551507961324591
 30
0.0
 11
43.57899999995641
 21
4.972507961323163
 31
0.0
  0
LINE
  5
1F261
  8
0
  6
CONTINUOUS
 10
44.99999999995498
 20
4.225027170404777
 30
0.0
 11
43.57899999995641
 21
5.646027170403348
 31
0.0
  0
LINE
  5
1F262
  8
0
  6
CONTINUOUS
 10
44.99999999995498
 20
4.898546379484964
 30
0.0
 11
43.57899999995641
 21
6.319546379483535
 31
0.0
  0
LINE
  5
1F263
  8
0
  6
CONTINUOUS
 10
44.99999999995498
 20
5.572065588565151
 30
0.0
 11
43.57899999995641
 21
6.993065588563722
 31
0.0
  0
LINE
  5
1F264
  8
0
  6
CONTINUOUS
 10
44.99999999995498
 20
6.245584797645336
 30
0.0
 11
43.57899999995641
 21
7.666584797643908
 31
0.0
  0
LINE
  5
1F265
  8
0
  6
CONTINUOUS
 10
44.99999999995498
 20
6.919104006725522
 30
0.0
 11
43.57899999995641
 21
8.340104006724093
 31
0.0
  0
LINE
  5
1F266
  8
0
  6
CONTINUOUS
 10
44.99999999995498
 20
7.592623215805709
 30
0.0
 11
43.82952321576943
 21
8.763099999991255
 31
0.0
  0
LINE
  5
1F267
  8
0
  6
CONTINUOUS
 10
44.99999999995498
 20
8.266142424885896
 30
0.0
 11
44.50304242484962
 21
8.763099999991255
 31
0.0
  0
ENDBLK
  5
1F291
  8
0
  0
BLOCK
  8
0
  2
*X789
 70
     1
 10
0.0
 20
0.0
 30
0.0
  3
*X789
  1

  0
LINE
  5
1F269
  8
0
  6
CONTINUOUS
 10
0.0
 20
8.548461116714023
 30
0.0
 11
0.2146388832772324
 21
8.763099999991255
 31
0.0
  0
LINE
  5
1F26A
  8
0
  6
CONTINUOUS
 10
-0.0000000000000002
 20
7.874941907633837
 30
0.0
 11
0.8881580923574184
 21
8.763099999991255
 31
0.0
  0
LINE
  5
1F26B
  8
0
  6
CONTINUOUS
 10
0.0
 20
7.20142269855365
 30
0.0
 11
1.420999999998572
 21
8.622422698552223
 31
0.0
  0
LINE
  5
1F26C
  8
0
  6
CONTINUOUS
 10
-0.0000000000000001
 20
6.527903489473465
 30
0.0
 11
1.420999999998571
 21
7.948903489472036
 31
0.0
  0
LINE
  5
1F26D
  8
0
  6
CONTINUOUS
 10
-0.0000000000000002
 20
5.854384280393278
 30
0.0
 11
1.420999999998571
 21
7.275384280391849
 31
0.0
  0
LINE
  5
1F26E
  8
0
  6
CONTINUOUS
 10
-0.0000000000000002
 20
5.180865071313091
 30
0.0
 11
1.420999999998571
 21
6.601865071311663
 31
0.0
  0
LINE
  5
1F26F
  8
0
  6
CONTINUOUS
 10
0.0
 20
4.507345862232905
 30
0.0
 11
1.420999999998571
 21
5.928345862231477
 31
0.0
  0
LINE
  5
1F270
  8
0
  6
CONTINUOUS
 10
-0.0000000000000003
 20
3.833826653152718
 30
0.0
 11
1.420999999998571
 21
5.25482665315129
 31
0.0
  0
LINE
  5
1F271
  8
0
  6
CONTINUOUS
 10
-0.0000000000000002
 20
3.160307444072532
 30
0.0
 11
1.420999999998571
 21
4.581307444071103
 31
0.0
  0
LINE
  5
1F272
  8
0
  6
CONTINUOUS
 10
-0.0000000000000001
 20
2.486788234992345
 30
0.0
 11
1.420999999998571
 21
3.907788234990917
 31
0.0
  0
LINE
  5
1F273
  8
0
  6
CONTINUOUS
 10
-0.0000000000000006
 20
1.813269025912159
 30
0.0
 11
1.420999999998571
 21
3.234269025910731
 31
0.0
  0
LINE
  5
1F274
  8
0
  6
CONTINUOUS
 10
0.0
 20
1.139749816831973
 30
0.0
 11
1.420999999998571
 21
2.560749816830544
 31
0.0
  0
LINE
  5
1F275
  8
0
  6
CONTINUOUS
 10
0.0000000000000002
 20
0.466230607751787
 30
0.0
 11
1.420999999998571
 21
1.887230607750358
 31
0.0
  0
LINE
  5
1F276
  8
0
  6
CONTINUOUS
 10
0.2072886013284003
 20
-0.0000000000000009
 30
0.0
 11
1.420999999998571
 21
1.213711398670171
 31
0.0
  0
LINE
  5
1F277
  8
0
  6
CONTINUOUS
 10
0.8808078104085864
 20
-0.0000000000000009
 30
0.0
 11
1.420999999998571
 21
0.5401921895899839
 31
0.0
  0
LINE
  5
1F278
  8
0
  6
CONTINUOUS
 10
0.0581249075061505
 20
-0.0000000000000009
 30
0.0
 11
-0.0000000000000002
 21
0.0581249075061496
 31
0.0
  0
LINE
  5
1F279
  8
0
  6
CONTINUOUS
 10
0.7316441165863372
 20
-0.0000000000000009
 30
0.0
 11
-0.0000000000000002
 21
0.7316441165863363
 31
0.0
  0
LINE
  5
1F27A
  8
0
  6
CONTINUOUS
 10
1.405163325666523
 20
-0.0000000000000009
 30
0.0
 11
-0.0000000000000002
 21
1.405163325666523
 31
0.0
  0
LINE
  5
1F27B
  8
0
  6
CONTINUOUS
 10
1.420999999998572
 20
0.6576825347481381
 30
0.0
 11
-0.0000000000000001
 21
2.07868253474671
 31
0.0
  0
LINE
  5
1F27C
  8
0
  6
CONTINUOUS
 10
1.420999999998571
 20
1.331201743828324
 30
0.0
 11
-0.0000000000000001
 21
2.752201743826896
 31
0.0
  0
LINE
  5
1F27D
  8
0
  6
CONTINUOUS
 10
1.420999999998571
 20
2.004720952908511
 30
0.0
 11
-0.0000000000000002
 21
3.425720952907082
 31
0.0
  0
LINE
  5
1F27E
  8
0
  6
CONTINUOUS
 10
1.420999999998571
 20
2.678240161988697
 30
0.0
 11
-0.0000000000000001
 21
4.099240161987269
 31
0.0
  0
LINE
  5
1F27F
  8
0
  6
CONTINUOUS
 10
1.420999999998572
 20
3.351759371068884
 30
0.0
 11
0.0
 21
4.772759371067455
 31
0.0
  0
LINE
  5
1F280
  8
0
  6
CONTINUOUS
 10
1.420999999998571
 20
4.02527858014907
 30
0.0
 11
-0.0000000000000003
 21
5.446278580147642
 31
0.0
  0
LINE
  5
1F281
  8
0
  6
CONTINUOUS
 10
1.420999999998571
 20
4.698797789229257
 30
0.0
 11
0.0
 21
6.119797789227828
 31
0.0
  0
LINE
  5
1F282
  8
0
  6
CONTINUOUS
 10
1.420999999998571
 20
5.372316998309444
 30
0.0
 11
-0.0000000000000001
 21
6.793316998308015
 31
0.0
  0
LINE
  5
1F283
  8
0
  6
CONTINUOUS
 10
1.420999999998572
 20
6.045836207389629
 30
0.0
 11
-0.0000000000000004
 21
7.466836207388202
 31
0.0
  0
LINE
  5
1F284
  8
0
  6
CONTINUOUS
 10
1.420999999998571
 20
6.719355416469816
 30
0.0
 11
0.0
 21
8.140355416468388
 31
0.0
  0
LINE
  5
1F285
  8
0
  6
CONTINUOUS
 10
1.420999999998571
 20
7.392874625550003
 30
0.0
 11
0.0507746255573185
 21
8.763099999991255
 31
0.0
  0
LINE
  5
1F286
  8
0
  6
CONTINUOUS
 10
1.420999999998571
 20
8.06639383463019
 30
0.0
 11
0.7242938346375052
 21
8.763099999991255
 31
0.0
  0
LINE
  5
1F287
  8
0
  6
CONTINUOUS
 10
1.420999999998571
 20
8.739913043710375
 30
0.0
 11
1.397813043717691
 21
8.763099999991255
 31
0.0
  0
ENDBLK
  5
1F293
  8
0
  0
ENDSEC
  0
SECTION
  2
ENTITIES
  0
LINE
  5
1DD0C
  8
01
  6
CONTINUOUS
 10
14030.04674051866
 20
6.999254374304769
 30
0.0
 11
13734.83060835223
 21
6.999254374306702
 31
0.0
  0
LINE
  5
1DD0D
  8
01
  6
CONTINUOUS
 10
13727.26287268511
 20
6.999254374306588
 30
0.0
 11
13432.04674051866
 21
6.999254374308521
 31
0.0
  0
LINE
  5
1DD0E
  8
01
  6
CENS
 10
14041.04674051866
 20
-9.000745625695231
 30
0.0
 11
13421.04674051866
 21
-9.00074562569148
 31
0.0
  0
LINE
  5
1DD0F
  8
01
  6
CONTINUOUS
 10
14030.04674051866
 20
-167.0007456256956
 30
0.0
 11
13734.83060834791
 21
-167.0007456256938
 31
0.0
  0
LINE
  5
1DD10
  8
01
  6
CONTINUOUS
 10
13727.26287268941
 20
-167.0007456256936
 30
0.0
 11
13432.04674051866
 21
-167.0007456256917
 31
0.0
  0
LINE
  5
1DD11
  8
01
  6
CENS
 10
14041.04674051866
 20
-151.0007456256956
 30
0.0
 11
13421.04674051866
 21
-151.0007456256917
 31
0.0
  0
LINE
  5
1DD12
  8
01
  6
CENS
 10
13566.04674051866
 20
-177.0007456256932
 30
0.0
 11
13566.04674051866
 21
16.99925437430716
 31
0.0
  0
LINE
  5
1DD13
  8
01
  6
CENS
 10
14041.04674051866
 20
-229.2165719786735
 30
0.0
 11
13421.04674051866
 21
-229.2165719786697
 31
0.0
  0
LINE
  5
1DD14
  8
01
  6
CONTINUOUS
 10
14030.04674051866
 20
-245.2165719786735
 30
0.0
 11
13734.83060834791
 21
-245.2165719786717
 31
0.0
  0
LINE
  5
1DD15
  8
01
  6
CONTINUOUS
 10
13727.26287268941
 20
-245.2165719786716
 30
0.0
 11
13432.04674051866
 21
-245.2165719786697
 31
0.0
  0
LINE
  5
1DD16
  8
01
  6
CONTINUOUS
 10
14030.04674051866
 20
-213.2165719786735
 30
0.0
 11
13734.83060835222
 21
-213.2165719786717
 31
0.0
  0
LINE
  5
1DD17
  8
01
  6
CONTINUOUS
 10
13727.2628726851
 20
-213.2165719786716
 30
0.0
 11
13432.04674051866
 21
-213.2165719786697
 31
0.0
  0
LINE
  5
1DD18
  8
01
  6
CONTINUOUS
 10
14030.04674051866
 20
91.49850902149649
 30
0.0
 11
13734.83060834792
 21
91.49850902149831
 31
0.0
  0
LINE
  5
1DD19
  8
01
  6
CONTINUOUS
 10
13727.26287268941
 20
91.49850902149831
 30
0.0
 11
13432.04674051866
 21
91.49850902150035
 31
0.0
  0
LINE
  5
1DD1A
  8
01
  6
CONTINUOUS
 10
14030.04674051866
 20
123.4985090214965
 30
0.0
 11
13734.83060835223
 21
123.4985090214984
 31
0.0
  0
LINE
  5
1DD1B
  8
01
  6
CONTINUOUS
 10
13727.26287268511
 20
123.4985090214983
 30
0.0
 11
13432.04674051866
 21
123.4985090215004
 31
0.0
  0
LINE
  5
1DD1C
  8
01
  6
CENS
 10
14041.04674051866
 20
107.4985090214965
 30
0.0
 11
13421.04674051866
 21
107.4985090215002
 31
0.0
  0
LINE
  5
1DD21
  8
01
  6
CONTINUOUS
 10
14030.04674051866
 20
-25.00074562569523
 30
0.0
 11
13908.54674051866
 21
-25.00074562569603
 31
0.0
  0
LINE
  5
1DD22
  8
01
  6
CONTINUOUS
 10
13883.54674051866
 20
-25.00074562569614
 30
0.0
 11
13734.83060834792
 21
-25.00074562569591
 31
0.0
  0
LINE
  5
1DD23
  8
01
  6
CONTINUOUS
 10
13727.26287268941
 20
-25.0007456256958
 30
0.0
 11
13578.54674051866
 21
-25.00074562569614
 31
0.0
  0
LINE
  5
1DD24
  8
01
  6
CONTINUOUS
 10
13553.54674051866
 20
-25.00074562569625
 30
0.0
 11
13432.04674051866
 21
-25.0007456256958
 31
0.0
  0
LINE
  5
1DD25
  8
01
  6
CONTINUOUS
 10
14030.04674051866
 20
-135.0007456256956
 30
0.0
 11
13908.54674051866
 21
-135.0007456256965
 31
0.0
  0
LINE
  5
1DD26
  8
01
  6
CONTINUOUS
 10
13883.54674051866
 20
-135.0007456256967
 30
0.0
 11
13734.83060835223
 21
-135.0007456256963
 31
0.0
  0
LINE
  5
1DD27
  8
01
  6
CONTINUOUS
 10
13727.26287268511
 20
-135.0007456256963
 30
0.0
 11
13578.54674051866
 21
-135.0007456256965
 31
0.0
  0
LINE
  5
1DD28
  8
01
  6
CONTINUOUS
 10
13553.54674051866
 20
-135.0007456256966
 30
0.0
 11
13432.04674051866
 21
-135.000745625696
 31
0.0
  0
LINE
  5
1DD29
  8
01
  6
CENS
 10
13896.04674051866
 20
-177.0007456256964
 30
0.0
 11
13896.04674051866
 21
16.99925437430386
 31
0.0
  0
LINE
  5
1DD2A
  8
01
  6
PHAS
 10
13318.45444283713
 20
-60.00074562569864
 30
0.0
 11
13553.54674051866
 21
-60.00074562569728
 31
0.0
  0
LINE
  5
1DD2B
  8
01
  6
PHAS
 10
13578.54674051866
 20
-60.00074562569694
 30
0.0
 11
13883.54674051866
 21
-60.00074562569625
 31
0.0
  0
LINE
  5
1DD2C
  8
01
  6
PHAS
 10
13908.54674051866
 20
-60.00074562569591
 30
0.0
 11
14062.7505916779
 21
-60.00074562569193
 31
0.0
  0
LINE
  5
1DD2D
  8
01
  6
PHAS
 10
13272.70630059234
 20
-100.0007456257016
 30
0.0
 11
13304.41015175157
 21
-100.0007456256955
 31
0.0
  0
LINE
  5
1DD2E
  8
01
  6
PHAS
 10
13318.45444283713
 20
-100.0007456256991
 30
0.0
 11
13553.54674051866
 21
-100.0007456256965
 31
0.0
  0
LINE
  5
1DD2F
  8
01
  6
PHAS
 10
13578.54674051866
 20
-100.0007456256963
 30
0.0
 11
13883.54674051866
 21
-100.0007456256945
 31
0.0
  0
LINE
  5
1DD30
  8
01
  6
PHAS
 10
13908.54674051866
 20
-100.0007456256942
 30
0.0
 11
14062.7505916779
 21
-100.0007456256923
 31
0.0
  0
ARC
  5
1DD3B
  8
01
 10
13745.7996848397
 20
99.49850901707032
 30
0.0
 40
13.57647373259095
 50
143.8958677138229
 51
216.104132286177
1001
ASKOBJSC
1000
1/2
1001
ASKDWGSC
1040
10.0
  0
ARC
  5
1DD3C
  8
01
 10
13723.86153186475
 20
115.4985090200249
 30
0.0
 40
13.57647373259095
 50
323.8958677138228
 51
36.10413228617713
1001
ASKOBJSC
1000
1/2
1001
ASKDWGSC
1040
10.0
  0
ARC
  5
1DD3D
  8
01
 10
13745.7996848397
 20
115.4985090200249
 30
0.0
 40
13.57647373259095
 50
143.8958677138229
 51
216.104132286177
1001
ASKOBJSC
1000
1/2
1001
ASKDWGSC
1040
10.0
  0
ARC
  5
1DD3E
  8
01
 10
13716.29379619763
 20
99.4985090170677
 30
0.0
 40
13.57647373259095
 50
323.8958677138248
 51
36.1041322861532
1001
ASKOBJSC
1000
1/2
1001
ASKDWGSC
1040
10.0
  0
ARC
  5
1DD3F
  8
01
 10
13738.23194917242
 20
99.49850901728496
 30
0.0
 40
13.57647373259095
 50
143.8958677138229
 51
216.1041322861532
1001
ASKOBJSC
1000
1/2
1001
ASKDWGSC
1040
10.0
  0
ARC
  5
1DD40
  8
01
 10
13716.29379619763
 20
115.4985090200223
 30
0.0
 40
13.57647373259095
 50
323.8958677138228
 51
36.10413228616257
1001
ASKOBJSC
1000
1/2
1001
ASKDWGSC
1040
10.0
  0
ARC
  5
1DD41
  8
01
 10
13745.7996848397
 20
-17.00074563012151
 30
0.0
 40
13.57647373259095
 50
143.8958677138248
 51
216.1041322861752
1001
ASKOBJSC
1000
1/2
1001
ASKDWGSC
1040
10.0
  0
ARC
  5
1DD42
  8
01
 10
13723.86153186475
 20
-1.000745627166907
 30
0.0
 40
13.57647373259095
 50
323.8958677138228
 51
36.10413228617712
1001
ASKOBJSC
1000
1/2
1001
ASKDWGSC
1040
10.0
  0
ARC
  5
1DD43
  8
01
 10
13745.7996848397
 20
-1.000745627166907
 30
0.0
 40
13.57647373259095
 50
143.8958677138248
 51
216.1041322861752
1001
ASKOBJSC
1000
1/2
1001
ASKDWGSC
1040
10.0
  0
ARC
  5
1DD44
  8
01
 10
13716.29379619763
 20
-17.00074563012413
 30
0.0
 40
13.57647373259095
 50
323.8958677138228
 51
36.10413228616267
1001
ASKOBJSC
1000
1/2
1001
ASKDWGSC
1040
10.0
  0
ARC
  5
1DD45
  8
01
 10
13738.23194917242
 20
-17.00074562990687
 30
0.0
 40
13.57647373259095
 50
143.8958677138229
 51
216.1041322861627
1001
ASKOBJSC
1000
1/2
1001
ASKDWGSC
1040
10.0
  0
ARC
  5
1DD46
  8
01
 10
13716.29379619763
 20
-1.000745627169522
 30
0.0
 40
13.57647373259095
 50
323.8958677138228
 51
36.10413228615328
1001
ASKOBJSC
1000
1/2
1001
ASKDWGSC
1040
10.0
  0
ARC
  5
1DD47
  8
01
 10
13745.7996848397
 20
-159.0007456301217
 30
0.0
 40
13.57647373259095
 50
143.8958677138232
 51
216.1041322861768
1001
ASKOBJSC
1000
1/2
1001
ASKDWGSC
1040
10.0
  0
ARC
  5
1DD48
  8
01
 10
13723.86153186475
 20
-143.0007456271671
 30
0.0
 40
13.57647373259095
 50
323.8958677138232
 51
36.10413228617684
1001
ASKOBJSC
1000
1/2
1001
ASKDWGSC
1040
10.0
  0
ARC
  5
1DD49
  8
01
 10
13745.7996848397
 20
-143.0007456271671
 30
0.0
 40
13.57647373259095
 50
143.8958677138232
 51
216.1041322861768
1001
ASKOBJSC
1000
1/2
1001
ASKDWGSC
1040
10.0
  0
ARC
  5
1DD4A
  8
01
 10
13716.29379619762
 20
-159.0007456301244
 30
0.0
 40
13.57647373259095
 50
323.8958677138326
 51
36.10413228615335
1001
ASKOBJSC
1000
1/2
1001
ASKDWGSC
1040
10.0
  0
ARC
  5
1DD4B
  8
01
 10
13738.23194917242
 20
-159.0007456299071
 30
0.0
 40
13.57647373259095
 50
143.8958677138232
 51
216.1041322861533
1001
ASKOBJSC
1000
1/2
1001
ASKDWGSC
1040
10.0
  0
ARC
  5
1DD4C
  8
01
 10
13716.29379619763
 20
-143.0007456271697
 30
0.0
 40
13.57647373259095
 50
323.8958677138232
 51
36.10413228616272
1001
ASKOBJSC
1000
1/2
1001
ASKDWGSC
1040
10.0
  0
ARC
  5
1DD4D
  8
01
 10
13745.7996848397
 20
-237.2165719830997
 30
0.0
 40
13.57647373259095
 50
143.8958677138229
 51
216.1041322861771
1001
ASKOBJSC
1000
1/2
1001
ASKDWGSC
1040
10.0
  0
ARC
  5
1DD4E
  8
01
 10
13723.86153186475
 20
-221.2165719801451
 30
0.0
 40
13.57647373259095
 50
323.8958677138228
 51
36.10413228617713
1001
ASKOBJSC
1000
1/2
1001
ASKDWGSC
1040
10.0
  0
ARC
  5
1DD4F
  8
01
 10
13745.7996848397
 20
-221.2165719801451
 30
0.0
 40
13.57647373259095
 50
143.8958677138229
 51
216.1041322861771
1001
ASKOBJSC
1000
1/2
1001
ASKDWGSC
1040
10.0
  0
ARC
  5
1DD50
  8
01
 10
13716.29379619762
 20
-237.2165719831023
 30
0.0
 40
13.57647373259095
 50
323.8958677138228
 51
36.10413228615277
1001
ASKOBJSC
1000
1/2
1001
ASKDWGSC
1040
10.0
  0
ARC
  5
1DD51
  8
01
 10
13738.23194917242
 20
-237.2165719828851
 30
0.0
 40
13.57647373259095
 50
143.8958677138336
 51
216.1041322861528
1001
ASKOBJSC
1000
1/2
1001
ASKDWGSC
1040
10.0
  0
ARC
  5
1DD52
  8
01
 10
13716.29379619763
 20
-221.2165719801477
 30
0.0
 40
13.57647373259095
 50
323.8958677138228
 51
36.10413228616339
1001
ASKOBJSC
1000
1/2
1001
ASKDWGSC
1040
10.0
  0
LINE
  5
1DD5D
  8
01
  6
CENS
 10
13566.04674051866
 20
81.49850902149933
 30
0.0
 11
13566.04674051866
 21
169.9985090214988
 31
0.0
  0
LINE
  5
1DD5E
  8
01
  6
CENS
 10
13896.04674051866
 20
81.49850902149728
 30
0.0
 11
13896.04674051866
 21
169.9985090214967
 31
0.0
  0
LINE
  5
1DE02
  8
01
  6
PHAS
 10
13272.70630059234
 20
-60.00074535279862
 30
0.0
 11
13304.41015175157
 21
-60.00074535279248
 31
0.0
  0
LINE
  5
1DE04
  8
01
 10
13553.54674051866
 20
-32.00074535279953
 30
0.0
 11
13578.54674051866
 21
-32.00074535279953
 31
0.0
  0
LINE
  5
1DE05
  8
01
 10
13553.54674051866
 20
-44.00074535280248
 30
0.0
 11
13578.54674051866
 21
-44.00074535280248
 31
0.0
  0
LINE
  5
1DE06
  8
01
 10
13578.54674051866
 20
-137.0081000212828
 30
0.0
 11
13578.54674051866
 21
-100.000745352798
 31
0.0
  0
LINE
  5
1DE07
  8
01
 10
13553.54674051866
 20
-137.0081000212828
 30
0.0
 11
13553.54674051866
 21
-100.000745352798
 31
0.0
  0
LINE
  5
1DE08
  8
01
 10
13553.54674051866
 20
-60.00074535279862
 30
0.0
 11
13553.54674051866
 21
-22.99339054787572
 31
0.0
  0
LINE
  5
1DE09
  8
01
 10
13578.54674051866
 20
-60.00074535279862
 30
0.0
 11
13578.54674051866
 21
-22.99339054787572
 31
0.0
  0
LINE
  5
1DE0A
  8
01
 10
13553.54674051866
 20
-128.0007453528028
 30
0.0
 11
13578.54674051866
 21
-128.0007453528028
 31
0.0
  0
LINE
  5
1DE0B
  8
01
 10
13553.54674051866
 20
-116.0007453528028
 30
0.0
 11
13578.54674051866
 21
-116.0007453528028
 31
0.0
  0
LINE
  5
1DE0C
  8
01
 10
13553.54674051866
 20
-60.00074535279862
 30
0.0
 11
13578.54674051866
 21
-60.00074535279862
 31
0.0
  0
LINE
  5
1DE0D
  8
01
 10
13553.54674051866
 20
-100.000745352798
 30
0.0
 11
13578.54674051866
 21
-100.0007453527985
 31
0.0
  0
LINE
  5
1DE0E
  8
01
 10
13553.54674051866
 20
-25.00074535280316
 30
0.0
 11
13578.54674051866
 21
-25.00074535280316
 31
0.0
  0
LINE
  5
1DE0F
  8
01
 10
13553.54674051866
 20
-135.0007453528035
 30
0.0
 11
13578.54674051866
 21
-135.0007453528035
 31
0.0
  0
LINE
  5
1DE10
  8
01
 10
13553.54674051866
 20
-22.99339054787572
 30
0.0
 11
13578.54674051866
 21
-22.99339054787572
 31
0.0
  0
LINE
  5
1DE11
  8
01
 10
13562.04674051867
 20
-60.00074535280203
 30
0.0
 11
13562.04673990921
 21
-100.0007453527984
 31
0.0
  0
LINE
  5
1DE12
  8
01
 10
13570.04674051867
 20
-60.00074535280203
 30
0.0
 11
13570.04673990921
 21
-100.0007453527984
 31
0.0
  0
LINE
  5
1DE13
  8
01
  6
CONTINUOUS
 10
13562.67667818083
 20
-100.0007453527984
 30
0.0
 11
13562.67174051867
 21
-60.00074535280203
 31
0.0
  0
LINE
  5
1DE14
  8
01
  6
CONTINUOUS
 10
13569.42174051867
 20
-60.00074535280203
 30
0.0
 11
13569.41680163758
 21
-100.0007453527984
 31
0.0
  0
LINE
  5
1DE15
  8
01
 10
13553.54674051866
 20
-137.0081000212828
 30
0.0
 11
13578.54674051866
 21
-137.0081000212828
 31
0.0
  0
LINE
  5
1DE16
  8
01
  6
HIDS
 10
13554.04674051866
 20
-38.87358547989015
 30
0.0
 11
13578.04674051866
 21
-38.87358547989015
 31
0.0
  0
ARC
  5
1DE17
  8
01
  6
HIDS
 10
13578.04674051866
 20
-39.37358547989015
 30
0.0
 40
0.5
 50
0.0
 51
90.0
  0
ARC
  5
1DE18
  8
01
  6
HIDS
 10
13554.04674051866
 20
-39.37358547989015
 30
0.0
 40
0.5
 50
90.0
 51
180.0
  0
LINE
  5
1DE19
  8
01
  6
HIDS
 10
13578.04674051866
 20
-121.1279050892667
 30
0.0
 11
13554.04674051866
 21
-121.1279050892667
 31
0.0
  0
ARC
  5
1DE1A
  8
01
  6
HIDS
 10
13554.04674051866
 20
-120.6279050892667
 30
0.0
 40
0.5
 50
180.0
 51
270.0
  0
ARC
  5
1DE1B
  8
01
  6
HIDS
 10
13578.04674051866
 20
-120.6279050892667
 30
0.0
 40
0.5
 50
270.0
 51
0.0
  0
LINE
  5
1DE1D
  8
01
 10
13883.54674051866
 20
-32.00074535279953
 30
0.0
 11
13908.54674051866
 21
-32.00074535279953
 31
0.0
  0
LINE
  5
1DE1E
  8
01
 10
13883.54674051866
 20
-44.00074535280248
 30
0.0
 11
13908.54674051866
 21
-44.00074535280248
 31
0.0
  0
LINE
  5
1DE1F
  8
01
 10
13908.54674051866
 20
-137.0081000212828
 30
0.0
 11
13908.54674051866
 21
-100.000745352798
 31
0.0
  0
LINE
  5
1DE20
  8
01
 10
13883.54674051866
 20
-137.0081000212828
 30
0.0
 11
13883.54674051866
 21
-100.000745352798
 31
0.0
  0
LINE
  5
1DE21
  8
01
 10
13883.54674051866
 20
-60.00074535279862
 30
0.0
 11
13883.54674051866
 21
-22.99339054787572
 31
0.0
  0
LINE
  5
1DE22
  8
01
 10
13908.54674051866
 20
-60.00074535279862
 30
0.0
 11
13908.54674051866
 21
-22.99339054787572
 31
0.0
  0
LINE
  5
1DE23
  8
01
 10
13883.54674051866
 20
-128.0007453528028
 30
0.0
 11
13908.54674051866
 21
-128.0007453528028
 31
0.0
  0
LINE
  5
1DE24
  8
01
 10
13883.54674051866
 20
-116.0007453528028
 30
0.0
 11
13908.54674051866
 21
-116.0007453528028
 31
0.0
  0
LINE
  5
1DE25
  8
01
 10
13883.54674051866
 20
-60.00074535279862
 30
0.0
 11
13908.54674051866
 21
-60.00074535279862
 31
0.0
  0
LINE
  5
1DE26
  8
01
 10
13883.54674051866
 20
-100.000745352798
 30
0.0
 11
13908.54674051866
 21
-100.0007453527985
 31
0.0
  0
LINE
  5
1DE27
  8
01
 10
13883.54674051866
 20
-25.00074535280316
 30
0.0
 11
13908.54674051866
 21
-25.00074535280316
 31
0.0
  0
LINE
  5
1DE28
  8
01
 10
13883.54674051866
 20
-135.0007453528035
 30
0.0
 11
13908.54674051866
 21
-135.0007453528035
 31
0.0
  0
LINE
  5
1DE29
  8
01
 10
13883.54674051866
 20
-22.99339054787572
 30
0.0
 11
13908.54674051866
 21
-22.99339054787572
 31
0.0
  0
LINE
  5
1DE2A
  8
01
 10
13892.04674051867
 20
-60.00074535280203
 30
0.0
 11
13892.04673990921
 21
-100.0007453527984
 31
0.0
  0
LINE
  5
1DE2B
  8
01
 10
13900.04674051867
 20
-60.00074535280203
 30
0.0
 11
13900.04673990921
 21
-100.0007453527984
 31
0.0
  0
LINE
  5
1DE2C
  8
01
  6
CONTINUOUS
 10
13892.67667818083
 20
-100.0007453527984
 30
0.0
 11
13892.67174051867
 21
-60.00074535280203
 31
0.0
  0
LINE
  5
1DE2D
  8
01
  6
CONTINUOUS
 10
13899.42174051867
 20
-60.00074535280203
 30
0.0
 11
13899.41680163758
 21
-100.0007453527984
 31
0.0
  0
LINE
  5
1DE2E
  8
01
 10
13883.54674051866
 20
-137.0081000212828
 30
0.0
 11
13908.54674051866
 21
-137.0081000212828
 31
0.0
  0
LINE
  5
1DE2F
  8
01
  6
HIDS
 10
13884.04674051866
 20
-38.87358547989015
 30
0.0
 11
13908.04674051866
 21
-38.87358547989015
 31
0.0
  0
ARC
  5
1DE30
  8
01
  6
HIDS
 10
13908.04674051866
 20
-39.37358547989015
 30
0.0
 40
0.5
 50
0.0
 51
90.0
  0
ARC
  5
1DE31
  8
01
  6
HIDS
 10
13884.04674051866
 20
-39.37358547989015
 30
0.0
 40
0.5
 50
90.0
 51
180.0
  0
LINE
  5
1DE32
  8
01
  6
HIDS
 10
13908.04674051866
 20
-121.1279050892667
 30
0.0
 11
13884.04674051866
 21
-121.1279050892667
 31
0.0
  0
ARC
  5
1DE33
  8
01
  6
HIDS
 10
13884.04674051866
 20
-120.6279050892667
 30
0.0
 40
0.5
 50
180.0
 51
270.0
  0
ARC
  5
1DE34
  8
01
  6
HIDS
 10
13908.04674051866
 20
-120.6279050892667
 30
0.0
 40
0.5
 50
270.0
 51
0.0
  0
LINE
  5
1DE35
  8
01
  6
CONTINUOUS
 10
13578.54674051866
 20
159.4985090214993
 30
0.0
 11
13578.54674051866
 21
123.4985090214992
 31
0.0
  0
ARC
  5
1DE36
  8
01
 10
13578.04674051866
 20
159.4985090214993
 30
0.0
 40
0.5
 50
0.0
 51
90.0
  0
LINE
  5
1DE37
  8
01
  6
CONTINUOUS
 10
13553.54674051866
 20
123.4985090214992
 30
0.0
 11
13553.54674051866
 21
159.4985090214993
 31
0.0
  0
ARC
  5
1DE38
  8
01
  6
HIDS
 10
13554.04674051866
 20
99.49850902150979
 30
0.0
 40
0.5
 50
180.0
 51
270.0
  0
ARC
  5
1DE39
  8
01
 10
13554.04674051866
 20
159.4985090214993
 30
0.0
 40
0.5
 50
90.0
 51
180.0
  0
LINE
  5
1DE3A
  8
01
  6
CENS
 10
13543.54674051866
 20
147.4985090214993
 30
0.0
 11
13588.54674051866
 21
147.4985090214993
 31
0.0
  0
LINE
  5
1DE3B
  8
01
  6
HIDS
 10
13578.04674051866
 20
98.99850902150979
 30
0.0
 11
13554.04674051866
 21
98.99850902150979
 31
0.0
  0
ARC
  5
1DE3C
  8
01
  6
HIDS
 10
13578.04674051866
 20
99.49850902150979
 30
0.0
 40
0.5
 50
270.0
 51
0.0
  0
LINE
  5
1DE3D
  8
01
 10
13553.54674051866
 20
122.7485090215039
 30
0.0
 11
13578.54674051866
 21
122.7485090215039
 31
0.0
  0
CIRCLE
  5
1DE3E
  8
01
  6
HIDS
 10
13566.04674051866
 20
107.4985090214993
 30
0.0
 40
4.25
  0
CIRCLE
  5
1DE3F
  8
01
  6
HIDS
 10
13566.04674051866
 20
107.4985090214993
 30
0.0
 40
6.250000000002956
  0
CIRCLE
  5
1DE40
  8
01
 10
13566.04674051866
 20
107.4985090214993
 30
0.0
 40
6.5
  0
LINE
  5
1DE41
  8
01
 10
13554.04674051866
 20
159.9985090214993
 30
0.0
 11
13578.04674051866
 21
159.9985090214993
 31
0.0
  0
LINE
  5
1DE42
  8
01
 10
13578.04674051866
 20
134.9985090214993
 30
0.0
 11
13554.04674051866
 21
134.9985090214993
 31
0.0
  0
ARC
  5
1DE43
  8
01
 10
13554.04674051866
 20
135.4985090214993
 30
0.0
 40
0.5
 50
180.0
 51
270.0
  0
ARC
  5
1DE44
  8
01
 10
13578.04674051866
 20
135.4985090214993
 30
0.0
 40
0.5
 50
270.0
 51
0.0
  0
LINE
  5
1DE45
  8
01
 10
13563.79674051866
 20
157.971307392582
 30
0.0
 11
13563.79674051866
 21
156.2127215504663
 31
0.0
  0
LINE
  5
1DE46
  8
01
 10
13568.29674051866
 20
157.9713073925816
 30
0.0
 11
13568.29674051866
 21
156.2127215504659
 31
0.0
  0
LINE
  5
1DE47
  8
01
 10
13568.29674051866
 20
157.971307392582
 30
0.0
 11
13563.79674051866
 21
157.971307392582
 31
0.0
  0
LINE
  5
1DE48
  8
01
 10
13570.04674051866
 20
159.7213073925739
 30
0.0
 11
13570.04674051866
 21
159.9985090214993
 31
0.0
  0
LINE
  5
1DE49
  8
01
 10
13562.04674051866
 20
159.7213073925739
 30
0.0
 11
13562.04674051866
 21
159.9985090215002
 31
0.0
  0
LINE
  5
1DE4A
  8
01
 10
13570.04674051866
 20
159.9985090214993
 30
0.0
 11
13562.04674051866
 21
159.9985090215002
 31
0.0
  0
LINE
  5
1DE4B
  8
01
 10
13563.79674051866
 20
137.0257106504166
 30
0.0
 11
13563.79674051866
 21
138.7842964925323
 31
0.0
  0
LINE
  5
1DE4C
  8
01
 10
13568.29674051866
 20
137.0257106504171
 30
0.0
 11
13568.29674051866
 21
138.7842964925328
 31
0.0
  0
LINE
  5
1DE4D
  8
01
 10
13568.29674051866
 20
137.0257106504166
 30
0.0
 11
13563.79674051866
 21
137.0257106504166
 31
0.0
  0
LINE
  5
1DE4E
  8
01
 10
13570.04674051866
 20
135.2757106504248
 30
0.0
 11
13570.04674051866
 21
134.9985090214993
 31
0.0
  0
LINE
  5
1DE4F
  8
01
 10
13562.04674051866
 20
135.2757106504248
 30
0.0
 11
13562.04674051866
 21
134.9985090214984
 31
0.0
  0
LINE
  5
1DE50
  8
01
 10
13570.04674051866
 20
134.9985090214993
 30
0.0
 11
13562.04674051866
 21
134.9985090214984
 31
0.0
  0
ARC
  5
1DE51
  8
01
 10
13566.04674051866
 20
147.4985090214993
 30
0.0
 40
9.0
 50
255.522487814082
 51
284.4775121859299
  0
ARC
  5
1DE52
  8
01
 10
13566.04674051866
 20
147.4985090214993
 30
0.0
 40
9.0
 50
75.52248781407009
 51
104.477512185918
  0
CIRCLE
  5
1DE53
  8
01
 10
13566.04674051866
 20
147.4985090214993
 30
0.0
 40
9.5
  0
LINE
  5
1DE54
  8
01
 10
13578.54674051866
 20
118.0306007840115
 30
0.0
 11
13553.54674051866
 21
118.0306007840115
 31
0.0
  0
CIRCLE
  5
1DE55
  8
01
 10
13566.04674051866
 20
147.4985090214992
 30
0.0
 40
4.25
  0
LINE
  5
1DE56
  8
01
  6
HIDS
 10
13564.04674051866
 20
151.2485090214992
 30
0.0
 11
13564.04674051866
 21
154.9592216711284
 31
0.0
  0
LINE
  5
1DE57
  8
01
  6
HIDS
 10
13568.04674051866
 20
151.2485090214992
 30
0.0
 11
13568.04674051866
 21
154.9592216711281
 31
0.0
  0
LINE
  5
1DE58
  8
01
  6
HIDS
 10
13567.69674051866
 20
154.9592216711281
 30
0.0
 11
13567.69674051866
 21
151.4151402270123
 31
0.0
  0
LINE
  5
1DE59
  8
01
  6
HIDS
 10
13564.39674051866
 20
151.4151402270126
 30
0.0
 11
13564.39674051866
 21
154.9592216711281
 31
0.0
  0
LINE
  5
1DE5A
  8
01
  6
HIDS
 10
13564.04674051866
 20
154.9592216711284
 30
0.0
 11
13563.42264501911
 21
155.583317170688
 31
0.0
  0
LINE
  5
1DE5B
  8
01
  6
HIDS
 10
13568.04674051866
 20
154.9592216711281
 30
0.0
 11
13568.67083601822
 21
155.5833171706878
 31
0.0
  0
LINE
  5
1DE5C
  8
01
  6
HIDS
 10
13568.67083601822
 20
155.5833171706878
 30
0.0
 11
13563.42264501911
 21
155.583317170688
 31
0.0
  0
LINE
  5
1DE5D
  8
01
  6
HIDS
 10
13568.04674051866
 20
154.9592216711281
 30
0.0
 11
13564.04674051866
 21
154.9592216711284
 31
0.0
  0
LINE
  5
1DE5E
  8
01
  6
HIDS
 10
13564.04674051866
 20
143.7485090214994
 30
0.0
 11
13564.04674051866
 21
140.0377963718703
 31
0.0
  0
LINE
  5
1DE5F
  8
01
  6
HIDS
 10
13568.04674051866
 20
143.7485090214992
 30
0.0
 11
13568.04674051866
 21
140.0377963718703
 31
0.0
  0
LINE
  5
1DE60
  8
01
  6
HIDS
 10
13567.69674051866
 20
140.0377963718703
 30
0.0
 11
13567.69674051866
 21
143.5818778159861
 31
0.0
  0
LINE
  5
1DE61
  8
01
  6
HIDS
 10
13564.39674051866
 20
143.5818778159861
 30
0.0
 11
13564.39674051866
 21
140.0377963718703
 31
0.0
  0
LINE
  5
1DE62
  8
01
  6
HIDS
 10
13564.04674051866
 20
140.0377963718703
 30
0.0
 11
13563.42264501911
 21
139.4137008723106
 31
0.0
  0
LINE
  5
1DE63
  8
01
  6
HIDS
 10
13568.04674051866
 20
140.0377963718703
 30
0.0
 11
13568.67083601822
 21
139.4137008723106
 31
0.0
  0
LINE
  5
1DE64
  8
01
  6
HIDS
 10
13568.67083601822
 20
139.4137008723106
 30
0.0
 11
13563.4226450191
 21
139.4137008723106
 31
0.0
  0
LINE
  5
1DE65
  8
01
  6
HIDS
 10
13568.04674051866
 20
140.0377963718703
 30
0.0
 11
13564.04674051866
 21
140.0377963718703
 31
0.0
  0
CIRCLE
  5
1DE66
  8
01
 10
13566.04674051866
 20
147.4985090214992
 30
0.0
 40
8.499999999999886
  0
ARC
  5
1DE67
  8
01
  6
HIDS
 10
13563.99674051866
 20
157.1828235965502
 30
0.0
 40
0.4
 50
0.0
 51
44.99999999992804
  0
ARC
  5
1DE68
  8
01
  6
HIDS
 10
13568.09674051866
 20
157.1828235965502
 30
0.0
 40
0.4
 50
135.000000000072
 51
180.0
  0
LINE
  5
1DE69
  8
01
  6
HIDS
 10
13562.04674051866
 20
159.9985090214998
 30
0.0
 11
13570.04674051866
 21
159.9985090214998
 31
0.0
  0
LINE
  5
1DE6A
  8
01
  6
HIDS
 10
13570.04674051866
 20
159.6985090214996
 30
0.0
 11
13562.04674051866
 21
159.6985090214996
 31
0.0
  0
LINE
  5
1DE6B
  8
01
  6
HIDS
 10
13562.04674051866
 20
159.6985090214996
 30
0.0
 11
13562.04674051866
 21
159.9985090214998
 31
0.0
  0
LINE
  5
1DE6C
  8
01
  6
HIDS
 10
13570.04674051866
 20
159.9985090214998
 30
0.0
 11
13570.04674051866
 21
159.6985090214996
 31
0.0
  0
LINE
  5
1DE6D
  8
01
  6
HIDS
 10
13564.39674051866
 20
151.9985090214998
 30
0.0
 11
13564.39674051866
 21
157.1828235965502
 31
0.0
  0
LINE
  5
1DE6E
  8
01
  6
HIDS
 10
13567.69674051866
 20
151.9985090214998
 30
0.0
 11
13567.69674051866
 21
157.1828235965502
 31
0.0
  0
LINE
  5
1DE6F
  8
01
  6
HIDS
 10
13564.04674051866
 20
155.7828235965501
 30
0.0
 11
13568.04674051866
 21
155.7828235965501
 31
0.0
  0
LINE
  5
1DE70
  8
01
  6
HIDS
 10
13568.04674051866
 20
155.7828235965501
 30
0.0
 11
13567.69674051866
 21
157.1828235965502
 31
0.0
  0
LINE
  5
1DE71
  8
01
  6
HIDS
 10
13564.04674051866
 20
155.7828235965501
 30
0.0
 11
13564.39674051866
 21
157.1828235965502
 31
0.0
  0
LINE
  5
1DE72
  8
01
  6
HIDS
 10
13567.81389780619
 20
157.4656663090248
 30
0.0
 11
13570.04674051866
 21
159.6985090214996
 31
0.0
  0
LINE
  5
1DE73
  8
01
  6
HIDS
 10
13564.27958323114
 20
157.4656663090248
 30
0.0
 11
13562.04674051866
 21
159.6985090214996
 31
0.0
  0
LINE
  5
1DE74
  8
01
  6
HIDS
 10
13567.73266863021
 20
157.3485090214992
 30
0.0
 11
13564.36081240711
 21
157.3485090214992
 31
0.0
  0
LINE
  5
1DE75
  8
01
  6
HIDS
 10
13568.04674051866
 20
152.3485090214997
 30
0.0
 11
13568.04674051866
 21
155.7828235965501
 31
0.0
  0
LINE
  5
1DE76
  8
01
  6
HIDS
 10
13564.04674051866
 20
155.7828235965501
 30
0.0
 11
13564.04674051866
 21
152.3485090214997
 31
0.0
  0
LINE
  5
1DE77
  8
01
  6
HIDS
 10
13564.04674051866
 20
152.3485090214997
 30
0.0
 11
13564.39674051866
 21
151.9985090214998
 31
0.0
  0
LINE
  5
1DE78
  8
01
  6
HIDS
 10
13564.39674051866
 20
151.9985090214998
 30
0.0
 11
13567.69674051866
 21
151.9985090214998
 31
0.0
  0
LINE
  5
1DE79
  8
01
  6
HIDS
 10
13567.69674051866
 20
151.9985090214998
 30
0.0
 11
13568.04674051866
 21
152.3485090214997
 31
0.0
  0
LINE
  5
1DE7A
  8
01
  6
HIDS
 10
13568.04674051866
 20
152.3485090214997
 30
0.0
 11
13564.04674051866
 21
152.3485090214997
 31
0.0
  0
ARC
  5
1DE7B
  8
01
  6
HIDS
 10
13563.99674051866
 20
137.8141944464485
 30
0.0
 40
0.4
 50
315.000000000072
 51
0.0
  0
ARC
  5
1DE7C
  8
01
  6
HIDS
 10
13568.09674051866
 20
137.8141944464485
 30
0.0
 40
0.4
 50
180.0
 51
224.999999999928
  0
LINE
  5
1DE7D
  8
01
  6
HIDS
 10
13562.04674051866
 20
134.9985090214989
 30
0.0
 11
13570.04674051866
 21
134.9985090214989
 31
0.0
  0
LINE
  5
1DE7E
  8
01
  6
HIDS
 10
13570.04674051866
 20
135.2985090214991
 30
0.0
 11
13562.04674051866
 21
135.2985090214991
 31
0.0
  0
LINE
  5
1DE7F
  8
01
  6
HIDS
 10
13562.04674051866
 20
135.2985090214991
 30
0.0
 11
13562.04674051866
 21
134.9985090214989
 31
0.0
  0
LINE
  5
1DE80
  8
01
  6
HIDS
 10
13570.04674051866
 20
134.9985090214989
 30
0.0
 11
13570.04674051866
 21
135.2985090214991
 31
0.0
  0
LINE
  5
1DE81
  8
01
  6
HIDS
 10
13564.39674051866
 20
142.9985090214989
 30
0.0
 11
13564.39674051866
 21
137.8141944464485
 31
0.0
  0
LINE
  5
1DE82
  8
01
  6
HIDS
 10
13567.69674051866
 20
142.9985090214989
 30
0.0
 11
13567.69674051866
 21
137.8141944464485
 31
0.0
  0
LINE
  5
1DE83
  8
01
  6
HIDS
 10
13564.04674051866
 20
139.2141944464486
 30
0.0
 11
13568.04674051866
 21
139.2141944464486
 31
0.0
  0
LINE
  5
1DE84
  8
01
  6
HIDS
 10
13568.04674051866
 20
139.2141944464486
 30
0.0
 11
13567.69674051866
 21
137.8141944464485
 31
0.0
  0
LINE
  5
1DE85
  8
01
  6
HIDS
 10
13564.04674051866
 20
139.2141944464486
 30
0.0
 11
13564.39674051866
 21
137.8141944464485
 31
0.0
  0
LINE
  5
1DE86
  8
01
  6
HIDS
 10
13567.81389780619
 20
137.5313517339739
 30
0.0
 11
13570.04674051866
 21
135.2985090214991
 31
0.0
  0
LINE
  5
1DE87
  8
01
  6
HIDS
 10
13564.27958323114
 20
137.5313517339739
 30
0.0
 11
13562.04674051866
 21
135.2985090214991
 31
0.0
  0
LINE
  5
1DE88
  8
01
  6
HIDS
 10
13567.73266863021
 20
137.6485090214994
 30
0.0
 11
13564.36081240711
 21
137.6485090214994
 31
0.0
  0
LINE
  5
1DE89
  8
01
  6
HIDS
 10
13568.04674051866
 20
142.648509021499
 30
0.0
 11
13568.04674051866
 21
139.2141944464486
 31
0.0
  0
LINE
  5
1DE8A
  8
01
  6
HIDS
 10
13564.04674051866
 20
139.2141944464486
 30
0.0
 11
13564.04674051866
 21
142.648509021499
 31
0.0
  0
LINE
  5
1DE8B
  8
01
  6
HIDS
 10
13564.04674051866
 20
142.648509021499
 30
0.0
 11
13564.39674051866
 21
142.9985090214989
 31
0.0
  0
LINE
  5
1DE8C
  8
01
  6
HIDS
 10
13564.39674051866
 20
142.9985090214989
 30
0.0
 11
13567.69674051866
 21
142.9985090214989
 31
0.0
  0
LINE
  5
1DE8D
  8
01
  6
HIDS
 10
13567.69674051866
 20
142.9985090214989
 30
0.0
 11
13568.04674051866
 21
142.648509021499
 31
0.0
  0
LINE
  5
1DE8E
  8
01
  6
HIDS
 10
13568.04674051866
 20
142.648509021499
 30
0.0
 11
13564.04674051866
 21
142.648509021499
 31
0.0
  0
LINE
  5
1DE8F
  8
01
  6
CENS
 10
13571.98643748063
 20
141.5588120595323
 30
0.0
 11
13560.1070435567
 21
153.4382059834659
 31
0.0
  0
LINE
  5
1DE90
  8
01
  6
CENS
 10
13560.1070435567
 20
141.5588120595323
 30
0.0
 11
13571.98643748063
 21
153.4382059834663
 31
0.0
  0
CIRCLE
  5
1DE91
  8
01
  6
HIDS
 10
13566.04674051866
 20
147.4985090214989
 30
0.0
 40
7.0
  0
ARC
  5
1DE92
  8
01
  6
HIDS
 10
13566.04674051866
 20
151.1047536055505
 30
0.0
 40
1.75
 50
224.9999999999737
 51
314.9999999999526
  0
ARC
  5
1DE93
  8
01
  6
HIDS
 10
13566.04674051866
 20
143.8922644374481
 30
0.0
 40
1.75
 50
45.00000000004738
 51
135.0000000000263
  0
ARC
  5
1DE94
  8
01
  6
HIDS
 10
13562.44049593461
 20
147.4985090214993
 30
0.0
 40
1.75
 50
315.0000000000263
 51
44.99999999997369
  0
ARC
  5
1DE95
  8
01
  6
HIDS
 10
13569.65298510272
 20
147.4985090214993
 30
0.0
 40
1.75
 50
134.9999999999526
 51
225.0000000000474
  0
LINE
  5
1DE96
  8
01
  6
HIDS
 10
13562.72333864709
 20
149.6905400431776
 30
0.0
 11
13563.85470949699
 21
150.8219108930759
 31
0.0
  0
LINE
  5
1DE97
  8
01
  6
HIDS
 10
13567.28417738574
 20
149.8673167384743
 30
0.0
 11
13568.23877154034
 21
150.8219108930759
 31
0.0
  0
LINE
  5
1DE98
  8
01
  6
HIDS
 10
13568.23877154034
 20
150.8219108930759
 30
0.0
 11
13569.37014239024
 21
149.6905400431772
 31
0.0
  0
LINE
  5
1DE99
  8
01
  6
HIDS
 10
13569.37014239024
 20
145.306477999821
 30
0.0
 11
13568.23877154034
 21
144.1751071499227
 31
0.0
  0
LINE
  5
1DE9A
  8
01
  6
HIDS
 10
13568.23877154034
 20
144.1751071499227
 30
0.0
 11
13567.28417738574
 21
145.1297013045244
 31
0.0
  0
LINE
  5
1DE9B
  8
01
  6
HIDS
 10
13563.85470949699
 20
144.1751071499223
 30
0.0
 11
13562.72333864709
 21
145.306477999821
 31
0.0
  0
LINE
  5
1DE9C
  8
01
  6
HIDS
 10
13562.72333864709
 20
145.306477999821
 30
0.0
 11
13563.67793280169
 21
146.2610721544227
 31
0.0
  0
LINE
  5
1DE9D
  8
01
  6
HIDS
 10
13563.67793280169
 20
148.735945888576
 30
0.0
 11
13562.72333864709
 21
149.6905400431776
 31
0.0
  0
LINE
  5
1DE9E
  8
01
  6
HIDS
 10
13563.85470949699
 20
150.8219108930759
 30
0.0
 11
13564.80930365159
 21
149.8673167384743
 31
0.0
  0
LINE
  5
1DE9F
  8
01
  6
HIDS
 10
13564.80930365159
 20
145.1297013045244
 30
0.0
 11
13563.85470949699
 21
144.1751071499223
 31
0.0
  0
LINE
  5
1DEA0
  8
01
  6
HIDS
 10
13569.37014239024
 20
149.6905400431772
 30
0.0
 11
13568.41554823564
 21
148.735945888576
 31
0.0
  0
LINE
  5
1DEA1
  8
01
  6
HIDS
 10
13568.41554823564
 20
146.2610721544227
 30
0.0
 11
13569.37014239024
 21
145.306477999821
 31
0.0
  0
CIRCLE
  5
1DEA2
  8
01
  6
HIDS
 10
13566.04674051866
 20
147.4985090214986
 30
0.0
 40
4.0
  0
CIRCLE
  5
1DEA3
  8
01
  6
HIDS
 10
13566.04674051866
 20
147.4985090214993
 30
0.0
 40
3.375
  0
LINE
  5
1DEA4
  8
01
 10
13553.54674051866
 20
99.49850902150979
 30
0.0
 11
13553.54674051866
 21
123.4985090214992
 31
0.0
  0
LINE
  5
1DEA5
  8
01
 10
13578.54674051866
 20
123.4985090214993
 30
0.0
 11
13578.54674051866
 21
99.49850902150979
 31
0.0
  0
LINE
  5
1DEA6
  8
01
  6
CONTINUOUS
 10
13908.54674051866
 20
159.4985090214974
 30
0.0
 11
13908.54674051866
 21
123.4985090214973
 31
0.0
  0
ARC
  5
1DEA7
  8
01
 10
13908.04674051866
 20
159.4985090214974
 30
0.0
 40
0.5
 50
0.0
 51
90.0
  0
LINE
  5
1DEA8
  8
01
  6
CONTINUOUS
 10
13883.54674051866
 20
123.4985090214973
 30
0.0
 11
13883.54674051866
 21
159.4985090214974
 31
0.0
  0
ARC
  5
1DEA9
  8
01
  6
HIDS
 10
13884.04674051866
 20
99.49850902150786
 30
0.0
 40
0.5
 50
180.0
 51
270.0
  0
ARC
  5
1DEAA
  8
01
 10
13884.04674051866
 20
159.4985090214974
 30
0.0
 40
0.5
 50
90.0
 51
180.0
  0
LINE
  5
1DEAB
  8
01
  6
CENS
 10
13873.54674051866
 20
147.4985090214974
 30
0.0
 11
13918.54674051866
 21
147.4985090214974
 31
0.0
  0
LINE
  5
1DEAC
  8
01
  6
HIDS
 10
13908.04674051866
 20
98.99850902150786
 30
0.0
 11
13884.04674051866
 21
98.99850902150786
 31
0.0
  0
ARC
  5
1DEAD
  8
01
  6
HIDS
 10
13908.04674051866
 20
99.49850902150786
 30
0.0
 40
0.5
 50
270.0
 51
0.0
  0
LINE
  5
1DEAE
  8
01
 10
13883.54674051866
 20
122.7485090215019
 30
0.0
 11
13908.54674051866
 21
122.7485090215019
 31
0.0
  0
CIRCLE
  5
1DEAF
  8
01
  6
HIDS
 10
13896.04674051866
 20
107.4985090214974
 30
0.0
 40
4.25
  0
CIRCLE
  5
1DEB0
  8
01
  6
HIDS
 10
13896.04674051866
 20
107.4985090214974
 30
0.0
 40
6.250000000002956
  0
CIRCLE
  5
1DEB1
  8
01
 10
13896.04674051866
 20
107.4985090214974
 30
0.0
 40
6.5
  0
LINE
  5
1DEB2
  8
01
 10
13884.04674051866
 20
159.9985090214974
 30
0.0
 11
13908.04674051866
 21
159.9985090214974
 31
0.0
  0
LINE
  5
1DEB3
  8
01
 10
13908.04674051866
 20
134.9985090214974
 30
0.0
 11
13884.04674051866
 21
134.9985090214974
 31
0.0
  0
ARC
  5
1DEB4
  8
01
 10
13884.04674051866
 20
135.4985090214974
 30
0.0
 40
0.5
 50
180.0
 51
270.0
  0
ARC
  5
1DEB5
  8
01
 10
13908.04674051866
 20
135.4985090214974
 30
0.0
 40
0.5
 50
270.0
 51
0.0
  0
LINE
  5
1DEB6
  8
01
 10
13893.79674051866
 20
157.9713073925801
 30
0.0
 11
13893.79674051866
 21
156.2127215504644
 31
0.0
  0
LINE
  5
1DEB7
  8
01
 10
13898.29674051866
 20
157.9713073925797
 30
0.0
 11
13898.29674051866
 21
156.2127215504639
 31
0.0
  0
LINE
  5
1DEB8
  8
01
 10
13898.29674051866
 20
157.9713073925801
 30
0.0
 11
13893.79674051866
 21
157.9713073925801
 31
0.0
  0
LINE
  5
1DEB9
  8
01
 10
13900.04674051866
 20
159.7213073925719
 30
0.0
 11
13900.04674051866
 21
159.9985090214974
 31
0.0
  0
LINE
  5
1DEBA
  8
01
 10
13892.04674051866
 20
159.7213073925719
 30
0.0
 11
13892.04674051866
 21
159.9985090214983
 31
0.0
  0
LINE
  5
1DEBB
  8
01
 10
13900.04674051866
 20
159.9985090214974
 30
0.0
 11
13892.04674051866
 21
159.9985090214983
 31
0.0
  0
LINE
  5
1DEBC
  8
01
 10
13893.79674051866
 20
137.0257106504147
 30
0.0
 11
13893.79674051866
 21
138.7842964925304
 31
0.0
  0
LINE
  5
1DEBD
  8
01
 10
13898.29674051866
 20
137.0257106504151
 30
0.0
 11
13898.29674051866
 21
138.7842964925309
 31
0.0
  0
LINE
  5
1DEBE
  8
01
 10
13898.29674051866
 20
137.0257106504147
 30
0.0
 11
13893.79674051866
 21
137.0257106504147
 31
0.0
  0
LINE
  5
1DEBF
  8
01
 10
13900.04674051866
 20
135.2757106504229
 30
0.0
 11
13900.04674051866
 21
134.9985090214974
 31
0.0
  0
LINE
  5
1DEC0
  8
01
 10
13892.04674051866
 20
135.2757106504229
 30
0.0
 11
13892.04674051866
 21
134.9985090214965
 31
0.0
  0
LINE
  5
1DEC1
  8
01
 10
13900.04674051866
 20
134.9985090214974
 30
0.0
 11
13892.04674051866
 21
134.9985090214965
 31
0.0
  0
ARC
  5
1DEC2
  8
01
 10
13896.04674051866
 20
147.4985090214974
 30
0.0
 40
9.0
 50
255.522487814082
 51
284.4775121859299
  0
ARC
  5
1DEC3
  8
01
 10
13896.04674051866
 20
147.4985090214974
 30
0.0
 40
9.0
 50
75.52248781407009
 51
104.477512185918
  0
CIRCLE
  5
1DEC4
  8
01
 10
13896.04674051866
 20
147.4985090214974
 30
0.0
 40
9.5
  0
LINE
  5
1DEC5
  8
01
 10
13908.54674051866
 20
118.0306007840096
 30
0.0
 11
13883.54674051866
 21
118.0306007840096
 31
0.0
  0
CIRCLE
  5
1DEC6
  8
01
 10
13896.04674051866
 20
147.4985090214973
 30
0.0
 40
4.25
  0
LINE
  5
1DEC7
  8
01
  6
HIDS
 10
13894.04674051866
 20
151.2485090214973
 30
0.0
 11
13894.04674051866
 21
154.9592216711264
 31
0.0
  0
LINE
  5
1DEC8
  8
01
  6
HIDS
 10
13898.04674051866
 20
151.2485090214973
 30
0.0
 11
13898.04674051866
 21
154.9592216711262
 31
0.0
  0
LINE
  5
1DEC9
  8
01
  6
HIDS
 10
13897.69674051866
 20
154.9592216711262
 30
0.0
 11
13897.69674051866
 21
151.4151402270104
 31
0.0
  0
LINE
  5
1DECA
  8
01
  6
HIDS
 10
13894.39674051866
 20
151.4151402270106
 30
0.0
 11
13894.39674051866
 21
154.9592216711262
 31
0.0
  0
LINE
  5
1DECB
  8
01
  6
HIDS
 10
13894.04674051866
 20
154.9592216711264
 30
0.0
 11
13893.42264501911
 21
155.5833171706861
 31
0.0
  0
LINE
  5
1DECC
  8
01
  6
HIDS
 10
13898.04674051866
 20
154.9592216711262
 30
0.0
 11
13898.67083601822
 21
155.5833171706859
 31
0.0
  0
LINE
  5
1DECD
  8
01
  6
HIDS
 10
13898.67083601822
 20
155.5833171706859
 30
0.0
 11
13893.42264501911
 21
155.5833171706861
 31
0.0
  0
LINE
  5
1DECE
  8
01
  6
HIDS
 10
13898.04674051866
 20
154.9592216711262
 30
0.0
 11
13894.04674051866
 21
154.9592216711264
 31
0.0
  0
LINE
  5
1DECF
  8
01
  6
HIDS
 10
13894.04674051866
 20
143.7485090214975
 30
0.0
 11
13894.04674051866
 21
140.0377963718684
 31
0.0
  0
LINE
  5
1DED0
  8
01
  6
HIDS
 10
13898.04674051866
 20
143.7485090214973
 30
0.0
 11
13898.04674051866
 21
140.0377963718684
 31
0.0
  0
LINE
  5
1DED1
  8
01
  6
HIDS
 10
13897.69674051866
 20
140.0377963718684
 30
0.0
 11
13897.69674051866
 21
143.5818778159842
 31
0.0
  0
LINE
  5
1DED2
  8
01
  6
HIDS
 10
13894.39674051866
 20
143.5818778159842
 30
0.0
 11
13894.39674051866
 21
140.0377963718684
 31
0.0
  0
LINE
  5
1DED3
  8
01
  6
HIDS
 10
13894.04674051866
 20
140.0377963718684
 30
0.0
 11
13893.4226450191
 21
139.4137008723087
 31
0.0
  0
LINE
  5
1DED4
  8
01
  6
HIDS
 10
13898.04674051866
 20
140.0377963718684
 30
0.0
 11
13898.67083601822
 21
139.4137008723087
 31
0.0
  0
LINE
  5
1DED5
  8
01
  6
HIDS
 10
13898.67083601822
 20
139.4137008723087
 30
0.0
 11
13893.4226450191
 21
139.4137008723087
 31
0.0
  0
LINE
  5
1DED6
  8
01
  6
HIDS
 10
13898.04674051866
 20
140.0377963718684
 30
0.0
 11
13894.04674051866
 21
140.0377963718684
 31
0.0
  0
CIRCLE
  5
1DED7
  8
01
 10
13896.04674051866
 20
147.4985090214973
 30
0.0
 40
8.499999999999886
  0
ARC
  5
1DED8
  8
01
  6
HIDS
 10
13893.99674051866
 20
157.1828235965482
 30
0.0
 40
0.4
 50
0.0
 51
44.99999999992804
  0
ARC
  5
1DED9
  8
01
  6
HIDS
 10
13898.09674051866
 20
157.1828235965482
 30
0.0
 40
0.4
 50
135.000000000072
 51
180.0
  0
LINE
  5
1DEDA
  8
01
  6
HIDS
 10
13892.04674051866
 20
159.9985090214979
 30
0.0
 11
13900.04674051866
 21
159.9985090214979
 31
0.0
  0
LINE
  5
1DEDB
  8
01
  6
HIDS
 10
13900.04674051866
 20
159.6985090214977
 30
0.0
 11
13892.04674051866
 21
159.6985090214977
 31
0.0
  0
LINE
  5
1DEDC
  8
01
  6
HIDS
 10
13892.04674051866
 20
159.6985090214977
 30
0.0
 11
13892.04674051866
 21
159.9985090214979
 31
0.0
  0
LINE
  5
1DEDD
  8
01
  6
HIDS
 10
13900.04674051866
 20
159.9985090214979
 30
0.0
 11
13900.04674051866
 21
159.6985090214977
 31
0.0
  0
LINE
  5
1DEDE
  8
01
  6
HIDS
 10
13894.39674051866
 20
151.9985090214979
 30
0.0
 11
13894.39674051866
 21
157.1828235965482
 31
0.0
  0
LINE
  5
1DEDF
  8
01
  6
HIDS
 10
13897.69674051866
 20
151.9985090214979
 30
0.0
 11
13897.69674051866
 21
157.1828235965482
 31
0.0
  0
LINE
  5
1DEE0
  8
01
  6
HIDS
 10
13894.04674051866
 20
155.7828235965482
 30
0.0
 11
13898.04674051866
 21
155.7828235965482
 31
0.0
  0
LINE
  5
1DEE1
  8
01
  6
HIDS
 10
13898.04674051866
 20
155.7828235965482
 30
0.0
 11
13897.69674051866
 21
157.1828235965482
 31
0.0
  0
LINE
  5
1DEE2
  8
01
  6
HIDS
 10
13894.04674051866
 20
155.7828235965482
 30
0.0
 11
13894.39674051866
 21
157.1828235965482
 31
0.0
  0
LINE
  5
1DEE3
  8
01
  6
HIDS
 10
13897.81389780619
 20
157.4656663090228
 30
0.0
 11
13900.04674051866
 21
159.6985090214977
 31
0.0
  0
LINE
  5
1DEE4
  8
01
  6
HIDS
 10
13894.27958323114
 20
157.4656663090228
 30
0.0
 11
13892.04674051866
 21
159.6985090214977
 31
0.0
  0
LINE
  5
1DEE5
  8
01
  6
HIDS
 10
13897.73266863021
 20
157.3485090214973
 30
0.0
 11
13894.36081240711
 21
157.3485090214973
 31
0.0
  0
LINE
  5
1DEE6
  8
01
  6
HIDS
 10
13898.04674051866
 20
152.3485090214978
 30
0.0
 11
13898.04674051866
 21
155.7828235965482
 31
0.0
  0
LINE
  5
1DEE7
  8
01
  6
HIDS
 10
13894.04674051866
 20
155.7828235965482
 30
0.0
 11
13894.04674051866
 21
152.3485090214978
 31
0.0
  0
LINE
  5
1DEE8
  8
01
  6
HIDS
 10
13894.04674051866
 20
152.3485090214978
 30
0.0
 11
13894.39674051866
 21
151.9985090214979
 31
0.0
  0
LINE
  5
1DEE9
  8
01
  6
HIDS
 10
13894.39674051866
 20
151.9985090214979
 30
0.0
 11
13897.69674051866
 21
151.9985090214979
 31
0.0
  0
LINE
  5
1DEEA
  8
01
  6
HIDS
 10
13897.69674051866
 20
151.9985090214979
 30
0.0
 11
13898.04674051866
 21
152.3485090214978
 31
0.0
  0
LINE
  5
1DEEB
  8
01
  6
HIDS
 10
13898.04674051866
 20
152.3485090214978
 30
0.0
 11
13894.04674051866
 21
152.3485090214978
 31
0.0
  0
ARC
  5
1DEEC
  8
01
  6
HIDS
 10
13893.99674051866
 20
137.8141944464465
 30
0.0
 40
0.4
 50
315.000000000072
 51
0.0
  0
ARC
  5
1DEED
  8
01
  6
HIDS
 10
13898.09674051866
 20
137.8141944464465
 30
0.0
 40
0.4
 50
180.0
 51
224.999999999928
  0
LINE
  5
1DEEE
  8
01
  6
HIDS
 10
13892.04674051866
 20
134.9985090214969
 30
0.0
 11
13900.04674051866
 21
134.9985090214969
 31
0.0
  0
LINE
  5
1DEEF
  8
01
  6
HIDS
 10
13900.04674051866
 20
135.2985090214971
 30
0.0
 11
13892.04674051866
 21
135.2985090214971
 31
0.0
  0
LINE
  5
1DEF0
  8
01
  6
HIDS
 10
13892.04674051866
 20
135.2985090214971
 30
0.0
 11
13892.04674051866
 21
134.9985090214969
 31
0.0
  0
LINE
  5
1DEF1
  8
01
  6
HIDS
 10
13900.04674051866
 20
134.9985090214969
 30
0.0
 11
13900.04674051866
 21
135.2985090214971
 31
0.0
  0
LINE
  5
1DEF2
  8
01
  6
HIDS
 10
13894.39674051866
 20
142.9985090214969
 30
0.0
 11
13894.39674051866
 21
137.8141944464465
 31
0.0
  0
LINE
  5
1DEF3
  8
01
  6
HIDS
 10
13897.69674051866
 20
142.9985090214969
 30
0.0
 11
13897.69674051866
 21
137.8141944464465
 31
0.0
  0
LINE
  5
1DEF4
  8
01
  6
HIDS
 10
13894.04674051866
 20
139.2141944464466
 30
0.0
 11
13898.04674051866
 21
139.2141944464466
 31
0.0
  0
LINE
  5
1DEF5
  8
01
  6
HIDS
 10
13898.04674051866
 20
139.2141944464466
 30
0.0
 11
13897.69674051866
 21
137.8141944464465
 31
0.0
  0
LINE
  5
1DEF6
  8
01
  6
HIDS
 10
13894.04674051866
 20
139.2141944464466
 30
0.0
 11
13894.39674051866
 21
137.8141944464465
 31
0.0
  0
LINE
  5
1DEF7
  8
01
  6
HIDS
 10
13897.81389780619
 20
137.531351733972
 30
0.0
 11
13900.04674051866
 21
135.2985090214971
 31
0.0
  0
LINE
  5
1DEF8
  8
01
  6
HIDS
 10
13894.27958323114
 20
137.531351733972
 30
0.0
 11
13892.04674051866
 21
135.2985090214971
 31
0.0
  0
LINE
  5
1DEF9
  8
01
  6
HIDS
 10
13897.73266863021
 20
137.6485090214975
 30
0.0
 11
13894.36081240711
 21
137.6485090214975
 31
0.0
  0
LINE
  5
1DEFA
  8
01
  6
HIDS
 10
13898.04674051866
 20
142.648509021497
 30
0.0
 11
13898.04674051866
 21
139.2141944464466
 31
0.0
  0
LINE
  5
1DEFB
  8
01
  6
HIDS
 10
13894.04674051866
 20
139.2141944464466
 30
0.0
 11
13894.04674051866
 21
142.648509021497
 31
0.0
  0
LINE
  5
1DEFC
  8
01
  6
HIDS
 10
13894.04674051866
 20
142.648509021497
 30
0.0
 11
13894.39674051866
 21
142.9985090214969
 31
0.0
  0
LINE
  5
1DEFD
  8
01
  6
HIDS
 10
13894.39674051866
 20
142.9985090214969
 30
0.0
 11
13897.69674051866
 21
142.9985090214969
 31
0.0
  0
LINE
  5
1DEFE
  8
01
  6
HIDS
 10
13897.69674051866
 20
142.9985090214969
 30
0.0
 11
13898.04674051866
 21
142.648509021497
 31
0.0
  0
LINE
  5
1DEFF
  8
01
  6
HIDS
 10
13898.04674051866
 20
142.648509021497
 30
0.0
 11
13894.04674051866
 21
142.648509021497
 31
0.0
  0
LINE
  5
1DF00
  8
01
  6
CENS
 10
13901.98643748063
 20
141.5588120595304
 30
0.0
 11
13890.1070435567
 21
153.4382059834639
 31
0.0
  0
LINE
  5
1DF01
  8
01
  6
CENS
 10
13890.1070435567
 20
141.5588120595304
 30
0.0
 11
13901.98643748063
 21
153.4382059834644
 31
0.0
  0
CIRCLE
  5
1DF02
  8
01
  6
HIDS
 10
13896.04674051866
 20
147.4985090214969
 30
0.0
 40
7.0
  0
ARC
  5
1DF03
  8
01
  6
HIDS
 10
13896.04674051866
 20
151.1047536055486
 30
0.0
 40
1.75
 50
225.0000000000474
 51
315.0000000000263
  0
ARC
  5
1DF04
  8
01
  6
HIDS
 10
13896.04674051866
 20
143.8922644374462
 30
0.0
 40
1.75
 50
44.99999999997369
 51
134.9999999999526
  0
ARC
  5
1DF05
  8
01
  6
HIDS
 10
13892.44049593461
 20
147.4985090214974
 30
0.0
 40
1.75
 50
314.9999999999526
 51
45.00000000004738
  0
ARC
  5
1DF06
  8
01
  6
HIDS
 10
13899.65298510272
 20
147.4985090214974
 30
0.0
 40
1.75
 50
135.0000000000263
 51
224.9999999999737
  0
LINE
  5
1DF07
  8
01
  6
HIDS
 10
13892.72333864709
 20
149.6905400431757
 30
0.0
 11
13893.85470949699
 21
150.821910893074
 31
0.0
  0
LINE
  5
1DF08
  8
01
  6
HIDS
 10
13897.28417738574
 20
149.8673167384724
 30
0.0
 11
13898.23877154034
 21
150.821910893074
 31
0.0
  0
LINE
  5
1DF09
  8
01
  6
HIDS
 10
13898.23877154034
 20
150.821910893074
 30
0.0
 11
13899.37014239024
 21
149.6905400431752
 31
0.0
  0
LINE
  5
1DF0A
  8
01
  6
HIDS
 10
13899.37014239024
 20
145.3064779998191
 30
0.0
 11
13898.23877154034
 21
144.1751071499208
 31
0.0
  0
LINE
  5
1DF0B
  8
01
  6
HIDS
 10
13898.23877154034
 20
144.1751071499208
 30
0.0
 11
13897.28417738574
 21
145.1297013045224
 31
0.0
  0
LINE
  5
1DF0C
  8
01
  6
HIDS
 10
13893.85470949699
 20
144.1751071499203
 30
0.0
 11
13892.72333864709
 21
145.3064779998191
 31
0.0
  0
LINE
  5
1DF0D
  8
01
  6
HIDS
 10
13892.72333864709
 20
145.3064779998191
 30
0.0
 11
13893.67793280169
 21
146.2610721544207
 31
0.0
  0
LINE
  5
1DF0E
  8
01
  6
HIDS
 10
13893.67793280169
 20
148.7359458885741
 30
0.0
 11
13892.72333864709
 21
149.6905400431757
 31
0.0
  0
LINE
  5
1DF0F
  8
01
  6
HIDS
 10
13893.85470949699
 20
150.821910893074
 30
0.0
 11
13894.80930365159
 21
149.8673167384724
 31
0.0
  0
LINE
  5
1DF10
  8
01
  6
HIDS
 10
13894.80930365159
 20
145.1297013045224
 30
0.0
 11
13893.85470949699
 21
144.1751071499203
 31
0.0
  0
LINE
  5
1DF11
  8
01
  6
HIDS
 10
13899.37014239024
 20
149.6905400431752
 30
0.0
 11
13898.41554823564
 21
148.7359458885741
 31
0.0
  0
LINE
  5
1DF12
  8
01
  6
HIDS
 10
13898.41554823564
 20
146.2610721544207
 30
0.0
 11
13899.37014239024
 21
145.3064779998191
 31
0.0
  0
CIRCLE
  5
1DF13
  8
01
  6
HIDS
 10
13896.04674051866
 20
147.4985090214967
 30
0.0
 40
4.0
  0
CIRCLE
  5
1DF14
  8
01
  6
HIDS
 10
13896.04674051866
 20
147.4985090214974
 30
0.0
 40
3.375
  0
LINE
  5
1DF15
  8
01
 10
13883.54674051866
 20
99.49850902150786
 30
0.0
 11
13883.54674051866
 21
123.4985090214973
 31
0.0
  0
LINE
  5
1DF16
  8
01
 10
13908.54674051866
 20
123.4985090214974
 30
0.0
 11
13908.54674051866
 21
99.49850902150786
 31
0.0
  0
LINE
  5
1DF17
  8
01
 10
13588.54674051865
 20
-269.2158270948865
 30
0.0
 11
13543.54674051865
 21
-269.2158270948847
 31
0.0
  0
LINE
  5
1DF18
  8
01
  6
CONTINUOUS
 10
13553.54674051866
 20
-281.2165719786706
 30
0.0
 11
13553.54674051866
 21
-245.2165719786705
 31
0.0
  0
ARC
  5
1DF19
  8
01
 10
13554.04674051866
 20
-281.2165719786706
 30
0.0
 40
0.5
 50
180.0
 51
270.0
  0
LINE
  5
1DF1A
  8
01
  6
CONTINUOUS
 10
13578.54674051866
 20
-245.2165719786705
 30
0.0
 11
13578.54674051866
 21
-281.2165719786706
 31
0.0
  0
ARC
  5
1DF1B
  8
01
  6
HIDS
 10
13578.04674051866
 20
-221.216571978681
 30
0.0
 40
0.5
 50
0.0
 51
90.0
  0
ARC
  5
1DF1C
  8
01
 10
13578.04674051866
 20
-281.2165719786706
 30
0.0
 40
0.5
 50
270.0
 51
0.0
  0
LINE
  5
1DF1D
  8
01
  6
HIDS
 10
13554.04674051866
 20
-220.716571978681
 30
0.0
 11
13578.04674051866
 21
-220.716571978681
 31
0.0
  0
ARC
  5
1DF1E
  8
01
  6
HIDS
 10
13554.04674051866
 20
-221.216571978681
 30
0.0
 40
0.5
 50
90.0
 51
180.0
  0
LINE
  5
1DF1F
  8
01
 10
13578.54674051866
 20
-244.4665719786751
 30
0.0
 11
13553.54674051866
 21
-244.4665719786751
 31
0.0
  0
CIRCLE
  5
1DF20
  8
01
  6
HIDS
 10
13566.04674051866
 20
-229.2165719786706
 30
0.0
 40
4.25
  0
CIRCLE
  5
1DF21
  8
01
  6
HIDS
 10
13566.04674051866
 20
-229.2165719786706
 30
0.0
 40
6.250000000002956
  0
CIRCLE
  5
1DF22
  8
01
 10
13566.04674051866
 20
-229.2165719786706
 30
0.0
 40
6.5
  0
LINE
  5
1DF23
  8
01
 10
13578.04674051866
 20
-281.7165719786706
 30
0.0
 11
13554.04674051866
 21
-281.7165719786706
 31
0.0
  0
LINE
  5
1DF24
  8
01
 10
13554.04674051866
 20
-256.7165719786706
 30
0.0
 11
13578.04674051866
 21
-256.7165719786706
 31
0.0
  0
ARC
  5
1DF25
  8
01
 10
13578.04674051866
 20
-257.2165719786706
 30
0.0
 40
0.5
 50
0.0
 51
90.0
  0
ARC
  5
1DF26
  8
01
 10
13554.04674051866
 20
-257.2165719786706
 30
0.0
 40
0.5
 50
90.0
 51
180.0
  0
LINE
  5
1DF27
  8
01
 10
13553.54674051866
 20
-239.7486637411828
 30
0.0
 11
13578.54674051866
 21
-239.7486637411828
 31
0.0
  0
CIRCLE
  5
1DF28
  8
01
  6
HIDS
 10
13566.04674051866
 20
-269.2165719786701
 30
0.0
 40
4.5
  0
CIRCLE
  5
1DF29
  8
01
  6
HIDS
 10
13566.04674051866
 20
-269.2165719786701
 30
0.0
 40
4.0
  0
CIRCLE
  5
1DF2A
  8
01
  6
HIDS
 10
13566.04674051866
 20
-269.2165719786701
 30
0.0
 40
3.37
  0
LINE
  5
1DF2B
  8
01
 10
13553.54674051866
 20
-245.2165719786705
 30
0.0
 11
13553.54674051866
 21
-221.216571978681
 31
0.0
  0
LINE
  5
1DF2C
  8
01
 10
13578.54674051866
 20
-245.2165719786705
 30
0.0
 11
13578.54674051866
 21
-221.216571978681
 31
0.0
  0
LINE
  5
1DF2D
  8
01
 10
13918.54674051865
 20
-269.2158270948885
 30
0.0
 11
13873.54674051865
 21
-269.2158270948867
 31
0.0
  0
LINE
  5
1DF2E
  8
01
  6
CONTINUOUS
 10
13883.54674051866
 20
-281.2165719786726
 30
0.0
 11
13883.54674051866
 21
-245.2165719786725
 31
0.0
  0
ARC
  5
1DF2F
  8
01
 10
13884.04674051866
 20
-281.2165719786726
 30
0.0
 40
0.5
 50
180.0
 51
270.0
  0
LINE
  5
1DF30
  8
01
  6
CONTINUOUS
 10
13908.54674051866
 20
-245.2165719786725
 30
0.0
 11
13908.54674051866
 21
-281.2165719786726
 31
0.0
  0
ARC
  5
1DF31
  8
01
  6
HIDS
 10
13908.04674051866
 20
-221.2165719786831
 30
0.0
 40
0.5
 50
0.0
 51
90.0
  0
ARC
  5
1DF32
  8
01
 10
13908.04674051866
 20
-281.2165719786726
 30
0.0
 40
0.5
 50
270.0
 51
0.0
  0
LINE
  5
1DF33
  8
01
  6
HIDS
 10
13884.04674051866
 20
-220.7165719786831
 30
0.0
 11
13908.04674051866
 21
-220.7165719786831
 31
0.0
  0
ARC
  5
1DF34
  8
01
  6
HIDS
 10
13884.04674051866
 20
-221.2165719786831
 30
0.0
 40
0.5
 50
90.0
 51
180.0
  0
LINE
  5
1DF35
  8
01
 10
13908.54674051866
 20
-244.4665719786772
 30
0.0
 11
13883.54674051866
 21
-244.4665719786772
 31
0.0
  0
CIRCLE
  5
1DF36
  8
01
  6
HIDS
 10
13896.04674051866
 20
-229.2165719786726
 30
0.0
 40
4.25
  0
CIRCLE
  5
1DF37
  8
01
  6
HIDS
 10
13896.04674051866
 20
-229.2165719786726
 30
0.0
 40
6.250000000002956
  0
CIRCLE
  5
1DF38
  8
01
 10
13896.04674051866
 20
-229.2165719786726
 30
0.0
 40
6.5
  0
LINE
  5
1DF39
  8
01
 10
13908.04674051866
 20
-281.7165719786726
 30
0.0
 11
13884.04674051866
 21
-281.7165719786726
 31
0.0
  0
LINE
  5
1DF3A
  8
01
 10
13884.04674051866
 20
-256.7165719786726
 30
0.0
 11
13908.04674051866
 21
-256.7165719786726
 31
0.0
  0
ARC
  5
1DF3B
  8
01
 10
13908.04674051866
 20
-257.2165719786726
 30
0.0
 40
0.5
 50
0.0
 51
90.0
  0
ARC
  5
1DF3C
  8
01
 10
13884.04674051866
 20
-257.2165719786726
 30
0.0
 40
0.5
 50
90.0
 51
180.0
  0
LINE
  5
1DF3D
  8
01
 10
13883.54674051866
 20
-239.7486637411848
 30
0.0
 11
13908.54674051866
 21
-239.7486637411848
 31
0.0
  0
CIRCLE
  5
1DF3E
  8
01
  6
HIDS
 10
13896.04674051866
 20
-269.2165719786722
 30
0.0
 40
4.5
  0
CIRCLE
  5
1DF3F
  8
01
  6
HIDS
 10
13896.04674051866
 20
-269.2165719786722
 30
0.0
 40
4.0
  0
CIRCLE
  5
1DF40
  8
01
  6
HIDS
 10
13896.04674051866
 20
-269.2165719786722
 30
0.0
 40
3.37
  0
LINE
  5
1DF41
  8
01
 10
13883.54674051866
 20
-245.2165719786725
 30
0.0
 11
13883.54674051866
 21
-221.2165719786831
 31
0.0
  0
LINE
  5
1DF42
  8
01
 10
13908.54674051866
 20
-245.2165719786725
 30
0.0
 11
13908.54674051866
 21
-221.2165719786831
 31
0.0
  0
LINE
  5
1DF43
  8
01
 10
13431.04674051866
 20
92.49850902150013
 30
0.0
 11
13432.04674051866
 21
91.49850902150013
 31
0.0
  0
LINE
  5
1DF44
  8
01
 10
13431.04674051866
 20
92.49850902150013
 30
0.0
 11
13431.04674051866
 21
122.4985090215001
 31
0.0
  0
LINE
  5
1DF45
  8
01
 10
13432.04674051866
 20
123.4985090215001
 30
0.0
 11
13431.04674051866
 21
122.4985090215001
 31
0.0
  0
LINE
  5
1DF46
  8
01
 10
13432.04674051866
 20
123.4985090215001
 30
0.0
 11
13432.04674051866
 21
91.49850902150013
 31
0.0
  0
LINE
  5
1DF47
  8
01
 10
13431.04674051866
 20
-24.00074562569148
 30
0.0
 11
13432.04674051866
 21
-25.00074562569148
 31
0.0
  0
LINE
  5
1DF48
  8
01
 10
13431.04674051866
 20
-24.00074562569148
 30
0.0
 11
13431.04674051866
 21
5.999254374308521
 31
0.0
  0
LINE
  5
1DF49
  8
01
 10
13432.04674051866
 20
6.999254374308521
 30
0.0
 11
13431.04674051866
 21
5.999254374308521
 31
0.0
  0
LINE
  5
1DF4A
  8
01
 10
13432.04674051866
 20
6.999254374308521
 30
0.0
 11
13432.04674051866
 21
-25.00074562569148
 31
0.0
  0
LINE
  5
1DF4B
  8
01
 10
13431.04674051866
 20
-166.0007456256917
 30
0.0
 11
13432.04674051866
 21
-167.0007456256917
 31
0.0
  0
LINE
  5
1DF4C
  8
01
 10
13431.04674051866
 20
-166.0007456256917
 30
0.0
 11
13431.04674051866
 21
-136.0007456256917
 31
0.0
  0
LINE
  5
1DF4D
  8
01
 10
13432.04674051866
 20
-135.0007456256917
 30
0.0
 11
13431.04674051866
 21
-136.0007456256917
 31
0.0
  0
LINE
  5
1DF4E
  8
01
 10
13432.04674051866
 20
-135.0007456256917
 30
0.0
 11
13432.04674051866
 21
-167.0007456256917
 31
0.0
  0
LINE
  5
1DF4F
  8
01
 10
13431.04674051866
 20
-244.2165719786698
 30
0.0
 11
13432.04674051866
 21
-245.2165719786698
 31
0.0
  0
LINE
  5
1DF50
  8
01
 10
13431.04674051866
 20
-244.2165719786698
 30
0.0
 11
13431.04674051866
 21
-214.2165719786698
 31
0.0
  0
LINE
  5
1DF51
  8
01
 10
13432.04674051866
 20
-213.2165719786698
 30
0.0
 11
13431.04674051866
 21
-214.2165719786698
 31
0.0
  0
LINE
  5
1DF52
  8
01
 10
13432.04674051866
 20
-213.2165719786698
 30
0.0
 11
13432.04674051866
 21
-245.2165719786698
 31
0.0
  0
LINE
  5
1DF53
  8
01
 10
14031.04674051866
 20
-244.2165719786735
 30
0.0
 11
14030.04674051866
 21
-245.2165719786735
 31
0.0
  0
LINE
  5
1DF54
  8
01
 10
14031.04674051866
 20
-244.2165719786735
 30
0.0
 11
14031.04674051866
 21
-214.2165719786735
 31
0.0
  0
LINE
  5
1DF55
  8
01
 10
14030.04674051866
 20
-213.2165719786735
 30
0.0
 11
14031.04674051866
 21
-214.2165719786735
 31
0.0
  0
LINE
  5
1DF56
  8
01
 10
14030.04674051866
 20
-213.2165719786735
 30
0.0
 11
14030.04674051866
 21
-245.2165719786735
 31
0.0
  0
LINE
  5
1DF57
  8
01
 10
14031.04674051866
 20
-166.0007456256957
 30
0.0
 11
14030.04674051866
 21
-167.0007456256957
 31
0.0
  0
LINE
  5
1DF58
  8
01
 10
14031.04674051866
 20
-166.0007456256957
 30
0.0
 11
14031.04674051866
 21
-136.0007456256957
 31
0.0
  0
LINE
  5
1DF59
  8
01
 10
14030.04674051866
 20
-135.0007456256957
 30
0.0
 11
14031.04674051866
 21
-136.0007456256957
 31
0.0
  0
LINE
  5
1DF5A
  8
01
 10
14030.04674051866
 20
-135.0007456256957
 30
0.0
 11
14030.04674051866
 21
-167.0007456256957
 31
0.0
  0
LINE
  5
1DF5B
  8
01
 10
14031.04674051866
 20
-24.00074562569523
 30
0.0
 11
14030.04674051866
 21
-25.00074562569523
 31
0.0
  0
LINE
  5
1DF5C
  8
01
 10
14031.04674051866
 20
-24.00074562569523
 30
0.0
 11
14031.04674051866
 21
5.999254374304769
 31
0.0
  0
LINE
  5
1DF5D
  8
01
 10
14030.04674051866
 20
6.999254374304769
 30
0.0
 11
14031.04674051866
 21
5.999254374304769
 31
0.0
  0
LINE
  5
1DF5E
  8
01
 10
14030.04674051866
 20
6.999254374304769
 30
0.0
 11
14030.04674051866
 21
-25.00074562569523
 31
0.0
  0
LINE
  5
1DF5F
  8
01
 10
14031.04674051866
 20
92.49850902149649
 30
0.0
 11
14030.04674051866
 21
91.49850902149649
 31
0.0
  0
LINE
  5
1DF60
  8
01
 10
14031.04674051866
 20
92.49850902149649
 30
0.0
 11
14031.04674051866
 21
122.4985090214965
 31
0.0
  0
LINE
  5
1DF61
  8
01
 10
14030.04674051866
 20
123.4985090214965
 30
0.0
 11
14031.04674051866
 21
122.4985090214965
 31
0.0
  0
LINE
  5
1DF62
  8
01
 10
14030.04674051866
 20
123.4985090214965
 30
0.0
 11
14030.04674051866
 21
91.49850902149649
 31
0.0
  0
LINE
  5
1E054
  8
01
  6
PHAS
 10
13249.49816706879
 20
-60.00074535280839
 30
0.0
 11
13301.20201822802
 21
-60.00074535280692
 31
0.0
  0
LINE
  5
1E055
  8
01
  6
PHAS
 10
13249.49816706879
 20
-100.0007453528078
 30
0.0
 11
13301.20201822802
 21
-100.0007453528073
 31
0.0
  0
LINE
  5
1E05A
  8
01
  6
CENS
 10
13353.70201822802
 20
16.99925464719911
 30
0.0
 11
13353.70201822802
 21
-35.00074535280089
 31
0.0
  0
LINE
  5
1E05B
  8
01
  6
CENS
 10
13353.70201822802
 20
-125.0007453528012
 30
0.0
 11
13353.70201822802
 21
-177.0007453528012
 31
0.0
  0
CIRCLE
  5
1E05C
  8
01
  6
CONTINUOUS
 10
13353.70201822802
 20
-9.000745352800891
 30
0.0
 40
16.0
  0
LINE
  5
1E05D
  8
01
  6
CENS
 10
13379.70201822802
 20
-9.000745352800891
 30
0.0
 11
13327.70201822802
 21
-9.000745352800891
 31
0.0
  0
CIRCLE
  5
1E05E
  8
01
  6
CONTINUOUS
 10
13353.70201822802
 20
-151.0007453528012
 30
0.0
 40
16.0
  0
LINE
  5
1E05F
  8
01
  6
CENS
 10
13379.70201822802
 20
-151.0007453528012
 30
0.0
 11
13327.70201822802
 21
-151.0007453528012
 31
0.0
  0
LINE
  5
1E060
  8
01
  6
CENS
 10
13332.10201822802
 20
-52.0007453528076
 30
0.0
 11
13295.30201822803
 21
-52.0007453528076
 31
0.0
  0
LINE
  5
1E061
  8
01
  6
CENS
 10
13353.70201822802
 20
-149.7726834100371
 30
0.0
 11
13353.70201822802
 21
-125.0007453528076
 31
0.0
1001
ASKOBJSC
1000
1/6
1001
ASKDWGSC
1040
1.0
  0
LINE
  5
1E062
  8
01
  6
CENS
 10
13313.70201822802
 20
-132.6787247314074
 30
0.0
 11
13313.70201822802
 21
-27.32276597420775
 31
0.0
  0
LINE
  5
1E06B
  8
01
 10
13326.20201822802
 20
-100.0007454892605
 30
0.0
 11
13326.20201822802
 21
-116.0007454892605
 31
0.0
  0
LINE
  5
1E06C
  8
01
 10
13301.20201822802
 20
-100.0007454892605
 30
0.0
 11
13301.20201822802
 21
-120.6651994463839
 31
0.0
  0
LINE
  5
1E06D
  8
01
 10
13343.16992646552
 20
-138.1869842951025
 30
0.0
 11
13301.51253607045
 21
-121.1279050892722
 31
0.0
  0
ARC
  5
1E06E
  8
01
 10
13301.70201822802
 20
-120.6651994463839
 30
0.0
 40
0.5
 50
180.0
 51
247.730455297272
  0
LINE
  5
1E06F
  8
01
 10
13338.45201822802
 20
-128.0007454892605
 30
0.0
 11
13326.20201822802
 21
-116.0007454892605
 31
0.0
  0
LINE
  5
1E070
  8
01
 10
13338.45201822802
 20
-128.0007454892605
 30
0.0
 11
13361.70201822802
 21
-128.0007454892605
 31
0.0
1001
ASKOBJSC
1000
1/1
1001
ASKDWGSC
1040
1.0
  0
LINE
  5
1E071
  8
01
 10
13362.20201822802
 20
-137.0081000212881
 30
0.0
 11
13362.20201822802
 21
-128.5007454892605
 31
0.0
1001
ASKOBJSC
1000
1/1
1001
ASKDWGSC
1040
1.0
  0
ARC
  5
1E072
  8
01
 10
13361.70201822802
 20
-128.5007454892605
 30
0.0
 40
0.5
 50
0.0
 51
90.0
1001
ASKOBJSC
1000
1/1
1001
ASKDWGSC
1040
1.0
  0
LINE
  5
1E073
  8
01
  6
CENS
 10
13353.70201822803
 20
-118.7148730846038
 30
0.0
 11
13353.70201822803
 21
-145.0022570824513
 31
0.0
  0
POINT
  5
1E074
  8
01
 10
13301.20201822802
 20
-121.0007452163538
 30
0.0
  0
LINE
  5
1E075
  8
01
 10
13301.20201822802
 20
-100.0007454892605
 30
0.0
 11
13326.20201946218
 21
-100.0007452163532
 31
0.0
  0
ARC
  5
1E076
  8
01
 10
13353.70201810128
 20
-154.0007434428826
 30
0.0
 40
18.99999822652936
 50
63.42502737849149
 51
123.6639365556546
  0
LINE
  5
1E077
  8
01
  6
HIDS
 10
13317.70201761095
 20
-114.3844698914477
 30
0.0
 11
13317.70201761095
 21
-100.0007453091417
 31
0.0
  0
LINE
  5
1E078
  8
01
  6
HIDS
 10
13309.70201761095
 20
-100.0007453964721
 30
0.0
 11
13309.70201761095
 21
-114.3844698914477
 31
0.0
  0
LINE
  5
1E079
  8
01
  6
HIDS
 10
13309.20201761095
 20
-100.0007452163534
 30
0.0
 11
13309.70201761095
 21
-100.5007452163534
 31
0.0
  0
LINE
  5
1E07A
  8
01
  6
HIDS
 10
13317.70201761095
 20
-100.5007452163534
 30
0.0
 11
13318.20201761095
 21
-100.0007452163534
 31
0.0
  0
LINE
  5
1E07B
  8
01
  6
HIDS
 10
13310.33201761095
 20
-115.7188547243256
 30
0.0
 11
13310.33201761095
 21
-100.0007453895948
 31
0.0
  0
LINE
  5
1E07C
  8
01
  6
HIDS
 10
13317.07201761095
 20
-115.7188547243259
 30
0.0
 11
13317.07201761095
 21
-100.000745316019
 31
0.0
  0
LINE
  5
1E07D
  8
01
  6
HIDS
 10
13317.70201760895
 20
-114.3844698914477
 30
0.0
 11
13317.07201761095
 21
-115.0007452163534
 31
0.0
  0
LINE
  5
1E07E
  8
01
  6
HIDS
 10
13317.07201761095
 20
-115.7188547243256
 30
0.0
 11
13313.70201760995
 21
-117.6674118823535
 31
0.0
  0
LINE
  5
1E07F
  8
01
  6
HIDS
 10
13317.07201761095
 20
-115.0007452163534
 30
0.0
 11
13317.07201761095
 21
-115.7188547243256
 31
0.0
  0
LINE
  5
1E080
  8
01
  6
HIDS
 10
13317.07201761095
 20
-115.0007452163534
 30
0.0
 11
13310.33201761095
 21
-115.0007452163534
 31
0.0
  0
LINE
  5
1E081
  8
01
  6
HIDS
 10
13317.70201760895
 20
-114.3844698914477
 30
0.0
 11
13309.70201761095
 21
-114.3844698914477
 31
0.0
  0
LINE
  5
1E082
  8
01
  6
HIDS
 10
13309.70201761095
 20
-114.3844698914477
 30
0.0
 11
13310.33201761095
 21
-115.0007452163534
 31
0.0
  0
LINE
  5
1E083
  8
01
  6
HIDS
 10
13317.70201760895
 20
-114.3844698914477
 30
0.0
 11
13309.70201761095
 21
-114.3844698914477
 31
0.0
  0
LINE
  5
1E084
  8
01
  6
HIDS
 10
13317.07201761095
 20
-115.7188547243256
 30
0.0
 11
13310.33201761095
 21
-115.7188547243256
 31
0.0
  0
LINE
  5
1E085
  8
01
  6
HIDS
 10
13310.33201761095
 20
-115.7188547243256
 30
0.0
 11
13310.33201761095
 21
-115.0007452163534
 31
0.0
  0
LINE
  5
1E086
  8
01
  6
HIDS
 10
13313.70201760995
 20
-117.6674118823535
 30
0.0
 11
13310.33201761095
 21
-115.7188547243256
 31
0.0
  0
LINE
  5
1E087
  8
01
 10
13326.20201822802
 20
-60.00074507990723
 30
0.0
 11
13326.20201822802
 21
-44.00074507990701
 31
0.0
  0
LINE
  5
1E088
  8
01
 10
13301.20201822802
 20
-60.00074507990723
 30
0.0
 11
13301.20201822802
 21
-39.33629112278379
 31
0.0
  0
LINE
  5
1E089
  8
01
 10
13343.16992646552
 20
-21.81450627406446
 30
0.0
 11
13301.51253607045
 21
-38.8735854798955
 31
0.0
  0
ARC
  5
1E08A
  8
01
 10
13301.70201822802
 20
-39.33629112278379
 30
0.0
 40
0.5
 50
112.2695447027284
 51
180.0
  0
LINE
  5
1E08B
  8
01
 10
13338.45201822802
 20
-32.00074507990723
 30
0.0
 11
13326.20201822802
 21
-44.00074507990701
 31
0.0
  0
LINE
  5
1E08C
  8
01
 10
13338.45201822802
 20
-32.00074507990723
 30
0.0
 11
13361.70201822802
 21
-32.00074507990723
 31
0.0
1001
ASKOBJSC
1000
1/1
1001
ASKDWGSC
1040
1.0
  0
LINE
  5
1E08D
  8
01
 10
13362.20201822802
 20
-22.99339054788095
 30
0.0
 11
13362.20201822802
 21
-31.50074507990723
 31
0.0
1001
ASKOBJSC
1000
1/1
1001
ASKDWGSC
1040
1.0
  0
ARC
  5
1E08E
  8
01
 10
13361.70201822802
 20
-31.50074507990723
 30
0.0
 40
0.5
 50
270.0
 51
0.0
1001
ASKOBJSC
1000
1/1
1001
ASKDWGSC
1040
1.0
  0
LINE
  5
1E08F
  8
01
  6
CONTINUOUS
 10
13301.20201822802
 20
-60.00074535281431
 30
0.0
 11
13326.20201822802
 21
-60.00074535279907
 31
0.0
  0
LINE
  5
1E090
  8
01
 10
13322.70201822803
 20
-59.50074535281294
 30
0.0
 11
13323.20201822803
 21
-60.0007453528134
 31
0.0
  0
LINE
  5
1E091
  8
01
 10
13304.70201822803
 20
-40.00074535281294
 30
0.0
 11
13311.02620059596
 21
-40.00074535281306
 31
0.0
  0
LINE
  5
1E092
  8
01
 10
13316.3778358601
 20
-40.00074535281306
 30
0.0
 11
13322.70201822803
 21
-40.00074535281294
 31
0.0
  0
LINE
  5
1E093
  8
01
 10
13304.70201822803
 20
-40.00074535281294
 30
0.0
 11
13304.70201822803
 21
-49.75074562571183
 31
0.0
  0
LINE
  5
1E094
  8
01
 10
13304.70201822803
 20
-54.25074562571183
 30
0.0
 11
13304.70201822803
 21
-59.50074535281294
 31
0.0
  0
LINE
  5
1E095
  8
01
 10
13304.20201822803
 20
-60.0007453528134
 30
0.0
 11
13304.70201822803
 21
-59.50074535281294
 31
0.0
  0
LINE
  5
1E096
  8
01
 10
13303.22921985694
 20
-54.25074589862072
 30
0.0
 11
13304.70201822803
 21
-54.25074409456113
 31
0.0
  0
LINE
  5
1E097
  8
01
 10
13303.22921985694
 20
-49.75074589862072
 30
0.0
 11
13304.70201822803
 21
-49.7507440945659
 31
0.0
  0
LINE
  5
1E098
  8
01
 10
13303.22921985694
 20
-49.75074589862072
 30
0.0
 11
13303.22921985694
 21
-54.25074589862072
 31
0.0
  0
LINE
  5
1E099
  8
01
 10
13301.47921985695
 20
-48.00074589862845
 30
0.0
 11
13301.20201822802
 21
-48.00074589862845
 31
0.0
  0
LINE
  5
1E09A
  8
01
 10
13301.47921985695
 20
-56.00074589862822
 30
0.0
 11
13301.20201822802
 21
-56.00074589862822
 31
0.0
  0
LINE
  5
1E09B
  8
01
 10
13301.20201822802
 20
-48.00074589862845
 30
0.0
 11
13301.20201822802
 21
-56.00074589862822
 31
0.0
  0
LINE
  5
1E09C
  8
01
 10
13304.70201822803
 20
-54.25074562571183
 30
0.0
 11
13304.70201822803
 21
-49.75074562571183
 31
0.0
  0
LINE
  5
1E09D
  8
01
 10
13322.70201822803
 20
-40.00074535281294
 30
0.0
 11
13322.70201822803
 21
-49.75074562571183
 31
0.0
  0
LINE
  5
1E09E
  8
01
 10
13322.70201822803
 20
-54.25074562571183
 30
0.0
 11
13322.70201822803
 21
-59.50074535281294
 31
0.0
  0
LINE
  5
1E09F
  8
01
 10
13324.17481659911
 20
-54.25074589862072
 30
0.0
 11
13322.70201822803
 21
-54.25074409456613
 31
0.0
  0
LINE
  5
1E0A0
  8
01
 10
13324.17481659911
 20
-49.75074589862072
 30
0.0
 11
13322.70201822803
 21
-49.75074409457113
 31
0.0
  0
LINE
  5
1E0A1
  8
01
 10
13324.17481659911
 20
-49.75074589862072
 30
0.0
 11
13324.17481659911
 21
-54.25074589862072
 31
0.0
  0
LINE
  5
1E0A2
  8
01
 10
13322.70201822803
 20
-54.25074562571183
 30
0.0
 11
13322.70201822803
 21
-49.75074562571183
 31
0.0
  0
LINE
  5
1E0A3
  8
01
 10
13304.70201822803
 20
-40.00074535281294
 30
0.0
 11
13313.70201822802
 21
-38.50074535281226
 31
0.0
  0
LINE
  5
1E0A4
  8
01
 10
13313.70201822802
 20
-38.50074535281226
 30
0.0
 11
13322.70201822803
 21
-40.00074535281294
 31
0.0
  0
POINT
  5
1E0A5
  8
01
 10
13301.20201822802
 20
-39.00074535281385
 30
0.0
  0
ARC
  5
1E0A6
  8
01
 10
13353.70201810128
 20
-6.000747126285091
 30
0.0
 40
18.99999822652936
 50
236.3360634443585
 51
296.5749726215024
  0
LINE
  5
1E0A7
  8
01
  6
HIDS
 10
13306.18587289948
 20
-50.00074535280669
 30
0.0
 11
13306.18587289948
 21
-54.00074535280669
 31
0.0
  0
LINE
  5
1E0A8
  8
01
  6
HIDS
 10
13309.45201822803
 20
-53.65074535280655
 30
0.0
 11
13306.18587289948
 21
-53.65074535280655
 31
0.0
  0
LINE
  5
1E0A9
  8
01
  6
HIDS
 10
13306.18587289948
 20
-50.3507453528066
 30
0.0
 11
13309.45201822803
 21
-50.3507453528066
 31
0.0
  0
LINE
  5
1E0AA
  8
01
  6
HIDS
 10
13305.20201822803
 20
-60.00074535280669
 30
0.0
 11
13322.20201822803
 21
-60.00074535280669
 31
0.0
  0
LINE
  5
1E0AB
  8
01
  6
HIDS
 10
13305.20201822803
 20
-47.50074535281055
 30
0.0
 11
13305.20201822803
 21
-49.04346463513173
 31
0.0
  0
LINE
  5
1E0AC
  8
01
  6
HIDS
 10
13305.20201822803
 20
-54.9580260704812
 30
0.0
 11
13305.20201822803
 21
-60.00074535280669
 31
0.0
  0
LINE
  5
1E0AD
  8
01
  6
HIDS
 10
13305.70201822803
 20
-47.00074535281055
 30
0.0
 11
13305.20201822803
 21
-47.50074535281055
 31
0.0
  0
LINE
  5
1E0AE
  8
01
  6
HIDS
 10
13306.18587289948
 20
-54.00074535280669
 30
0.0
 11
13309.45201822803
 21
-54.00074535280669
 31
0.0
  0
LINE
  5
1E0AF
  8
01
  6
HIDS
 10
13306.18587289948
 20
-50.00074535280669
 30
0.0
 11
13309.45201822803
 21
-50.00074535280669
 31
0.0
  0
LINE
  5
1E0B0
  8
01
  6
HIDS
 10
13322.20201822803
 20
-60.00074535280669
 30
0.0
 11
13322.20201822803
 21
-54.95802607047835
 31
0.0
  0
LINE
  5
1E0B1
  8
01
  6
HIDS
 10
13322.20201822803
 20
-49.04346463513139
 30
0.0
 11
13322.20201822803
 21
-47.50074535281055
 31
0.0
  0
LINE
  5
1E0B2
  8
01
  6
HIDS
 10
13306.18587289948
 20
-54.00074535280646
 30
0.0
 11
13305.20201822803
 21
-54.95802607047949
 31
0.0
  0
LINE
  5
1E0B3
  8
01
  6
HIDS
 10
13306.18587289948
 20
-50.00074535280669
 30
0.0
 11
13305.20201822803
 21
-49.04346463513343
 31
0.0
  0
ARC
  5
1E0B4
  8
01
  6
HIDS
 10
13293.22722612491
 20
-52.00074535280646
 30
0.0
 40
12.33455127501747
 50
346.127869629638
 51
13.87213037040723
  0
LINE
  5
1E0B5
  8
01
  6
HIDS
 10
13309.45201822803
 20
-47.00074535281033
 30
0.0
 11
13309.45201822803
 21
-60.00074535280669
 31
0.0
  0
LINE
  5
1E0B6
  8
01
  6
HIDS
 10
13317.95201822803
 20
-60.00074535280669
 30
0.0
 11
13317.95201822803
 21
-47.00074535281055
 31
0.0
  0
LINE
  5
1E0B7
  8
01
  6
HIDS
 10
13321.21816355657
 20
-50.00074535280601
 30
0.0
 11
13321.21816355657
 21
-54.00074535280601
 31
0.0
  0
LINE
  5
1E0B8
  8
01
  6
HIDS
 10
13317.95201822803
 20
-53.65074535280633
 30
0.0
 11
13321.21816355657
 21
-53.65074535280587
 31
0.0
  0
LINE
  5
1E0B9
  8
01
  6
HIDS
 10
13321.21816355657
 20
-50.35074535280614
 30
0.0
 11
13317.95201822803
 21
-50.35074535280637
 31
0.0
  0
LINE
  5
1E0BA
  8
01
  6
HIDS
 10
13321.21816355657
 20
-54.00074535280601
 30
0.0
 11
13317.95201822803
 21
-54.00074535280623
 31
0.0
  0
LINE
  5
1E0BB
  8
01
  6
HIDS
 10
13321.21816355657
 20
-50.00074535280601
 30
0.0
 11
13317.95201822803
 21
-50.00074535280623
 31
0.0
  0
LINE
  5
1E0BC
  8
01
  6
HIDS
 10
13321.21816355657
 20
-54.00074535280578
 30
0.0
 11
13322.20201822803
 21
-54.95802607047881
 31
0.0
  0
LINE
  5
1E0BD
  8
01
  6
HIDS
 10
13321.21816355657
 20
-50.00074535280623
 30
0.0
 11
13322.20201822803
 21
-49.04346463513275
 31
0.0
  0
ARC
  5
1E0BE
  8
01
  6
HIDS
 10
13334.17681033115
 20
-52.00074535280487
 30
0.0
 40
12.33455127501747
 50
166.1278696296114
 51
193.8721303703601
  0
LINE
  5
1E0BF
  8
01
  6
HIDS
 10
13305.70201822803
 20
-47.00074535281055
 30
0.0
 11
13321.70201822803
 21
-47.00074535281055
 31
0.0
  0
LINE
  5
1E0C0
  8
01
  6
HIDS
 10
13322.20201822803
 20
-47.50074535281055
 30
0.0
 11
13321.70201822803
 21
-47.00074535281055
 31
0.0
  0
LINE
  5
1E0C1
  8
01
  6
HIDS
 10
13321.40201802803
 20
-45.00074535281055
 30
0.0
 11
13306.00201842803
 21
-45.00074535281055
 31
0.0
  0
LINE
  5
1E0C2
  8
01
  6
HIDS
 10
13321.40201802803
 20
-47.00074535281055
 30
0.0
 11
13306.00201842803
 21
-47.00074535281055
 31
0.0
  0
LINE
  5
1E0C3
  8
01
  6
HIDS
 10
13321.40201802803
 20
-47.00074535281055
 30
0.0
 11
13321.40201802803
 21
-45.00074535281055
 31
0.0
  0
LINE
  5
1E0C4
  8
01
  6
HIDS
 10
13314.43127090784
 20
-45.00074535281055
 30
0.0
 11
13314.719040804
 21
-47.00074535281055
 31
0.0
  0
LINE
  5
1E0C5
  8
01
  6
HIDS
 10
13312.93983942071
 20
-47.00074535281055
 30
0.0
 11
13312.65206960585
 21
-45.00074535281055
 31
0.0
  0
LINE
  5
1E0C6
  8
01
  6
HIDS
 10
13306.00201842803
 20
-47.00074535281055
 30
0.0
 11
13306.00201842803
 21
-45.00074535281055
 31
0.0
  0
ARC
  5
1E0C7
  8
01
  6
HIDS
 10
13309.48799672084
 20
-42.98851990431785
 30
0.0
 40
2.6
 50
105.8808500082445
 51
174.9999999999981
  0
ARC
  5
1E0C8
  8
01
  6
HIDS
 10
13317.91603973521
 20
-42.98851990431785
 30
0.0
 40
2.6
 50
4.999999999998468
 51
74.11914999171391
  0
ARC
  5
1E0C9
  8
01
  6
HIDS
 10
13313.70201822803
 20
-57.80074535281074
 30
0.0
 40
18.0
 50
74.11914999172224
 51
105.8808500082778
  0
ARC
  5
1E0CA
  8
01
  6
HIDS
 10
13309.92701822803
 20
-45.40074535281065
 30
0.0
 40
0.4
 50
0.0
 51
90.0
  0
ARC
  5
1E0CB
  8
01
  6
HIDS
 10
13317.47701822803
 20
-45.40074535281065
 30
0.0
 40
0.4
 50
90.0
 51
180.0
  0
LINE
  5
1E0CC
  8
01
  6
HIDS
 10
13306.8978905058
 20
-42.76191497317404
 30
0.0
 11
13306.70201822803
 21
-45.00074535281055
 31
0.0
  0
LINE
  5
1E0CD
  8
01
  6
HIDS
 10
13320.70201822803
 20
-45.00074535281055
 30
0.0
 11
13320.50614595025
 21
-42.76191497317404
 31
0.0
  0
LINE
  5
1E0CE
  8
01
  6
HIDS
 10
13306.70201822803
 20
-45.00074535281055
 30
0.0
 11
13320.70201822803
 21
-45.00074535281055
 31
0.0
  0
LINE
  5
1E0CF
  8
01
  6
HIDS
 10
13310.32701822803
 20
-45.40074535281065
 30
0.0
 11
13309.70201822803
 21
-47.90074535281065
 31
0.0
  0
LINE
  5
1E0D0
  8
01
  6
HIDS
 10
13309.70201822803
 20
-47.90074535281065
 30
0.0
 11
13309.70201822803
 21
-60.00074535281055
 31
0.0
  0
LINE
  5
1E0D1
  8
01
  6
HIDS
 10
13317.70201822803
 20
-60.00074535281055
 30
0.0
 11
13317.70201822803
 21
-47.90074535281065
 31
0.0
  0
LINE
  5
1E0D2
  8
01
  6
HIDS
 10
13317.70201822803
 20
-47.90074535281065
 30
0.0
 11
13317.07701822803
 21
-45.40074535281065
 31
0.0
  0
LINE
  5
1E0D3
  8
01
  6
HIDS
 10
13309.70201822803
 20
-47.90074535281065
 30
0.0
 11
13317.70201822803
 21
-47.90074535281065
 31
0.0
  0
LINE
  5
1E0D4
  8
01
  6
HIDS
 10
13310.32701822803
 20
-45.40074535281065
 30
0.0
 11
13310.32701822803
 21
-60.00074535281055
 31
0.0
  0
LINE
  5
1E0D5
  8
01
  6
HIDS
 10
13317.07701822803
 20
-60.00074535281055
 30
0.0
 11
13317.07701822803
 21
-45.40074535281065
 31
0.0
  0
ARC
  5
1E0D6
  8
01
  6
HIDS
 10
13304.01770365297
 20
-49.95074562571301
 30
0.0
 40
0.4
 50
224.999999999923
 51
270.0
  0
ARC
  5
1E0D7
  8
01
  6
HIDS
 10
13304.01770365297
 20
-54.05074562571292
 30
0.0
 40
0.4
 50
90.0
 51
135.000000000077
  0
LINE
  5
1E0D8
  8
01
  6
HIDS
 10
13301.20201822802
 20
-48.00074562571319
 30
0.0
 11
13301.20201822802
 21
-56.00074562571319
 31
0.0
  0
LINE
  5
1E0D9
  8
01
  6
HIDS
 10
13301.50201822803
 20
-56.00074562571319
 30
0.0
 11
13301.50201822803
 21
-48.00074562571319
 31
0.0
  0
LINE
  5
1E0DA
  8
01
  6
HIDS
 10
13301.50201822803
 20
-48.00074562571319
 30
0.0
 11
13301.20201822802
 21
-48.00074562571319
 31
0.0
  0
LINE
  5
1E0DB
  8
01
  6
HIDS
 10
13301.20201822802
 20
-56.00074562571319
 30
0.0
 11
13301.50201822803
 21
-56.00074562571319
 31
0.0
  0
LINE
  5
1E0DC
  8
01
  6
HIDS
 10
13309.20201822802
 20
-50.3507456257131
 30
0.0
 11
13304.01770365297
 21
-50.3507456257131
 31
0.0
  0
LINE
  5
1E0DD
  8
01
  6
HIDS
 10
13309.20201822802
 20
-53.65074562571328
 30
0.0
 11
13304.01770365297
 21
-53.65074562571328
 31
0.0
  0
LINE
  5
1E0DE
  8
01
  6
HIDS
 10
13305.41770365297
 20
-50.00074562571319
 30
0.0
 11
13305.41770365297
 21
-54.00074562571319
 31
0.0
  0
LINE
  5
1E0DF
  8
01
  6
HIDS
 10
13305.41770365297
 20
-54.00074562571319
 30
0.0
 11
13304.01770365297
 21
-53.65074562571328
 31
0.0
  0
LINE
  5
1E0E0
  8
01
  6
HIDS
 10
13305.41770365297
 20
-50.00074562571319
 30
0.0
 11
13304.01770365297
 21
-50.3507456257131
 31
0.0
  0
LINE
  5
1E0E1
  8
01
  6
HIDS
 10
13303.7348609405
 20
-53.76790291323834
 30
0.0
 11
13301.50201822803
 21
-56.00074562571319
 31
0.0
  0
LINE
  5
1E0E2
  8
01
  6
HIDS
 10
13303.7348609405
 20
-50.23358833818759
 30
0.0
 11
13301.50201822803
 21
-48.00074562571319
 31
0.0
  0
LINE
  5
1E0E3
  8
01
  6
HIDS
 10
13303.85201822803
 20
-53.6866737372635
 30
0.0
 11
13303.85201822803
 21
-50.31481751416288
 31
0.0
  0
LINE
  5
1E0E4
  8
01
  6
HIDS
 10
13308.85201822802
 20
-54.00074562571319
 30
0.0
 11
13305.41770365297
 21
-54.00074562571319
 31
0.0
  0
LINE
  5
1E0E5
  8
01
  6
HIDS
 10
13305.41770365297
 20
-50.00074562571319
 30
0.0
 11
13308.85201822802
 21
-50.00074562571319
 31
0.0
  0
LINE
  5
1E0E6
  8
01
  6
HIDS
 10
13308.85201822802
 20
-50.00074562571319
 30
0.0
 11
13309.20201822802
 21
-50.3507456257131
 31
0.0
  0
LINE
  5
1E0E7
  8
01
  6
HIDS
 10
13309.20201822802
 20
-50.3507456257131
 30
0.0
 11
13309.20201822802
 21
-53.65074562571328
 31
0.0
  0
LINE
  5
1E0E8
  8
01
  6
HIDS
 10
13309.20201822802
 20
-53.65074562571328
 30
0.0
 11
13308.85201822802
 21
-54.00074562571319
 31
0.0
  0
LINE
  5
1E0E9
  8
01
  6
HIDS
 10
13308.85201822802
 20
-54.00074562571319
 30
0.0
 11
13308.85201822802
 21
-50.00074562571319
 31
0.0
  0
ARC
  5
1E0EA
  8
01
  6
HIDS
 10
13323.38633280307
 20
-49.95074507990694
 30
0.0
 40
0.4
 50
270.0
 51
315.000000000077
  0
ARC
  5
1E0EB
  8
01
  6
HIDS
 10
13323.38633280307
 20
-54.05074507990685
 30
0.0
 40
0.4
 50
44.999999999923
 51
90.0
  0
LINE
  5
1E0EC
  8
01
  6
HIDS
 10
13326.20201822802
 20
-48.00074507990712
 30
0.0
 11
13326.20201822802
 21
-56.00074507990712
 31
0.0
  0
LINE
  5
1E0ED
  8
01
  6
HIDS
 10
13325.90201822803
 20
-56.00074507990712
 30
0.0
 11
13325.90201822803
 21
-48.00074507990712
 31
0.0
  0
LINE
  5
1E0EE
  8
01
  6
HIDS
 10
13325.90201822803
 20
-48.00074507990712
 30
0.0
 11
13326.20201822802
 21
-48.00074507990712
 31
0.0
  0
LINE
  5
1E0EF
  8
01
  6
HIDS
 10
13326.20201822802
 20
-56.00074507990712
 30
0.0
 11
13325.90201822803
 21
-56.00074507990712
 31
0.0
  0
LINE
  5
1E0F0
  8
01
  6
HIDS
 10
13318.20201822802
 20
-50.35074507990703
 30
0.0
 11
13323.38633280307
 21
-50.35074507990703
 31
0.0
  0
LINE
  5
1E0F1
  8
01
  6
HIDS
 10
13318.20201822802
 20
-53.65074507990721
 30
0.0
 11
13323.38633280307
 21
-53.65074507990721
 31
0.0
  0
LINE
  5
1E0F2
  8
01
  6
HIDS
 10
13321.98633280308
 20
-50.00074507990712
 30
0.0
 11
13321.98633280308
 21
-54.00074507990712
 31
0.0
  0
LINE
  5
1E0F3
  8
01
  6
HIDS
 10
13321.98633280308
 20
-54.00074507990712
 30
0.0
 11
13323.38633280307
 21
-53.65074507990721
 31
0.0
  0
LINE
  5
1E0F4
  8
01
  6
HIDS
 10
13321.98633280308
 20
-50.00074507990712
 30
0.0
 11
13323.38633280307
 21
-50.35074507990703
 31
0.0
  0
LINE
  5
1E0F5
  8
01
  6
HIDS
 10
13323.66917551555
 20
-53.76790236743227
 30
0.0
 11
13325.90201822803
 21
-56.00074507990712
 31
0.0
  0
LINE
  5
1E0F6
  8
01
  6
HIDS
 10
13323.66917551555
 20
-50.23358779238151
 30
0.0
 11
13325.90201822803
 21
-48.00074507990712
 31
0.0
  0
LINE
  5
1E0F7
  8
01
  6
HIDS
 10
13323.55201822803
 20
-53.68667319145743
 30
0.0
 11
13323.55201822803
 21
-50.31481696835681
 31
0.0
  0
LINE
  5
1E0F8
  8
01
  6
HIDS
 10
13318.55201822803
 20
-54.00074507990712
 30
0.0
 11
13321.98633280308
 21
-54.00074507990712
 31
0.0
  0
LINE
  5
1E0F9
  8
01
  6
HIDS
 10
13321.98633280308
 20
-50.00074507990712
 30
0.0
 11
13318.55201822803
 21
-50.00074507990712
 31
0.0
  0
LINE
  5
1E0FA
  8
01
  6
HIDS
 10
13318.55201822803
 20
-50.00074507990712
 30
0.0
 11
13318.20201822802
 21
-50.35074507990703
 31
0.0
  0
LINE
  5
1E0FB
  8
01
  6
HIDS
 10
13318.20201822802
 20
-50.35074507990703
 30
0.0
 11
13318.20201822802
 21
-53.65074507990721
 31
0.0
  0
LINE
  5
1E0FC
  8
01
  6
HIDS
 10
13318.20201822802
 20
-53.65074507990721
 30
0.0
 11
13318.55201822803
 21
-54.00074507990712
 31
0.0
  0
LINE
  5
1E0FD
  8
01
  6
HIDS
 10
13318.55201822803
 20
-54.00074507990712
 30
0.0
 11
13318.55201822803
 21
-50.00074507990712
 31
0.0
  0
LINE
  5
1E0FE
  8
01
  6
HIDS
 10
13317.07201761095
 20
-110.0007453528104
 30
0.0
 11
13310.33201761095
 21
-110.0007453528104
 31
0.0
  0
LINE
  5
1E0FF
  8
01
 10
13309.70201822803
 20
-60.00074535281055
 30
0.0
 11
13309.70201761857
 21
-100.0007453528069
 31
0.0
  0
LINE
  5
1E100
  8
01
 10
13317.70201822803
 20
-60.00074535281055
 30
0.0
 11
13317.70201761857
 21
-100.0007453528069
 31
0.0
  0
LINE
  5
1E101
  8
01
  6
CONTINUOUS
 10
13310.33195589019
 20
-100.0007453528069
 30
0.0
 11
13310.32701822803
 21
-60.00074535281055
 31
0.0
  0
LINE
  5
1E102
  8
01
  6
CONTINUOUS
 10
13317.07701822803
 20
-60.00074535281055
 30
0.0
 11
13317.07207934695
 21
-100.0007453528069
 31
0.0
  0
LINE
  5
1E103
  8
01
  6
HIDS
 10
13310.33201761095
 20
-110.0007453528106
 30
0.0
 11
13309.70201761095
 21
-109.3707453528106
 31
0.0
  0
LINE
  5
1E104
  8
01
  6
HIDS
 10
13317.07201761095
 20
-110.0007453528106
 30
0.0
 11
13317.70201761095
 21
-109.3707453528103
 31
0.0
  0
LINE
  5
1E105
  8
01
  6
HIDS
 10
13309.70201761095
 20
-109.3707453528106
 30
0.0
 11
13317.70201761095
 21
-109.3707453528106
 31
0.0
  0
CIRCLE
  5
1E106
  8
01
 10
13353.70201822802
 20
-9.000745352800891
 30
0.0
 40
15.0
  0
CIRCLE
  5
1E107
  8
01
 10
13353.70201822802
 20
-151.0007453528012
 30
0.0
 40
15.0
  0
LINE
  5
1EFF0
  8
01
 10
13431.04674051866
 20
6.499254374310794
 30
0.0
 11
13431.04674051866
 21
61.41969070681091
 31
0.0
1001
ACAD
1000
DSTYLE
1002
{
1070
   340
1005
15304
1070
    70
1070
     0
1070
    69
1070
     0
1002
}
  0
LINE
  5
1EFF1
  8
01
 10
14031.04674051866
 20
6.499254374304769
 30
0.0
 11
14031.04674051866
 21
61.41969070681091
 31
0.0
1001
ACAD
1000
DSTYLE
1002
{
1070
   340
1005
15304
1070
    70
1070
     0
1070
    69
1070
     0
1002
}
  0
LINE
  5
1EFF2
  8
01
 10
13433.34674051866
 20
60.41969070681091
 30
0.0
 11
14028.74674051866
 21
60.41969070681091
 31
0.0
1001
ACAD
1000
DSTYLE
1002
{
1070
   340
1005
15304
1070
    70
1070
     0
1070
    69
1070
     0
1002
}
  0
LINE
  5
1EFF6
  8
01
 10
13896.04674051866
 20
17.99925437430386
 30
0.0
 11
13896.04674051866
 21
48.52447254055596
 31
0.0
1001
ACAD
1000
DSTYLE
1002
{
1070
   340
1005
15304
1070
    70
1070
     0
1070
    69
1070
     0
1002
}
  0
LINE
  5
1EFF7
  8
01
 10
13566.04674051866
 20
17.99925437430716
 30
0.0
 11
13566.04674051866
 21
48.52447254055596
 31
0.0
1001
ACAD
1000
DSTYLE
1002
{
1070
   340
1005
15304
1070
    70
1070
     0
1070
    69
1070
     0
1002
}
  0
LINE
  5
1EFF8
  8
01
 10
13893.74674051866
 20
47.52447254055596
 30
0.0
 11
13568.34674051866
 21
47.52447254055596
 31
0.0
1001
ACAD
1000
DSTYLE
1002
{
1070
   340
1005
15304
1070
    70
1070
     0
1070
    69
1070
     0
1002
}
  0
LINE
  5
1EFFC
  8
01
 10
13896.04674051866
 20
17.99925437430386
 30
0.0
 11
13896.04674051866
 21
48.5237215983301
 31
0.0
1001
ACAD
1000
DSTYLE
1002
{
1070
   340
1005
15304
1070
    70
1070
     0
1070
    69
1070
     0
1002
}
  0
LINE
  5
1EFFD
  8
01
 10
14031.04674051866
 20
6.499254374304769
 30
0.0
 11
14031.04674051866
 21
48.5237215983301
 31
0.0
1001
ACAD
1000
DSTYLE
1002
{
1070
   340
1005
15304
1070
    70
1070
     0
1070
    69
1070
     0
1002
}
  0
LINE
  5
1EFFE
  8
01
 10
13898.34674051866
 20
47.5237215983301
 30
0.0
 11
14028.74674051866
 21
47.5237215983301
 31
0.0
1001
ACAD
1000
DSTYLE
1002
{
1070
   340
1005
15304
1070
    70
1070
     0
1070
    69
1070
     0
1002
}
  0
LINE
  5
1F002
  8
01
 10
13566.04674051866
 20
17.99925437430716
 30
0.0
 11
13566.04674051866
 21
48.52447254056004
 31
0.0
1001
ACAD
1000
DSTYLE
1002
{
1070
   340
1005
15304
1070
    70
1070
     0
1070
    69
1070
     0
1002
}
  0
LINE
  5
1F003
  8
01
 10
13431.04674051866
 20
6.499254374308521
 30
0.0
 11
13431.04674051866
 21
48.52447254056005
 31
0.0
1001
ACAD
1000
DSTYLE
1002
{
1070
   340
1005
15304
1070
    70
1070
     0
1070
    69
1070
     0
1002
}
  0
LINE
  5
1F004
  8
01
 10
13563.74674051867
 20
47.52447254056004
 30
0.0
 11
13433.34674051866
 21
47.52447254056005
 31
0.0
1001
ACAD
1000
DSTYLE
1002
{
1070
   340
1005
15304
1070
    70
1070
     0
1070
    69
1070
     0
1002
}
  0
LINE
  5
1F008
  8
01
  6
CENS
 10
13569.44085306836
 20
-55.39485790249305
 30
0.0
 11
13562.65262796897
 21
-48.60663280310327
 31
0.0
  0
LINE
  5
1F009
  8
01
  6
CENS
 10
13562.65262796897
 20
-55.39485790249413
 30
0.0
 11
13569.44085306836
 21
-48.60663280310219
 31
0.0
  0
CIRCLE
  5
1F00A
  8
01
  6
CONTINUOUS
 10
13566.04674051866
 20
-52.00074535279816
 30
0.0
 40
4.0
  0
ARC
  5
1F00B
  8
01
  6
CONTINUOUS
 10
13566.04674051866
 20
-49.87942500923852
 30
0.0
 40
1.0
 50
225.0
 51
315.0000000000092
  0
ARC
  5
1F00C
  8
01
  6
CONTINUOUS
 10
13566.04674051866
 20
-54.12206569635781
 30
0.0
 40
1.0
 50
45.0
 51
135.0000000000092
  0
ARC
  5
1F00D
  8
01
  6
CONTINUOUS
 10
13563.9254201751
 20
-52.0007453527985
 30
0.0
 40
1.0
 50
315.0000000000095
 51
44.99999999999972
  0
ARC
  5
1F00E
  8
01
  6
CONTINUOUS
 10
13568.16806086222
 20
-52.00074535279782
 30
0.0
 40
1.0
 50
135.0000000000095
 51
224.9999999999997
  0
LINE
  5
1F00F
  8
01
  6
CONTINUOUS
 10
13564.03148619228
 20
-50.69259780760338
 30
0.0
 11
13564.73859297347
 21
-49.98549102641672
 31
0.0
  0
LINE
  5
1F010
  8
01
  6
CONTINUOUS
 10
13566.75384729985
 20
-50.58653179042496
 30
0.0
 11
13567.35488806386
 21
-49.9854910264163
 31
0.0
  0
LINE
  5
1F011
  8
01
  6
CONTINUOUS
 10
13567.35488806386
 20
-49.9854910264163
 30
0.0
 11
13568.06199484505
 21
-50.69259780760273
 31
0.0
  0
LINE
  5
1F012
  8
01
  6
CONTINUOUS
 10
13568.06199484505
 20
-53.30889289799295
 30
0.0
 11
13567.35488806386
 21
-54.01599967917961
 31
0.0
  0
LINE
  5
1F013
  8
01
  6
CONTINUOUS
 10
13567.35488806386
 20
-54.01599967917961
 30
0.0
 11
13566.75384729985
 21
-53.41495891517114
 31
0.0
  0
LINE
  5
1F014
  8
01
  6
CONTINUOUS
 10
13564.73859297347
 20
-54.01599967918003
 30
0.0
 11
13564.03148619228
 21
-53.30889289799359
 31
0.0
  0
LINE
  5
1F015
  8
01
  6
CONTINUOUS
 10
13564.03148619228
 20
-53.30889289799359
 30
0.0
 11
13564.63252695629
 21
-52.70785213398494
 31
0.0
  0
LINE
  5
1F016
  8
01
  6
CONTINUOUS
 10
13564.63252695629
 20
-51.29363857161184
 30
0.0
 11
13564.03148619228
 21
-50.69259780760338
 31
0.0
  0
LINE
  5
1F017
  8
01
  6
CONTINUOUS
 10
13564.73859297347
 20
-49.98549102641672
 30
0.0
 11
13565.33963373748
 21
-50.58653179042518
 31
0.0
  0
LINE
  5
1F018
  8
01
  6
CONTINUOUS
 10
13565.33963373748
 20
-53.41495891517137
 30
0.0
 11
13564.73859297347
 21
-54.01599967918003
 31
0.0
  0
LINE
  5
1F019
  8
01
  6
CONTINUOUS
 10
13568.06199484505
 20
-50.69259780760273
 30
0.0
 11
13567.46095408104
 21
-51.29363857161139
 31
0.0
  0
LINE
  5
1F01A
  8
01
  6
CONTINUOUS
 10
13567.46095408104
 20
-52.70785213398448
 30
0.0
 11
13568.06199484505
 21
-53.30889289799295
 31
0.0
  0
LINE
  5
1F01B
  8
01
  6
CENS
 10
13899.44085306836
 20
-55.39485790249305
 30
0.0
 11
13892.65262796897
 21
-48.60663280310327
 31
0.0
  0
LINE
  5
1F01C
  8
01
  6
CENS
 10
13892.65262796897
 20
-55.39485790249413
 30
0.0
 11
13899.44085306836
 21
-48.60663280310219
 31
0.0
  0
CIRCLE
  5
1F01D
  8
01
  6
CONTINUOUS
 10
13896.04674051866
 20
-52.00074535279816
 30
0.0
 40
4.0
  0
ARC
  5
1F01E
  8
01
  6
CONTINUOUS
 10
13896.04674051866
 20
-49.87942500923852
 30
0.0
 40
1.0
 50
225.0
 51
315.0000000000092
  0
ARC
  5
1F01F
  8
01
  6
CONTINUOUS
 10
13896.04674051866
 20
-54.12206569635781
 30
0.0
 40
1.0
 50
45.0
 51
135.0000000000092
  0
ARC
  5
1F020
  8
01
  6
CONTINUOUS
 10
13893.9254201751
 20
-52.0007453527985
 30
0.0
 40
1.0
 50
315.0000000000095
 51
44.99999999999972
  0
ARC
  5
1F021
  8
01
  6
CONTINUOUS
 10
13898.16806086222
 20
-52.00074535279782
 30
0.0
 40
1.0
 50
135.0000000000095
 51
224.9999999999997
  0
LINE
  5
1F022
  8
01
  6
CONTINUOUS
 10
13894.03148619228
 20
-50.69259780760338
 30
0.0
 11
13894.73859297347
 21
-49.98549102641672
 31
0.0
  0
LINE
  5
1F023
  8
01
  6
CONTINUOUS
 10
13896.75384729985
 20
-50.58653179042496
 30
0.0
 11
13897.35488806386
 21
-49.9854910264163
 31
0.0
  0
LINE
  5
1F024
  8
01
  6
CONTINUOUS
 10
13897.35488806386
 20
-49.9854910264163
 30
0.0
 11
13898.06199484504
 21
-50.69259780760273
 31
0.0
  0
LINE
  5
1F025
  8
01
  6
CONTINUOUS
 10
13898.06199484504
 20
-53.30889289799295
 30
0.0
 11
13897.35488806386
 21
-54.01599967917961
 31
0.0
  0
LINE
  5
1F026
  8
01
  6
CONTINUOUS
 10
13897.35488806386
 20
-54.01599967917961
 30
0.0
 11
13896.75384729985
 21
-53.41495891517114
 31
0.0
  0
LINE
  5
1F027
  8
01
  6
CONTINUOUS
 10
13894.73859297347
 20
-54.01599967918003
 30
0.0
 11
13894.03148619228
 21
-53.30889289799359
 31
0.0
  0
LINE
  5
1F028
  8
01
  6
CONTINUOUS
 10
13894.03148619228
 20
-53.30889289799359
 30
0.0
 11
13894.63252695629
 21
-52.70785213398494
 31
0.0
  0
LINE
  5
1F029
  8
01
  6
CONTINUOUS
 10
13894.63252695629
 20
-51.29363857161184
 30
0.0
 11
13894.03148619228
 21
-50.69259780760338
 31
0.0
  0
LINE
  5
1F02A
  8
01
  6
CONTINUOUS
 10
13894.73859297347
 20
-49.98549102641672
 30
0.0
 11
13895.33963373748
 21
-50.58653179042518
 31
0.0
  0
LINE
  5
1F02B
  8
01
  6
CONTINUOUS
 10
13895.33963373748
 20
-53.41495891517137
 30
0.0
 11
13894.73859297347
 21
-54.01599967918003
 31
0.0
  0
LINE
  5
1F02C
  8
01
  6
CONTINUOUS
 10
13898.06199484504
 20
-50.69259780760273
 30
0.0
 11
13897.46095408104
 21
-51.29363857161139
 31
0.0
  0
LINE
  5
1F02D
  8
01
  6
CONTINUOUS
 10
13897.46095408104
 20
-52.70785213398448
 30
0.0
 11
13898.06199484504
 21
-53.30889289799295
 31
0.0
  0
LINE
  5
1F02F
  8
01
  6
BYBLOCK
 10
13438.715073852
 20
16.99925437430698
 30
0.0
 11
13456.59674051867
 21
16.99925437430698
 31
0.0
  0
LINE
  5
1F031
  8
01
  6
BYBLOCK
 10
13432.79805954847
 20
8.429073196283417
 30
0.0
 11
13438.355073852
 21
16.99925437430698
 31
0.0
  0
LINE
  5
1F032
  8
01
  6
BYBLOCK
 10
13438.355073852
 20
16.99925437430698
 30
0.0
 11
13438.715073852
 21
16.99925437430698
 31
0.0
  0
LINE
  5
1F033
  8
01
 10
13301.20201822802
 20
-38.33629112278379
 30
0.0
 11
13301.20201822802
 21
61.41969097970309
 31
0.0
1001
ACAD
1000
DSTYLE
1002
{
1070
   340
1005
15304
1070
    70
1070
     0
1070
    69
1070
     0
1002
}
  0
LINE
  5
1F034
  8
01
 10
13369.70201822802
 20
-8.000745352796798
 30
0.0
 11
13369.70201822802
 21
61.41969097970309
 31
0.0
1001
ACAD
1000
DSTYLE
1002
{
1070
   340
1005
15304
1070
    70
1070
     0
1070
    69
1070
     0
1002
}
  0
LINE
  5
1F035
  8
01
 10
13303.50201822802
 20
60.41969097970309
 30
0.0
 11
13367.40201822803
 21
60.41969097970309
 31
0.0
1001
ACAD
1000
DSTYLE
1002
{
1070
   340
1005
15304
1070
    70
1070
     0
1070
    69
1070
     0
1002
}
  0
LINE
  5
1F039
  8
01
 10
13353.70201822802
 20
17.9992546472032
 30
0.0
 11
13353.70201822802
 21
48.52447281345223
 31
0.0
1001
ACAD
1000
DSTYLE
1002
{
1070
   340
1005
15304
1070
    70
1070
     0
1070
    69
1070
     0
1002
}
  0
LINE
  5
1F03A
  8
01
 10
13369.70201822802
 20
-8.000745352796798
 30
0.0
 11
13369.70201822802
 21
48.52447281345223
 31
0.0
1001
ACAD
1000
DSTYLE
1002
{
1070
   340
1005
15304
1070
    70
1070
     0
1070
    69
1070
     0
1002
}
  0
LINE
  5
1F03B
  8
01
 10
13356.00201822802
 20
47.52447281345223
 30
0.0
 11
13367.40201822803
 21
47.52447281345223
 31
0.0
1001
ACAD
1000
DSTYLE
1002
{
1070
   340
1005
15304
1070
    70
1070
     0
1070
    69
1070
     0
1002
}
  0
LINE
  5
1F03F
  8
01
 10
13353.70201822802
 20
17.9992546472032
 30
0.0
 11
13353.70201822802
 21
48.52447281345223
 31
0.0
1001
ACAD
1000
DSTYLE
1002
{
1070
   340
1005
15304
1070
    70
1070
     0
1070
    69
1070
     0
1002
}
  0
LINE
  5
1F040
  8
01
 10
13313.70201822802
 20
-26.32276597420366
 30
0.0
 11
13313.70201822802
 21
48.52447281345223
 31
0.0
1001
ACAD
1000
DSTYLE
1002
{
1070
   340
1005
15304
1070
    70
1070
     0
1070
    69
1070
     0
1002
}
  0
LINE
  5
1F041
  8
01
 10
13351.40201822803
 20
47.52447281345223
 30
0.0
 11
13316.00201822802
 21
47.52447281345223
 31
0.0
1001
ACAD
1000
DSTYLE
1002
{
1070
   340
1005
15304
1070
    70
1070
     0
1070
    69
1070
     0
1002
}
  0
LINE
  5
1F045
  8
01
 10
13313.70201822802
 20
-26.32276597420366
 30
0.0
 11
13313.70201822802
 21
48.52447281345223
 31
0.0
1001
ACAD
1000
DSTYLE
1002
{
1070
   340
1005
15304
1070
    70
1070
     0
1070
    69
1070
     0
1002
}
  0
LINE
  5
1F046
  8
01
 10
13301.20201822802
 20
-38.33629112278379
 30
0.0
 11
13301.20201822802
 21
48.52447281345223
 31
0.0
1001
ACAD
1000
DSTYLE
1002
{
1070
   340
1005
15304
1070
    70
1070
     0
1070
    69
1070
     0
1002
}
  0
LINE
  5
1F047
  8
01
 10
13298.90201822803
 20
47.52447281345223
 30
0.0
 11
13275.93535156136
 21
47.52447281345223
 31
0.0
1001
ACAD
1000
DSTYLE
1002
{
1070
   340
1005
15304
1070
    70
1070
     0
1070
    69
1070
     0
1002
}
  0
LINE
  5
1F048
  8
01
 10
13313.70201822802
 20
47.52447281345223
 30
0.0
 11
13301.20201822802
 21
47.52447281345223
 31
0.0
1001
ACAD
1000
DSTYLE
1002
{
1070
   340
1005
15304
1070
    70
1070
     0
1070
    69
1070
     0
1002
}
  0
LINE
  5
1F049
  8
01
 10
13316.00201822802
 20
47.52447281345223
 30
0.0
 11
13318.30201822802
 21
47.52447281345223
 31
0.0
1001
ACAD
1000
DSTYLE
1002
{
1070
   340
1005
15304
1070
    70
1070
     0
1070
    69
1070
     0
1002
}
  0
LINE
  5
1F04D
  8
01
 10
13354.70201822803
 20
-25.00074535279873
 30
0.0
 11
13402.35255007507
 21
-25.00074535279873
 31
0.0
1001
ACAD
1000
DSTYLE
1002
{
1070
   340
1005
15304
1070
    70
1070
     0
1070
    69
1070
     0
1002
}
  0
LINE
  5
1F04E
  8
01
 10
13354.70201822802
 20
6.999254647199109
 30
0.0
 11
13402.35255007507
 21
6.999254647199106
 31
0.0
1001
ACAD
1000
DSTYLE
1002
{
1070
   340
1005
15304
1070
    70
1070
     0
1070
    69
1070
     0
1002
}
  0
LINE
  5
1F04F
  8
01
 10
13401.35255007507
 20
-22.70074535279873
 30
0.0
 11
13401.35255007507
 21
4.699254647199107
 31
0.0
1001
ACAD
1000
DSTYLE
1002
{
1070
   340
1005
15304
1070
    70
1070
     0
1070
    69
1070
     0
1002
}
  0
LINE
  5
1F053
  8
01
 10
13354.70201822802
 20
-25.000745352801
 30
0.0
 11
13402.35255007507
 21
-25.00074535280101
 31
0.0
1001
ACAD
1000
DSTYLE
1002
{
1070
   340
1005
15304
1070
    70
1070
     0
1070
    69
1070
     0
1002
}
  0
LINE
  5
1F054
  8
01
 10
13402.35255007507
 20
-60.00074535280737
 30
0.0
 11
13402.35255007507
 21
-60.00074535280737
 31
0.0
1001
ACAD
1000
DSTYLE
1002
{
1070
   340
1005
15304
1070
    70
1070
     0
1070
    69
1070
     0
1002
}
  0
LINE
  5
1F055
  8
01
 10
13401.35255007507
 20
-27.30074535280101
 30
0.0
 11
13401.35255007507
 21
-57.70074535280737
 31
0.0
1001
ACAD
1000
DSTYLE
1002
{
1070
   340
1005
15304
1070
    70
1070
     0
1070
    69
1070
     0
1002
}
  0
LINE
  5
1F059
  8
01
 10
13384.81652937098
 20
-60.00074535280078
 30
0.0
 11
13384.81652937098
 21
-60.00074535280078
 31
0.0
1001
ACAD
1000
DSTYLE
1002
{
1070
   340
1005
15304
1070
    70
1070
     0
1070
    69
1070
     0
1002
}
  0
LINE
  5
1F05A
  8
01
 10
13333.10201822802
 20
-52.0007453528076
 30
0.0
 11
13386.81652937098
 21
-52.0007453528076
 31
0.0
1001
ACAD
1000
DSTYLE
1002
{
1070
   340
1005
15304
1070
    70
1070
     0
1070
    69
1070
     0
1002
}
  0
LINE
  5
1F05B
  8
01
 10
13385.81652937098
 20
-49.7007453528076
 30
0.0
 11
13385.81652937098
 21
-20.9007453528076
 31
0.0
1001
ACAD
1000
DSTYLE
1002
{
1070
   340
1005
15304
1070
    70
1070
     0
1070
    69
1070
     0
1002
}
  0
LINE
  5
1F05C
  8
01
 10
13385.81652937098
 20
-60.00074535280078
 30
0.0
 11
13385.81652937098
 21
-52.0007453528076
 31
0.0
1001
ACAD
1000
DSTYLE
1002
{
1070
   340
1005
15304
1070
    70
1070
     0
1070
    69
1070
     0
1002
}
  0
LINE
  5
1F05D
  8
01
 10
13385.81652937098
 20
-62.30074535280077
 30
0.0
 11
13385.81652937098
 21
-64.60074535280077
 31
0.0
1001
ACAD
1000
DSTYLE
1002
{
1070
   340
1005
15304
1070
    70
1070
     0
1070
    69
1070
     0
1002
}
  0
LINE
  5
1F061
  8
01
 10
13415.32091799121
 20
-60.00074535280862
 30
0.0
 11
13415.32091799121
 21
-60.00074535280862
 31
0.0
1001
ACAD
1000
DSTYLE
1002
{
1070
   340
1005
15304
1070
    70
1070
     0
1070
    69
1070
     0
1002
}
  0
LINE
  5
1F062
  8
01
 10
13415.32091799121
 20
-100.0007453528076
 30
0.0
 11
13415.32091799121
 21
-100.0007453528076
 31
0.0
1001
ACAD
1000
DSTYLE
1002
{
1070
   340
1005
15304
1070
    70
1070
     0
1070
    69
1070
     0
1002
}
  0
LINE
  5
1F063
  8
01
 10
13416.32091799121
 20
-62.30074535280862
 30
0.0
 11
13416.32091799121
 21
-97.7007453528076
 31
0.0
1001
ACAD
1000
DSTYLE
1002
{
1070
   340
1005
15304
1070
    70
1070
     0
1070
    69
1070
     0
1002
}
  0
LINE
  5
1F067
  8
01
 10
13417.32091799121
 20
-60.00074535280726
 30
0.0
 11
13417.32091799121
 21
-60.00074535280726
 31
0.0
1001
ACAD
1000
DSTYLE
1002
{
1070
   340
1005
15304
1070
    70
1070
     0
1070
    69
1070
     0
1002
}
  0
LINE
  5
1F068
  8
01
 10
13354.70201822802
 20
6.999254647199109
 30
0.0
 11
13417.32091799121
 21
6.999254647199099
 31
0.0
1001
ACAD
1000
DSTYLE
1002
{
1070
   340
1005
15304
1070
    70
1070
     0
1070
    69
1070
     0
1002
}
  0
LINE
  5
1F069
  8
01
 10
13416.32091799121
 20
-57.70074535280726
 30
0.0
 11
13416.32091799121
 21
4.699254647199099
 31
0.0
1001
ACAD
1000
DSTYLE
1002
{
1070
   340
1005
15304
1070
    70
1070
     0
1070
    69
1070
     0
1002
}
  0
LINE
  5
1F06D
  8
01
 10
13354.70201822803
 20
-135.0007453528125
 30
0.0
 11
13402.35255007507
 21
-135.0007453528125
 31
0.0
1001
ACAD
1000
DSTYLE
1002
{
1070
   340
1005
15304
1070
    70
1070
     0
1070
    69
1070
     0
1002
}
  0
LINE
  5
1F06E
  8
01
 10
13354.70201822802
 20
-167.0007453528103
 30
0.0
 11
13402.35255007507
 21
-167.0007453528103
 31
0.0
1001
ACAD
1000
DSTYLE
1002
{
1070
   340
1005
15304
1070
    70
1070
     0
1070
    69
1070
     0
1002
}
  0
LINE
  5
1F06F
  8
01
 10
13401.35255007507
 20
-137.3007453528125
 30
0.0
 11
13401.35255007507
 21
-164.7007453528103
 31
0.0
1001
ACAD
1000
DSTYLE
1002
{
1070
   340
1005
15304
1070
    70
1070
     0
1070
    69
1070
     0
1002
}
  0
LINE
  5
1F073
  8
01
 10
13354.70201822802
 20
-135.0007453528102
 30
0.0
 11
13402.35255007507
 21
-135.0007453528102
 31
0.0
1001
ACAD
1000
DSTYLE
1002
{
1070
   340
1005
15304
1070
    70
1070
     0
1070
    69
1070
     0
1002
}
  0
LINE
  5
1F074
  8
01
 10
13402.35255007507
 20
-100.000745352804
 30
0.0
 11
13402.35255007507
 21
-100.000745352804
 31
0.0
1001
ACAD
1000
DSTYLE
1002
{
1070
   340
1005
15304
1070
    70
1070
     0
1070
    69
1070
     0
1002
}
  0
LINE
  5
1F075
  8
01
 10
13401.35255007507
 20
-132.7007453528102
 30
0.0
 11
13401.35255007507
 21
-102.300745352804
 31
0.0
1001
ACAD
1000
DSTYLE
1002
{
1070
   340
1005
15304
1070
    70
1070
     0
1070
    69
1070
     0
1002
}
  0
LINE
  5
1F079
  8
01
 10
13415.32091799121
 20
-100.0007453528076
 30
0.0
 11
13415.32091799121
 21
-100.0007453528076
 31
0.0
1001
ACAD
1000
DSTYLE
1002
{
1070
   340
1005
15304
1070
    70
1070
     0
1070
    69
1070
     0
1002
}
  0
LINE
  5
1F07A
  8
01
 10
13354.70201822802
 20
-167.0007453528103
 30
0.0
 11
13417.32091799121
 21
-167.0007453528103
 31
0.0
1001
ACAD
1000
DSTYLE
1002
{
1070
   340
1005
15304
1070
    70
1070
     0
1070
    69
1070
     0
1002
}
  0
LINE
  5
1F07B
  8
01
 10
13416.32091799121
 20
-102.3007453528076
 30
0.0
 11
13416.32091799121
 21
-164.7007453528103
 31
0.0
1001
ACAD
1000
DSTYLE
1002
{
1070
   340
1005
15304
1070
    70
1070
     0
1070
    69
1070
     0
1002
}
  0
LINE
  5
1F07F
  8
01
  6
BYBLOCK
 10
13433.34674051866
 20
60.90857079865191
 30
0.0
 11
13431.04674051866
 21
60.41969070681088
 31
0.0
  0
LINE
  5
1F080
  8
01
  6
BYBLOCK
 10
13431.04674051866
 20
60.41969070681091
 30
0.0
 11
13433.34674051866
 21
60.41969070681085
 31
0.0
  0
LINE
  5
1F081
  8
01
  6
BYBLOCK
 10
13431.04674051866
 20
60.41969070681088
 30
0.0
 11
13433.34674051866
 21
59.93081061497008
 31
0.0
  0
LINE
  5
1F082
  8
01
  6
BYBLOCK
 10
14028.74674051866
 20
59.93081061496991
 30
0.0
 11
14031.04674051866
 21
60.41969070681095
 31
0.0
  0
LINE
  5
1F083
  8
01
  6
BYBLOCK
 10
14031.04674051866
 20
60.41969070681091
 30
0.0
 11
14028.74674051866
 21
60.41969070681098
 31
0.0
  0
LINE
  5
1F084
  8
01
  6
BYBLOCK
 10
14031.04674051866
 20
60.41969070681095
 30
0.0
 11
14028.74674051866
 21
60.90857079865174
 31
0.0
  0
TEXT
  5
1F085
  8
01
  6
CONTINUOUS
 10
13715.73424051866
 20
61.41969070681091
 30
0.0
 40
7.0
  1
L=800
  7
STD
1001
ACAD
1000
DSTYLE
1002
{
1070
   340
1005
15304
1070
    70
1070
     0
1070
    69
1070
     0
1002
}
  0
LINE
  5
1F086
  8
01
  6
BYBLOCK
 10
13893.74674051866
 20
47.03559244871497
 30
0.0
 11
13896.04674051866
 21
47.524472540556
 31
0.0
  0
LINE
  5
1F087
  8
01
  6
BYBLOCK
 10
13896.04674051866
 20
47.52447254055596
 30
0.0
 11
13893.74674051866
 21
47.52447254055603
 31
0.0
  0
LINE
  5
1F088
  8
01
  6
BYBLOCK
 10
13896.04674051866
 20
47.524472540556
 30
0.0
 11
13893.74674051866
 21
48.0133526323968
 31
0.0
  0
LINE
  5
1F089
  8
01
  6
BYBLOCK
 10
13568.34674051866
 20
48.01335263239696
 30
0.0
 11
13566.04674051866
 21
47.52447254055593
 31
0.0
  0
LINE
  5
1F08A
  8
01
  6
BYBLOCK
 10
13566.04674051866
 20
47.52447254055596
 30
0.0
 11
13568.34674051866
 21
47.5244725405559
 31
0.0
  0
LINE
  5
1F08B
  8
01
  6
BYBLOCK
 10
13566.04674051866
 20
47.52447254055593
 30
0.0
 11
13568.34674051866
 21
47.03559244871513
 31
0.0
  0
TEXT
  5
1F08C
  8
01
  6
CONTINUOUS
 10
13704.18910162978
 20
48.53419476277818
 30
0.0
 40
7.0
  1
P=530±0.5
  7
STD
1001
ACAD
1000
DSTYLE
1002
{
1070
   340
1005
15304
1070
    70
1070
     0
1070
    69
1070
     0
1002
}
  0
LINE
  5
1F08D
  8
01
  6
BYBLOCK
 10
13898.34674051866
 20
48.0126016901711
 30
0.0
 11
13896.04674051866
 21
47.52372159833006
 31
0.0
  0
LINE
  5
1F08E
  8
01
  6
BYBLOCK
 10
13896.04674051866
 20
47.5237215983301
 30
0.0
 11
13898.34674051866
 21
47.52372159833003
 31
0.0
  0
LINE
  5
1F08F
  8
01
  6
BYBLOCK
 10
13896.04674051866
 20
47.52372159833006
 30
0.0
 11
13898.34674051866
 21
47.03484150648926
 31
0.0
  0
LINE
  5
1F090
  8
01
  6
BYBLOCK
 10
14028.74674051866
 20
47.0348415064891
 30
0.0
 11
14031.04674051866
 21
47.52372159833013
 31
0.0
  0
LINE
  5
1F091
  8
01
  6
BYBLOCK
 10
14031.04674051866
 20
47.5237215983301
 30
0.0
 11
14028.74674051866
 21
47.52372159833016
 31
0.0
  0
LINE
  5
1F092
  8
01
  6
BYBLOCK
 10
14031.04674051866
 20
47.52372159833013
 30
0.0
 11
14028.74674051866
 21
48.01260169017093
 31
0.0
  0
TEXT
  5
1F093
  8
01
  6
CONTINUOUS
 10
13955.380073852
 20
48.52858270944121
 30
0.0
 40
7.0
  1
135
  7
STD
1001
ACAD
1000
DSTYLE
1002
{
1070
   340
1005
15304
1070
    70
1070
     0
1070
    69
1070
     0
1002
}
  0
LINE
  5
1F094
  8
01
  6
BYBLOCK
 10
13563.74674051867
 20
47.03559244871904
 30
0.0
 11
13566.04674051867
 21
47.52447254056008
 31
0.0
  0
LINE
  5
1F095
  8
01
  6
BYBLOCK
 10
13566.04674051867
 20
47.52447254056004
 30
0.0
 11
13563.74674051867
 21
47.5244725405601
 31
0.0
  0
LINE
  5
1F096
  8
01
  6
BYBLOCK
 10
13566.04674051867
 20
47.52447254056008
 30
0.0
 11
13563.74674051867
 21
48.01335263240087
 31
0.0
  0
LINE
  5
1F097
  8
01
  6
BYBLOCK
 10
13433.34674051866
 20
48.01335263240105
 30
0.0
 11
13431.04674051866
 21
47.52447254056002
 31
0.0
  0
LINE
  5
1F098
  8
01
  6
BYBLOCK
 10
13431.04674051866
 20
47.52447254056005
 30
0.0
 11
13433.34674051866
 21
47.52447254055999
 31
0.0
  0
LINE
  5
1F099
  8
01
  6
BYBLOCK
 10
13431.04674051866
 20
47.52447254056002
 30
0.0
 11
13433.34674051866
 21
47.03559244871922
 31
0.0
  0
TEXT
  5
1F09A
  8
01
  6
CONTINUOUS
 10
13490.380073852
 20
48.52933365167116
 30
0.0
 40
7.0
  1
135
 50
0.000000000000006
  7
STD
1001
ACAD
1000
DSTYLE
1002
{
1070
   340
1005
15304
1070
    70
1070
     0
1070
    69
1070
     0
1002
}
  0
TEXT
  5
1F09B
  8
01
  6
CONTINUOUS
 10
13438.805073852
 20
18.39925437430698
 30
0.0
 40
7.0
  1
C1.0
  7
STD
  0
LINE
  5
1F09C
  8
01
  6
BYBLOCK
 10
13433.31515293867
 20
8.093783275815657
 30
0.0
 11
13431.54674051866
 21
6.499254374308521
 31
0.0
  0
LINE
  5
1F09D
  8
01
  6
BYBLOCK
 10
13431.54674051866
 20
6.499254374308521
 30
0.0
 11
13432.28096615827
 21
8.764363116751177
 31
0.0
  0
LINE
  5
1F09E
  8
01
  6
BYBLOCK
 10
13431.54674051866
 20
6.499254374308521
 30
0.0
 11
13432.79805954847
 21
8.429073196283417
 31
0.0
  0
LINE
  5
1F09F
  8
01
  6
BYBLOCK
 10
13303.50201822802
 20
60.90857107154409
 30
0.0
 11
13301.20201822802
 21
60.41969097970306
 31
0.0
  0
LINE
  5
1F0A0
  8
01
  6
BYBLOCK
 10
13301.20201822802
 20
60.41969097970309
 30
0.0
 11
13303.50201822802
 21
60.41969097970303
 31
0.0
  0
LINE
  5
1F0A1
  8
01
  6
BYBLOCK
 10
13301.20201822802
 20
60.41969097970306
 30
0.0
 11
13303.50201822802
 21
59.93081088786226
 31
0.0
  0
LINE
  5
1F0A2
  8
01
  6
BYBLOCK
 10
13367.40201822803
 20
59.93081088786209
 30
0.0
 11
13369.70201822803
 21
60.41969097970313
 31
0.0
  0
LINE
  5
1F0A3
  8
01
  6
BYBLOCK
 10
13369.70201822803
 20
60.41969097970309
 30
0.0
 11
13367.40201822803
 21
60.41969097970316
 31
0.0
  0
LINE
  5
1F0A4
  8
01
  6
BYBLOCK
 10
13369.70201822803
 20
60.41969097970313
 30
0.0
 11
13367.40201822803
 21
60.90857107154392
 31
0.0
  0
TEXT
  5
1F0A5
  8
01
  6
CONTINUOUS
 10
13324.92771267247
 20
61.4245520908142
 30
0.0
 40
7.0
  1
68.5
  7
STD
1001
ACAD
1000
DSTYLE
1002
{
1070
   340
1005
15304
1070
    70
1070
     0
1070
    69
1070
     0
1002
}
  0
LINE
  5
1F0A6
  8
01
  6
BYBLOCK
 10
13356.00201822802
 20
48.01335290529323
 30
0.0
 11
13353.70201822802
 21
47.5244728134522
 31
0.0
  0
LINE
  5
1F0A7
  8
01
  6
BYBLOCK
 10
13353.70201822802
 20
47.52447281345223
 30
0.0
 11
13356.00201822802
 21
47.52447281345217
 31
0.0
  0
LINE
  5
1F0A8
  8
01
  6
BYBLOCK
 10
13353.70201822802
 20
47.5244728134522
 30
0.0
 11
13356.00201822802
 21
47.0355927216114
 31
0.0
  0
LINE
  5
1F0A9
  8
01
  6
BYBLOCK
 10
13367.40201822803
 20
47.03559272161124
 30
0.0
 11
13369.70201822803
 21
47.52447281345227
 31
0.0
  0
LINE
  5
1F0AA
  8
01
  6
BYBLOCK
 10
13369.70201822803
 20
47.52447281345223
 30
0.0
 11
13367.40201822803
 21
47.5244728134523
 31
0.0
  0
LINE
  5
1F0AB
  8
01
  6
BYBLOCK
 10
13369.70201822803
 20
47.52447281345227
 30
0.0
 11
13367.40201822803
 21
48.01335290529307
 31
0.0
  0
TEXT
  5
1F0AC
  8
01
  6
CONTINUOUS
 10
13357.03535156136
 20
48.52447281345223
 30
0.0
 40
7.0
  1
16
  7
STD
1001
ACAD
1000
DSTYLE
1002
{
1070
   340
1005
15304
1070
    70
1070
     0
1070
    69
1070
     0
1002
}
  0
LINE
  5
1F0AD
  8
01
  6
BYBLOCK
 10
13351.40201822803
 20
47.03559272161124
 30
0.0
 11
13353.70201822803
 21
47.52447281345227
 31
0.0
  0
LINE
  5
1F0AE
  8
01
  6
BYBLOCK
 10
13353.70201822803
 20
47.52447281345223
 30
0.0
 11
13351.40201822803
 21
47.5244728134523
 31
0.0
  0
LINE
  5
1F0AF
  8
01
  6
BYBLOCK
 10
13353.70201822803
 20
47.52447281345227
 30
0.0
 11
13351.40201822803
 21
48.01335290529307
 31
0.0
  0
LINE
  5
1F0B0
  8
01
  6
BYBLOCK
 10
13316.00201822802
 20
48.01335290529323
 30
0.0
 11
13313.70201822802
 21
47.5244728134522
 31
0.0
  0
LINE
  5
1F0B1
  8
01
  6
BYBLOCK
 10
13313.70201822802
 20
47.52447281345223
 30
0.0
 11
13316.00201822802
 21
47.52447281345217
 31
0.0
  0
LINE
  5
1F0B2
  8
01
  6
BYBLOCK
 10
13313.70201822802
 20
47.5244728134522
 30
0.0
 11
13316.00201822802
 21
47.0355927216114
 31
0.0
  0
TEXT
  5
1F0B3
  8
01
  6
CONTINUOUS
 10
13328.30618489469
 20
48.52447281345223
 30
0.0
 40
7.0
  1
40
  7
STD
1001
ACAD
1000
DSTYLE
1002
{
1070
   340
1005
15304
1070
    70
1070
     0
1070
    69
1070
     0
1002
}
  0
LINE
  5
1F0B4
  8
01
  6
BYBLOCK
 10
13316.00201822802
 20
48.01335290529323
 30
0.0
 11
13313.70201822802
 21
47.5244728134522
 31
0.0
  0
LINE
  5
1F0B5
  8
01
  6
BYBLOCK
 10
13313.70201822802
 20
47.52447281345223
 30
0.0
 11
13316.00201822802
 21
47.52447281345217
 31
0.0
  0
LINE
  5
1F0B6
  8
01
  6
BYBLOCK
 10
13313.70201822802
 20
47.5244728134522
 30
0.0
 11
13316.00201822802
 21
47.0355927216114
 31
0.0
  0
LINE
  5
1F0B7
  8
01
  6
BYBLOCK
 10
13298.90201822803
 20
47.03559272161124
 30
0.0
 11
13301.20201822803
 21
47.52447281345227
 31
0.0
  0
LINE
  5
1F0B8
  8
01
  6
BYBLOCK
 10
13301.20201822803
 20
47.52447281345223
 30
0.0
 11
13298.90201822803
 21
47.5244728134523
 31
0.0
  0
LINE
  5
1F0B9
  8
01
  6
BYBLOCK
 10
13301.20201822803
 20
47.52447281345227
 30
0.0
 11
13298.90201822803
 21
48.01335290529307
 31
0.0
  0
TEXT
  5
1F0BA
  8
01
  6
CONTINUOUS
 10
13276.93535156136
 20
48.52933392456335
 30
0.0
 40
7.0
  1
12.5
  7
STD
1001
ACAD
1000
DSTYLE
1002
{
1070
   340
1005
15304
1070
    70
1070
     0
1070
    69
1070
     0
1002
}
  0
LINE
  5
1F0BB
  8
01
  6
BYBLOCK
 10
13400.86366998323
 20
-22.70074535279985
 30
0.0
 11
13401.35255007507
 21
-25.00074535280007
 31
0.0
  0
LINE
  5
1F0BC
  8
01
  6
BYBLOCK
 10
13401.35255007507
 20
-25.00074535279985
 30
0.0
 11
13401.35255007507
 21
-22.70074535279985
 31
0.0
  0
LINE
  5
1F0BD
  8
01
  6
BYBLOCK
 10
13401.35255007507
 20
-25.00074535280007
 30
0.0
 11
13401.84143016692
 21
-22.70074535279985
 31
0.0
  0
LINE
  5
1F0BE
  8
01
  6
BYBLOCK
 10
13401.84143016692
 20
4.699254647200218
 30
0.0
 11
13401.35255007507
 21
6.999254647200447
 31
0.0
  0
LINE
  5
1F0BF
  8
01
  6
BYBLOCK
 10
13401.35255007507
 20
6.999254647200218
 30
0.0
 11
13401.35255007507
 21
4.699254647200218
 31
0.0
  0
LINE
  5
1F0C0
  8
01
  6
BYBLOCK
 10
13401.35255007507
 20
6.999254647200447
 30
0.0
 11
13400.86366998323
 21
4.699254647200218
 31
0.0
  0
TEXT
  5
1F0C1
  8
01
  6
CONTINUOUS
 10
13400.35255007507
 20
-18.33407868613358
 30
0.0
 40
7.0
  1
\U+2205
 50
90.0
  7
STD
1001
ACAD
1000
DSTYLE
1002
{
1070
   340
1005
15304
1070
    70
1070
     0
1070
    69
1070
     0
1002
}
  0
TEXT
  5
1F0C2
  8
01
  6
CONTINUOUS
 10
13400.35255007507
 20
-11.33407868613358
 30
0.0
 40
7.0
  1
32
 50
90.0
  7
STD
1001
ACAD
1000
DSTYLE
1002
{
1070
   340
1005
15304
1070
    70
1070
     0
1070
    69
1070
     0
1002
}
  0
LINE
  5
1F0C3
  8
01
  6
BYBLOCK
 10
13401.84143016692
 20
-27.3007453527999
 30
0.0
 11
13401.35255007507
 21
-25.00074535279967
 31
0.0
  0
LINE
  5
1F0C4
  8
01
  6
BYBLOCK
 10
13401.35255007507
 20
-25.0007453527999
 30
0.0
 11
13401.35255007507
 21
-27.3007453527999
 31
0.0
  0
LINE
  5
1F0C5
  8
01
  6
BYBLOCK
 10
13401.35255007507
 20
-25.00074535279967
 30
0.0
 11
13400.86366998323
 21
-27.3007453527999
 31
0.0
  0
LINE
  5
1F0C6
  8
01
  6
BYBLOCK
 10
13400.86366998323
 20
-57.70074535280848
 30
0.0
 11
13401.35255007507
 21
-60.00074535280871
 31
0.0
  0
LINE
  5
1F0C7
  8
01
  6
BYBLOCK
 10
13401.35255007507
 20
-60.00074535280848
 30
0.0
 11
13401.35255007507
 21
-57.70074535280848
 31
0.0
  0
LINE
  5
1F0C8
  8
01
  6
BYBLOCK
 10
13401.35255007507
 20
-60.00074535280871
 30
0.0
 11
13401.84143016692
 21
-57.70074535280848
 31
0.0
  0
TEXT
  5
1F0C9
  8
01
  6
CONTINUOUS
 10
13400.34768896396
 20
-48.33407868613904
 30
0.0
 40
7.0
  1
35
 50
90.0
  7
STD
1001
ACAD
1000
DSTYLE
1002
{
1070
   340
1005
15304
1070
    70
1070
     0
1070
    69
1070
     0
1002
}
  0
LINE
  5
1F0CA
  8
01
  6
BYBLOCK
 10
13386.30540946282
 20
-62.30074535279967
 30
0.0
 11
13385.81652937098
 21
-60.00074535279943
 31
0.0
  0
LINE
  5
1F0CB
  8
01
  6
BYBLOCK
 10
13385.81652937098
 20
-60.00074535279967
 30
0.0
 11
13385.81652937098
 21
-62.30074535279967
 31
0.0
  0
LINE
  5
1F0CC
  8
01
  6
BYBLOCK
 10
13385.81652937098
 20
-60.00074535279943
 30
0.0
 11
13385.32764927913
 21
-62.30074535279967
 31
0.0
  0
LINE
  5
1F0CD
  8
01
  6
BYBLOCK
 10
13385.32764927913
 20
-49.70074535280871
 30
0.0
 11
13385.81652937098
 21
-52.00074535280894
 31
0.0
  0
LINE
  5
1F0CE
  8
01
  6
BYBLOCK
 10
13385.81652937098
 20
-52.00074535280871
 30
0.0
 11
13385.81652937098
 21
-49.70074535280871
 31
0.0
  0
LINE
  5
1F0CF
  8
01
  6
BYBLOCK
 10
13385.81652937098
 20
-52.00074535280894
 30
0.0
 11
13386.30540946282
 21
-49.70074535280871
 31
0.0
  0
TEXT
  5
1F0D0
  8
01
  6
CONTINUOUS
 10
13384.81652937098
 20
-46.40074535280837
 30
0.0
 40
7.0
  1
8
 50
90.0
  7
STD
1001
ACAD
1000
DSTYLE
1002
{
1070
   340
1005
15304
1070
    70
1070
     0
1070
    69
1070
     0
1002
}
  0
TEXT
  5
1F0D1
  8
01
  6
CONTINUOUS
 10
13384.81652937098
 20
-39.40074535280837
 30
0.0
 40
7.0
  1
±0.1
 50
90.0
  7
STD
1001
ACAD
1000
DSTYLE
1002
{
1070
   340
1005
15304
1070
    70
1070
     0
1070
    69
1070
     0
1002
}
  0
LINE
  5
1F0D2
  8
01
  6
BYBLOCK
 10
13416.80979808306
 20
-62.30074535280751
 30
0.0
 11
13416.32091799121
 21
-60.00074535280728
 31
0.0
  0
LINE
  5
1F0D3
  8
01
  6
BYBLOCK
 10
13416.32091799121
 20
-60.00074535280751
 30
0.0
 11
13416.32091799121
 21
-62.30074535280751
 31
0.0
  0
LINE
  5
1F0D4
  8
01
  6
BYBLOCK
 10
13416.32091799121
 20
-60.00074535280728
 30
0.0
 11
13415.83203789937
 21
-62.30074535280751
 31
0.0
  0
LINE
  5
1F0D5
  8
01
  6
BYBLOCK
 10
13415.83203789937
 20
-97.70074535280871
 30
0.0
 11
13416.32091799121
 21
-100.0007453528089
 31
0.0
  0
LINE
  5
1F0D6
  8
01
  6
BYBLOCK
 10
13416.32091799121
 20
-100.0007453528087
 30
0.0
 11
13416.32091799121
 21
-97.70074535280871
 31
0.0
  0
LINE
  5
1F0D7
  8
01
  6
BYBLOCK
 10
13416.32091799121
 20
-100.0007453528089
 30
0.0
 11
13416.80979808306
 21
-97.70074535280871
 31
0.0
  0
TEXT
  5
1F0D8
  8
01
  6
CONTINUOUS
 10
13415.32091799121
 20
-95.89657868614267
 30
0.0
 40
7.0
  1
DT=
 50
90.0
  7
STD
1001
ACAD
1000
DSTYLE
1002
{
1070
   340
1005
15304
1070
    70
1070
     0
1070
    69
1070
     0
1002
}
  0
TEXT
  5
1F0D9
  8
01
  6
CONTINUOUS
 10
13415.32091799121
 20
-74.89657868614267
 30
0.0
 40
7.0
  1
40
 50
90.0
  7
STD
1001
ACAD
1000
DSTYLE
1002
{
1070
   340
1005
15304
1070
    70
1070
     0
1070
    69
1070
     0
1002
}
  0
LINE
  5
1F0DA
  8
01
  6
BYBLOCK
 10
13415.83203789937
 20
-57.70074535280837
 30
0.0
 11
13416.32091799121
 21
-60.0007453528086
 31
0.0
  0
LINE
  5
1F0DB
  8
01
  6
BYBLOCK
 10
13416.32091799121
 20
-60.00074535280837
 30
0.0
 11
13416.32091799121
 21
-57.70074535280837
 31
0.0
  0
LINE
  5
1F0DC
  8
01
  6
BYBLOCK
 10
13416.32091799121
 20
-60.0007453528086
 30
0.0
 11
13416.80979808306
 21
-57.70074535280837
 31
0.0
  0
LINE
  5
1F0DD
  8
01
  6
BYBLOCK
 10
13416.80979808306
 20
4.699254647200211
 30
0.0
 11
13416.32091799121
 21
6.99925464720044
 31
0.0
  0
LINE
  5
1F0DE
  8
01
  6
BYBLOCK
 10
13416.32091799121
 20
6.99925464720021
 30
0.0
 11
13416.32091799121
 21
4.699254647200211
 31
0.0
  0
LINE
  5
1F0DF
  8
01
  6
BYBLOCK
 10
13416.32091799121
 20
6.99925464720044
 30
0.0
 11
13415.83203789937
 21
4.699254647200211
 31
0.0
  0
TEXT
  5
1F0E0
  8
01
  6
CONTINUOUS
 10
13415.32091799121
 20
-32.35838424169197
 30
0.0
 40
7.0
  1
67
 50
90.0
  7
STD
1001
ACAD
1000
DSTYLE
1002
{
1070
   340
1005
15304
1070
    70
1070
     0
1070
    69
1070
     0
1002
}
  0
LINE
  5
1F0E1
  8
01
  6
BYBLOCK
 10
13401.84143016692
 20
-137.3007453528114
 30
0.0
 11
13401.35255007507
 21
-135.0007453528112
 31
0.0
  0
LINE
  5
1F0E2
  8
01
  6
BYBLOCK
 10
13401.35255007507
 20
-135.0007453528114
 30
0.0
 11
13401.35255007507
 21
-137.3007453528114
 31
0.0
  0
LINE
  5
1F0E3
  8
01
  6
BYBLOCK
 10
13401.35255007507
 20
-135.0007453528112
 30
0.0
 11
13400.86366998323
 21
-137.3007453528114
 31
0.0
  0
LINE
  5
1F0E4
  8
01
  6
BYBLOCK
 10
13400.86366998323
 20
-164.7007453528115
 30
0.0
 11
13401.35255007507
 21
-167.0007453528117
 31
0.0
  0
LINE
  5
1F0E5
  8
01
  6
BYBLOCK
 10
13401.35255007507
 20
-167.0007453528114
 30
0.0
 11
13401.35255007507
 21
-164.7007453528115
 31
0.0
  0
LINE
  5
1F0E6
  8
01
  6
BYBLOCK
 10
13401.35255007507
 20
-167.0007453528117
 30
0.0
 11
13401.84143016692
 21
-164.7007453528115
 31
0.0
  0
TEXT
  5
1F0E7
  8
01
  6
CONTINUOUS
 10
13400.35255007507
 20
-160.3340786861445
 30
0.0
 40
7.0
  1
\U+2205
 50
90.0
  7
STD
1001
ACAD
1000
DSTYLE
1002
{
1070
   340
1005
15304
1070
    70
1070
     0
1070
    69
1070
     0
1002
}
  0
TEXT
  5
1F0E8
  8
01
  6
CONTINUOUS
 10
13400.35255007507
 20
-153.3340786861445
 30
0.0
 40
7.0
  1
32
 50
90.0
  7
STD
1001
ACAD
1000
DSTYLE
1002
{
1070
   340
1005
15304
1070
    70
1070
     0
1070
    69
1070
     0
1002
}
  0
LINE
  5
1F0E9
  8
01
  6
BYBLOCK
 10
13400.86366998323
 20
-132.7007453528113
 30
0.0
 11
13401.35255007507
 21
-135.0007453528115
 31
0.0
  0
LINE
  5
1F0EA
  8
01
  6
BYBLOCK
 10
13401.35255007507
 20
-135.0007453528113
 30
0.0
 11
13401.35255007507
 21
-132.7007453528113
 31
0.0
  0
LINE
  5
1F0EB
  8
01
  6
BYBLOCK
 10
13401.35255007507
 20
-135.0007453528115
 30
0.0
 11
13401.84143016692
 21
-132.7007453528113
 31
0.0
  0
LINE
  5
1F0EC
  8
01
  6
BYBLOCK
 10
13401.84143016692
 20
-102.3007453528028
 30
0.0
 11
13401.35255007507
 21
-100.0007453528026
 31
0.0
  0
LINE
  5
1F0ED
  8
01
  6
BYBLOCK
 10
13401.35255007507
 20
-100.0007453528029
 30
0.0
 11
13401.35255007507
 21
-102.3007453528028
 31
0.0
  0
LINE
  5
1F0EE
  8
01
  6
BYBLOCK
 10
13401.35255007507
 20
-100.0007453528026
 30
0.0
 11
13400.86366998323
 21
-102.3007453528028
 31
0.0
  0
TEXT
  5
1F0EF
  8
01
  6
CONTINUOUS
 10
13400.34768896396
 20
-123.3340786861409
 30
0.0
 40
7.0
  1
35
 50
90.0
  7
STD
1001
ACAD
1000
DSTYLE
1002
{
1070
   340
1005
15304
1070
    70
1070
     0
1070
    69
1070
     0
1002
}
  0
LINE
  5
1F0F0
  8
01
  6
BYBLOCK
 10
13416.80979808306
 20
-102.3007453528065
 30
0.0
 11
13416.32091799121
 21
-100.0007453528063
 31
0.0
  0
LINE
  5
1F0F1
  8
01
  6
BYBLOCK
 10
13416.32091799121
 20
-100.0007453528065
 30
0.0
 11
13416.32091799121
 21
-102.3007453528065
 31
0.0
  0
LINE
  5
1F0F2
  8
01
  6
BYBLOCK
 10
13416.32091799121
 20
-100.0007453528063
 30
0.0
 11
13415.83203789937
 21
-102.3007453528065
 31
0.0
  0
LINE
  5
1F0F3
  8
01
  6
BYBLOCK
 10
13415.83203789937
 20
-164.7007453528115
 30
0.0
 11
13416.32091799121
 21
-167.0007453528117
 31
0.0
  0
LINE
  5
1F0F4
  8
01
  6
BYBLOCK
 10
13416.32091799121
 20
-167.0007453528114
 30
0.0
 11
13416.32091799121
 21
-164.7007453528115
 31
0.0
  0
LINE
  5
1F0F5
  8
01
  6
BYBLOCK
 10
13416.32091799121
 20
-167.0007453528117
 30
0.0
 11
13416.80979808306
 21
-164.7007453528115
 31
0.0
  0
TEXT
  5
1F0F6
  8
01
  6
CONTINUOUS
 10
13415.32091799121
 20
-139.3583842416974
 30
0.0
 40
7.0
  1
67
 50
90.0
  7
STD
1001
ACAD
1000
DSTYLE
1002
{
1070
   340
1005
15304
1070
    70
1070
     0
1070
    69
1070
     0
1002
}
  0
VIEWPORT
  5
57
 67
     1
  8
0
 10
0.0
 20
0.0
 30
0.0
 40
629.8767123287671
 41
297.0
 68
     1
 69
     1
1001
ACAD
1000
MVIEW
1002
{
1070
    16
1010
0.0
1020
0.0
1030
0.0
1010
0.0
1020
0.0
1030
1.0
1040
0.0
1040
297.0
1040
-4.171999999925305
1040
12.83903210976956
1040
50.0
1040
0.0
1040
0.0
1070
    16
1070
   100
1070
     0
1070
     1
1070
     0
1070
     0
1070
     0
1070
     0
1040
0.0
1040
0.0
1040
0.0
1040
10.0
1040
10.0
1040
10.0
1040
10.0
1070
     0
1002
{
1002
}
1002
}
  0
ENDSEC
  0
EOF
