  0
SECTION
  2
HEADER
  9
$ACADVER
  1
AC1009
  9
$DWGCODEPAGE
  3
ansi_932
  9
$INSBASE
 10
0.0
 20
0.0
 30
0.0
  9
$EXTMIN
 10
1410.549913835526
 20
-1506.499999591895
 30
0.0
  9
$EXTMAX
 10
3787.928581106246
 20
-490.2914808764522
 30
0.0000000000060347
  9
$LIMMIN
 10
0.0
 20
0.0
  9
$LIMMAX
 10
420.0
 20
297.0
  9
$ORTHOMODE
 70
     0
  9
$REGENMODE
 70
     1
  9
$FILLMODE
 70
     1
  9
$QTEXTMODE
 70
     0
  9
$MIRRTEXT
 70
     0
  9
$DRAGMODE
 70
     2
  9
$LTSCALE
 40
0.5
  9
$OSMODE
 70
  2175
  9
$ATTMODE
 70
     1
  9
$TEXTSIZE
 40
4.0
  9
$TRACEWID
 40
1.0
  9
$TEXTSTYLE
  7
STANDARD
  9
$CLAYER
  8
1TEXT
  9
$CELTYPE
  6
BYLAYER
  9
$CECOLOR
 62
   256
  9
$DIMSCALE
 40
3.0
  9
$DIMASZ
 40
2.0
  9
$DIMEXO
 40
0.0
  9
$DIMDLI
 40
7.0
  9
$DIMRND
 40
0.0
  9
$DIMDLE
 40
0.0
  9
$DIMEXE
 40
1.0
  9
$DIMTP
 40
0.0
  9
$DIMTM
 40
0.0
  9
$DIMTXT
 40
3.5
  9
$DIMCEN
 40
0.0
  9
$DIMTSZ
 40
0.0
  9
$DIMTOL
 70
     0
  9
$DIMLIM
 70
     0
  9
$DIMTIH
 70
     0
  9
$DIMTOH
 70
     0
  9
$DIMSE1
 70
     0
  9
$DIMSE2
 70
     0
  9
$DIMTAD
 70
     1
  9
$DIMZIN
 70
     8
  9
$DIMBLK
  1

  9
$DIMASO
 70
     1
  9
$DIMSHO
 70
     1
  9
$DIMPOST
  1
 
  9
$DIMAPOST
  1

  9
$DIMALT
 70
     0
  9
$DIMALTD
 70
     2
  9
$DIMALTF
 40
25.4
  9
$DIMLFAC
 40
1.0
  9
$DIMTOFL
 70
     1
  9
$DIMTVP
 40
0.0
  9
$DIMTIX
 70
     0
  9
$DIMSOXD
 70
     0
  9
$DIMSAH
 70
     1
  9
$DIMBLK1
  1
OPEN30
  9
$DIMBLK2
  1
OPEN30
  9
$DIMSTYLE
  2
NEWX10
  9
$DIMCLRD
 70
     0
  9
$DIMCLRE
 70
     0
  9
$DIMCLRT
 70
   201
  9
$DIMTFAC
 40
0.7
  9
$DIMGAP
 40
0.7
  9
$LUNITS
 70
     2
  9
$LUPREC
 70
     4
  9
$SKETCHINC
 40
1.0
  9
$FILLETRAD
 40
0.0
  9
$AUNITS
 70
     0
  9
$AUPREC
 70
     2
  9
$MENU
  1
acad
  9
$ELEVATION
 40
0.0
  9
$PELEVATION
 40
0.0
  9
$THICKNESS
 40
0.0
  9
$LIMCHECK
 70
     0
  9
$CHAMFERA
 40
1.0
  9
$CHAMFERB
 40
1.0
  9
$SKPOLY
 70
     0
  9
$TDCREATE
 40
2453033.732663484
  9
$TDUPDATE
 40
2460714.68580544
  9
$TDINDWG
 40
2.8782425463
  9
$TDUSRTIMER
 40
2.8782425579
  9
$USRTIMER
 70
     1
  9
$ANGBASE
 50
0.0
  9
$ANGDIR
 70
     0
  9
$PDMODE
 70
     0
  9
$PDSIZE
 40
0.0
  9
$PLINEWID
 40
0.0
  9
$COORDS
 70
     2
  9
$SPLFRAME
 70
     0
  9
$SPLINETYPE
 70
     6
  9
$SPLINESEGS
 70
     8
  9
$ATTDIA
 70
     0
  9
$ATTREQ
 70
     1
  9
$HANDLING
 70
     1
  9
$HANDSEED
  5
2695C
  9
$SURFTAB1
 70
     6
  9
$SURFTAB2
 70
     6
  9
$SURFTYPE
 70
     6
  9
$SURFU
 70
     6
  9
$SURFV
 70
     6
  9
$UCSNAME
  2

  9
$UCSORG
 10
0.0
 20
0.0
 30
0.0
  9
$UCSXDIR
 10
1.0
 20
0.0
 30
0.0
  9
$UCSYDIR
 10
0.0
 20
1.0
 30
0.0
  9
$PUCSNAME
  2

  9
$PUCSORG
 10
0.0
 20
0.0
 30
0.0
  9
$PUCSXDIR
 10
1.0
 20
0.0
 30
0.0
  9
$PUCSYDIR
 10
0.0
 20
1.0
 30
0.0
  9
$USERI1
 70
     0
  9
$USERI2
 70
     0
  9
$USERI3
 70
     0
  9
$USERI4
 70
     0
  9
$USERI5
 70
     0
  9
$USERR1
 40
0.0
  9
$USERR2
 40
0.0
  9
$USERR3
 40
0.0
  9
$USERR4
 40
0.0
  9
$USERR5
 40
0.0
  9
$WORLDVIEW
 70
     1
  9
$SHADEDGE
 70
     3
  9
$SHADEDIF
 70
    70
  9
$TILEMODE
 70
     1
  9
$MAXACTVP
 70
    48
  9
$PLIMCHECK
 70
     0
  9
$PEXTMIN
 10
1.000000000000000E+20
 20
1.000000000000000E+20
 30
1.000000000000000E+20
  9
$PEXTMAX
 10
-1.000000000000000E+20
 20
-1.000000000000000E+20
 30
-1.000000000000000E+20
  9
$PLIMMIN
 10
0.0
 20
0.0
  9
$PLIMMAX
 10
420.0
 20
297.0
  9
$UNITMODE
 70
     0
  9
$VISRETAIN
 70
     1
  9
$PLINEGEN
 70
     0
  9
$PSLTSCALE
 70
     1
  0
ENDSEC
  0
SECTION
  2
TABLES
  0
TABLE
  2
VPORT
 70
     1
  0
VPORT
  2
*ACTIVE
 70
     0
 10
0.0
 20
0.0
 11
1.0
 21
1.0
 12
2599.239247470886
 22
-998.3957402341736
 13
0.0
 23
0.0
 14
10.0
 24
10.0
 15
10.0
 25
10.0
 16
0.0
 26
0.0
 36
1.0
 17
0.0
 27
0.0
 37
0.0
 40
1638.093459514737
 41
1.558246828143022
 42
50.0
 43
0.0
 44
0.0
 50
0.0
 51
0.0
 71
    16
 72
    20
 73
     1
 74
     1
 75
     0
 76
     0
 77
     0
 78
     0
  0
ENDTAB
  0
TABLE
  2
LTYPE
 70
    19
  0
LTYPE
  2
CONTINUOUS
 70
     0
  3
Solid line
 72
    65
 73
     0
 40
0.0
  0
LTYPE
  2
CENTER2
 70
     0
  3
Center (.5x) ___ _ ___ _ ___ _ ___ _ ___ _ ___
 72
    65
 73
     4
 40
28.575
 49
19.05
 49
-3.175
 49
3.175
 49
-3.175
  0
LTYPE
  2
PHANTOM2
 70
     0
  3
Phantom (0.5x) ___ _ _ ___ _ _ ___ _ _ ___ _ _
 72
    65
 73
     6
 40
31.75
 49
15.875
 49
-3.175
 49
3.175
 49
-3.175
 49
3.175
 49
-3.175
  0
ENDTAB
  0
TABLE
  2
LAYER
 70
    45
  0
LAYER
  2
0
 70
     0
 62
     7
  6
CONTINUOUS
  0
LAYER
  2
1CENTER
 70
     0
 62
     7
  6
CENTER2
  0
LAYER
  2
1TEXT
 70
     0
 62
     7
  6
CONTINUOUS
  0
LAYER
  2
1DIM
 70
     0
 62
     7
  6
CONTINUOUS
  0
LAYER
  2
01
 70
     0
 62
     1
  6
CONTINUOUS
  0
LAYER
  2
1DIM1
 70
     0
 62
     7
  6
CONTINUOUS
  0
LAYER
  2
1HATCH
 70
     0
 62
     7
  6
CONTINUOUS
  0
ENDTAB
  0
TABLE
  2
STYLE
 70
    28
  0
STYLE
  2
STANDARD
 70
     0
 40
0.0
 41
1.0
 50
0.0
 71
     0
 42
4.0
  3
txt.shx
  4
extfont.shx
  0
ENDTAB
  0
TABLE
  2
VIEW
 70
     0
  0
ENDTAB
  0
TABLE
  2
UCS
 70
     5
  0
UCS
  2
U
 70
     0
 10
0.0
 20
0.0
 30
0.0
 11
1.0
 21
0.0
 31
0.0
 12
0.0
 22
6.123233995736766E-17
 32
1.0
  0
UCS
  2
L
 70
     0
 10
0.0
 20
0.0
 30
0.0
 11
-1.836970198721030E-16
 21
-1.0
 31
6.123233995736766E-17
 12
0.0
 22
6.123233995736766E-17
 32
1.0
  0
UCS
  2
R
 70
     0
 10
0.0
 20
0.0
 30
0.0
 11
3.061616997868383E-16
 21
1.0
 31
-6.123233995736766E-17
 12
0.0
 22
6.123233995736766E-17
 32
1.0
  0
UCS
  2
ISOME
 70
     0
 10
0.0
 20
0.0
 30
0.0
 11
0.7071450863198264
 21
-0.7070684729403536
 31
-3.830824619471818E-5
 12
0.4082704059428736
 22
0.408270407740115
 32
0.8164744636514737
  0
UCS
  2
PERSPECTIVE
 70
     0
 10
0.0
 20
0.0
 30
0.0
 11
0.8191477691768962
 21
-0.5735823260466401
 31
-0.0004974931557765738
 12
0.1584844715982971
 22
0.2255020289861079
 32
0.961265575782966
  0
ENDTAB
  0
TABLE
  2
APPID
 70
    31
  0
APPID
  2
ACAD
 70
     0
  0
APPID
  2
DRAWINGVARIABLESXDATA
 70
     0
  0
APPID
  2
CONTENTTABDATA
 70
     0
  0
APPID
  2
CONTENTCURRENTTAB
 70
     0
  0
APPID
  2
CONTENTBLOCKDESCRIPTION
 70
     0
  0
APPID
  2
CONTENTBLOCKICON
 70
     0
  0
APPID
  2
CONTENTLONGBLOCKNAME
 70
     0
  0
APPID
  2
ACAD_PSEXT
 70
     0
  0
APPID
  2
ACAD_DSTYLE_DIMTEXT_FILL
 70
     0
  0
APPID
  2
ACAD_MLEADERVER
 70
     0
  0
APPID
  2
ACAD_DSTYLE_DIMRADIAL_EXTE
 70
     0
  0
APPID
  2
ACADANNOTATIVE
 70
     0
  0
APPID
  2
ACAD_EXEMPT_FROM_CAD_STAND
 70
     0
  0
APPID
  2
ACDBBLOCKREPETAG
 70
     0
  0
APPID
  2
ACAD_OBJECT_CHANGE_GUID
 70
     0
  0
APPID
  2
ACAD_NAV_VCDISPLAY
 70
     0
  0
APPID
  2
ACLAYERTOOLS
 70
     0
  0
APPID
  2
ACDBDYNAMICBLOCKGUID
 70
     0
  0
APPID
  2
ACDBDYNAMICBLOCKTRUENAME
 70
     0
  0
APPID
  2
ACDBBLOCKREPBTAG
 70
     0
  0
APPID
  2
ACAUTHENVIRON
 70
     0
  0
APPID
  2
ACADANNOPO
 70
     0
  0
APPID
  2
ACAECLAYERSTANDARD
 70
     0
  0
APPID
  2
ACAD_DSTYLE_DIMJOGGED_JOGA
 70
     0
  0
APPID
  2
ACAD_DSTYLE_DIM_LINETYPE
 70
     0
  0
APPID
  2
ACAD_DSTYLE_DIM_EXT1_LINET
 70
     0
  0
APPID
  2
ACAD_DSTYLE_DIM_EXT2_LINET
 70
     0
  0
APPID
  2
ACAD_DIMASSOC_CALC_DIMLFAC
 70
     0
  0
APPID
  2
ACAD_DIMASSOC_DIMLFAC
 70
     0
  0
APPID
  2
ACAD_DIMASSOC_OVERRIDDEN_D
 70
     0
  0
APPID
  2
ACADANNOTATIVEDECOMPOSITIO
 70
     0
  0
ENDTAB
  0
TABLE
  2
DIMSTYLE
 70
    11
  0
DIMSTYLE
  2
NEWX10
 70
     0
  3
 
  4

  5

  6
OPEN30
  7
OPEN30
 40
1.0
 41
2.0
 42
0.0
 43
7.0
 44
1.0
 45
0.0
 46
0.0
 47
0.0
 48
0.0
140
3.5
141
0.0
142
0.0
143
25.4
144
1.0
145
0.0
146
0.7
147
0.7
 71
     0
 72
     0
 73
     0
 74
     0
 75
     0
 76
     0
 77
     1
 78
     8
170
     0
171
     2
172
     1
173
     1
174
     0
175
     0
176
     0
177
     0
178
   201
  0
DIMSTYLE
  2
ISO-25
 70
     0
  3

  4

  5

  6

  7

 40
1.0
 41
20.0
 42
3.0
 43
3.75
 44
2.0
 45
0.0
 46
0.0
 47
0.0
 48
0.0
140
30.0
141
5.0
142
0.0
143
0.03937
144
1.0
145
0.0
146
1.0
147
8.0
 71
     0
 72
     0
 73
     0
 74
     0
 75
     0
 76
     0
 77
     1
 78
     8
170
     0
171
     3
172
     1
173
     0
174
     0
175
     0
176
     1
177
     1
178
     1
  0
ENDTAB
  0
ENDSEC
  0
SECTION
  2
BLOCKS
  0
BLOCK
  8
0
  2
$MODEL_SPACE
 70
     0
 10
0.0
 20
0.0
 30
0.0
  3
$MODEL_SPACE
  1

  0
ENDBLK
  5
1A
  8
0
  0
BLOCK
 67
     1
  8
0
  2
$PAPER_SPACE
 70
     0
 10
0.0
 20
0.0
 30
0.0
  3
$PAPER_SPACE
  1

  0
ENDBLK
  5
17
 67
     1
  8
0
  0
BLOCK
  8
0
  2
_OPEN30
 70
     0
 10
0.0
 20
0.0
 30
0.0
  3
_OPEN30
  1

  0
LINE
  5
44
  8
0
  6
BYBLOCK
 62
     0
 10
-1.0
 20
0.26794919
 30
0.0
 11
0.0
 21
0.0
 31
0.0
  0
LINE
  5
45
  8
0
  6
BYBLOCK
 62
     0
 10
0.0
 20
0.0
 30
0.0
 11
-1.0
 21
-0.26794919
 31
0.0
  0
LINE
  5
46
  8
0
  6
BYBLOCK
 62
     0
 10
0.0
 20
0.0
 30
0.0
 11
-1.0
 21
0.0
 31
0.0
  0
ENDBLK
  5
47
  8
0
  0
BLOCK
  8
0
  2
A3WAKUKAWAJUN2017_HYOUDAI_
 70
     0
 10
0.0
 20
0.0
 30
0.0
  3
A3WAKUKAWAJUN2017_HYOUDAI_
  1

  0
LINE
  5
20318
  8
0
 10
13.26299999998673
 20
-0.0001000000000317
 30
0.0
 11
9.236999999990758
 21
8.999899999990987
 31
0.0
1001
ACAD
1000
ASC_BOUNDS
1002
{
1070
    19
1005
20359
1002
}
  0
LINE
  5
20319
  8
0
 10
5.657999999994331
 20
0.9999999999989768
 30
0.0
 11
9.236999999990758
 21
8.999999999991019
 31
0.0
1001
ACAD
1000
ASC_BOUNDS
1002
{
1070
    19
1005
20359
1002
}
  0
LINE
  5
2031A
  8
0
 10
18.59199999998134
 20
-0.2368999999997641
 30
0.0
 11
16.46099999998353
 21
5.432899999994561
 31
0.0
1001
ACAD
1000
ASC_BOUNDS
1002
{
1070
    19
1005
2035A
1002
}
  0
LINE
  5
2031B
  8
0
 10
18.59199999998134
 20
-0.2368999999997641
 30
0.0
 11
22.38199999997767
 21
8.763099999991255
 31
0.0
1001
ACAD
1000
ASC_BOUNDS
1002
{
1070
    19
1005
2035A
1002
}
  0
LINE
  5
2031C
  8
0
 10
14.32899999998563
 20
-0.2368999999997641
 30
0.0
 11
16.46099999998353
 21
5.432899999994561
 31
0.0
1001
ACAD
1000
ASC_BOUNDS
1002
{
1070
    19
1005
2035A
1002
}
  0
LINE
  5
2031D
  8
0
 10
14.32899999998563
 20
-0.2368999999997641
 30
0.0
 11
10.53899999998941
 21
8.763099999991255
 31
0.0
1001
ACAD
1000
ASC_BOUNDS
1002
{
1070
    19
1005
2035A
1002
}
  0
LINE
  5
2031E
  8
0
 10
19.53899999998043
 20
-0.0001000000000317
 30
0.0
 11
23.56599999997638
 21
8.999899999990987
 31
0.0
1001
ACAD
1000
ASC_BOUNDS
1002
{
1070
    19
1005
2035B
1002
}
  0
LINE
  5
2031F
  8
0
 10
26.97358892824991
 20
1.383099999991202
 30
0.0
 11
23.56599999997638
 21
8.999899999990987
 31
0.0
1001
ACAD
1000
ASC_BOUNDS
1002
{
1070
    19
1005
2035B
1002
}
  0
LINE
  5
20320
  8
0
 10
5.657999999994331
 20
0.9999999999989768
 30
0.0
 11
3.181999999996833
 21
4.668599999995308
 31
0.0
1001
ACAD
1000
ASC_BOUNDS
1002
{
1070
    19
1005
20359
1002
}
  0
LINE
  5
20321
  8
0
 10
4.617999999995391
 20
-0.0001000000000317
 30
0.0
 11
1.420999999998571
 21
4.736799999995242
 31
0.0
1001
ACAD
1000
ASC_BOUNDS
1002
{
1070
    19
1005
20359
1002
}
  0
LINE
  5
20322
  8
0
 10
1.420999999998571
 20
8.763099999991255
 30
0.0
 11
1.420999999998571
 21
0.0
 31
0.0
1001
ACAD
1000
ASC_BOUNDS
1002
{
1070
    19
1005
2035E
1002
}
  0
LINE
  5
20323
  8
0
 10
0.0
 20
8.763099999991255
 30
0.0
 11
0.0
 21
0.0
 31
0.0
1001
ACAD
1000
ASC_BOUNDS
1002
{
1070
    19
1005
2035E
1002
}
  0
LINE
  5
20324
  8
0
 10
6.766999999993232
 20
-0.0001000000000317
 30
0.0
 11
7.826999999992154
 21
2.368399999997621
 31
0.0
1001
ACAD
1000
ASC_BOUNDS
1002
{
1070
    19
1005
20359
1002
}
  0
LINE
  5
20325
  8
0
 10
0.0
 20
0.0
 30
0.0
 11
1.420999999998571
 21
0.0
 31
0.0
1001
ACAD
1000
ASC_BOUNDS
1002
{
1070
    19
1005
2035E
1002
}
  0
LINE
  5
20326
  8
0
 10
4.617999999995391
 20
0.0
 30
0.0
 11
6.766999999993232
 21
0.0
 31
0.0
1001
ACAD
1000
ASC_BOUNDS
1002
{
1070
    19
1005
20359
1002
}
  0
LINE
  5
20327
  8
0
 10
11.70599999998831
 20
-0.0001000000000317
 30
0.0
 11
10.64699999998936
 21
2.368399999997621
 31
0.0
1001
ACAD
1000
ASC_BOUNDS
1002
{
1070
    19
1005
20359
1002
}
  0
LINE
  5
20328
  8
0
 10
7.826999999992154
 20
2.368399999997621
 30
0.0
 11
10.64699999998936
 21
2.368399999997621
 31
0.0
1001
ACAD
1000
ASC_BOUNDS
1002
{
1070
    19
1005
20359
1002
}
  0
LINE
  5
20329
  8
0
 10
11.70599999998831
 20
0.0
 30
0.0
 11
13.26299999998673
 21
0.0
 31
0.0
1001
ACAD
1000
ASC_BOUNDS
1002
{
1070
    19
1005
20359
1002
}
  0
LINE
  5
2032A
  8
0
 10
22.15599999997789
 20
2.368399999997621
 30
0.0
 11
24.97599999997499
 21
2.368399999997621
 31
0.0
1001
ACAD
1000
ASC_BOUNDS
1002
{
1070
    19
1005
2035B
1002
}
  0
LINE
  5
2032B
  8
0
 10
19.53899999998043
 20
0.0
 30
0.0
 11
21.09599999997886
 21
0.0
 31
0.0
1001
ACAD
1000
ASC_BOUNDS
1002
{
1070
    19
1005
2035B
1002
}
  0
LINE
  5
2032C
  8
0
 10
21.09599999997886
 20
-0.0001000000000317
 30
0.0
 11
22.15599999997789
 21
2.368399999997621
 31
0.0
1001
ACAD
1000
ASC_BOUNDS
1002
{
1070
    19
1005
2035B
1002
}
  0
LINE
  5
2032D
  8
0
 10
26.02015566812236
 20
0.0330999999912365
 30
0.0
 11
24.97599999997499
 21
2.368399999997621
 31
0.0
1001
ACAD
1000
ASC_BOUNDS
1002
{
1070
    19
1005
2035B
1002
}
  0
LINE
  5
2032E
  8
0
 10
14.32399999998563
 20
3.315799999996671
 30
0.0
 11
16.46099999998353
 21
8.999899999990987
 31
0.0
1001
ACAD
1000
ASC_BOUNDS
1002
{
1070
    19
1005
2035A
1002
}
  0
LINE
  5
2032F
  8
0
 10
6.432999999993513
 20
8.763099999991255
 30
0.0
 11
3.181999999996833
 21
4.668599999995308
 31
0.0
1001
ACAD
1000
ASC_BOUNDS
1002
{
1070
    19
1005
20359
1002
}
  0
LINE
  5
20330
  8
0
 10
4.617999999995391
 20
8.763099999991255
 30
0.0
 11
1.420999999998571
 21
4.736799999995242
 31
0.0
1001
ACAD
1000
ASC_BOUNDS
1002
{
1070
    19
1005
20359
1002
}
  0
LINE
  5
20331
  8
0
 10
0.0
 20
8.763099999991255
 30
0.0
 11
1.420999999998571
 21
8.763099999991255
 31
0.0
1001
ACAD
1000
ASC_BOUNDS
1002
{
1070
    19
1005
2035E
1002
}
  0
LINE
  5
20332
  8
0
 10
4.617999999995391
 20
8.763099999991255
 30
0.0
 11
6.432999999993513
 21
8.763099999991255
 31
0.0
1001
ACAD
1000
ASC_BOUNDS
1002
{
1070
    19
1005
20359
1002
}
  0
LINE
  5
20333
  8
0
 10
14.32399999998563
 20
3.315799999996671
 30
0.0
 11
12.02999999998792
 21
8.763099999991255
 31
0.0
1001
ACAD
1000
ASC_BOUNDS
1002
{
1070
    19
1005
2035A
1002
}
  0
LINE
  5
20334
  8
0
 10
10.06399999998996
 20
3.670999999996297
 30
0.0
 11
9.236999999990758
 21
5.5200999999945
 31
0.0
1001
ACAD
1000
ASC_BOUNDS
1002
{
1070
    19
1005
20359
1002
}
  0
LINE
  5
20335
  8
0
 10
8.409999999991555
 20
3.670999999996297
 30
0.0
 11
9.236999999990758
 21
5.5200999999945
 31
0.0
1001
ACAD
1000
ASC_BOUNDS
1002
{
1070
    19
1005
20359
1002
}
  0
LINE
  5
20336
  8
0
 10
8.409999999991555
 20
3.670999999996297
 30
0.0
 11
10.06399999998996
 21
3.670999999996297
 31
0.0
1001
ACAD
1000
ASC_BOUNDS
1002
{
1070
    19
1005
20359
1002
}
  0
LINE
  5
20337
  8
0
 10
10.53899999998941
 20
8.763099999991255
 30
0.0
 11
12.02999999998792
 21
8.763099999991255
 31
0.0
1001
ACAD
1000
ASC_BOUNDS
1002
{
1070
    19
1005
2035A
1002
}
  0
LINE
  5
20338
  8
0
 10
22.7389999999773
 20
3.670999999996297
 30
0.0
 11
23.56599999997638
 21
5.5200999999945
 31
0.0
1001
ACAD
1000
ASC_BOUNDS
1002
{
1070
    19
1005
2035B
1002
}
  0
LINE
  5
20339
  8
0
 10
22.7389999999773
 20
3.670999999996297
 30
0.0
 11
24.39299999997559
 21
3.670999999996297
 31
0.0
1001
ACAD
1000
ASC_BOUNDS
1002
{
1070
    19
1005
2035B
1002
}
  0
LINE
  5
2033A
  8
0
 10
18.59799999998143
 20
3.315799999996671
 30
0.0
 11
20.89099999997916
 21
8.763099999991255
 31
0.0
1001
ACAD
1000
ASC_BOUNDS
1002
{
1070
    19
1005
2035A
1002
}
  0
LINE
  5
2033B
  8
0
 10
18.59799999998143
 20
3.315799999996671
 30
0.0
 11
16.46099999998353
 21
8.999899999990987
 31
0.0
1001
ACAD
1000
ASC_BOUNDS
1002
{
1070
    19
1005
2035A
1002
}
  0
LINE
  5
2033C
  8
0
 10
20.89099999997916
 20
8.763099999991255
 30
0.0
 11
22.38199999997767
 21
8.763099999991255
 31
0.0
1001
ACAD
1000
ASC_BOUNDS
1002
{
1070
    19
1005
2035A
1002
}
  0
LINE
  5
2033D
  8
0
 10
24.39299999997559
 20
3.670999999996297
 30
0.0
 11
23.56599999997638
 21
5.5200999999945
 31
0.0
1001
ACAD
1000
ASC_BOUNDS
1002
{
1070
    19
1005
2035B
1002
}
  0
LINE
  5
2033E
  8
0
 10
44.99999999995498
 20
-0.2368999999997641
 30
0.0
 11
40.02599999995994
 21
5.341799999994635
 31
0.0
1001
ACAD
1000
ASC_BOUNDS
1002
{
1070
    19
1005
2035D
1002
}
  0
LINE
  5
2033F
  8
0
 10
40.02599999995994
 20
5.341799999994635
 30
0.0
 11
40.02599999995994
 21
0.0
 31
0.0
1001
ACAD
1000
ASC_BOUNDS
1002
{
1070
    19
1005
2035D
1002
}
  0
LINE
  5
20340
  8
0
 10
38.60499999996136
 20
8.999999999991019
 30
0.0
 11
38.60499999996136
 21
0.0
 31
0.0
1001
ACAD
1000
ASC_BOUNDS
1002
{
1070
    19
1005
2035D
1002
}
  0
LINE
  5
20341
  8
0
 10
44.99999999995498
 20
8.763099999991255
 30
0.0
 11
44.99999999995498
 21
-0.2368999999997641
 31
0.0
1001
ACAD
1000
ASC_BOUNDS
1002
{
1070
    19
1005
2035D
1002
}
  0
LINE
  5
20342
  8
0
 10
38.60499999996136
 20
0.0
 30
0.0
 11
40.02599999995994
 21
0.0
 31
0.0
1001
ACAD
1000
ASC_BOUNDS
1002
{
1070
    19
1005
2035D
1002
}
  0
LINE
  5
20343
  8
0
 10
43.57899999995641
 20
3.421199999996588
 30
0.0
 11
38.60499999996136
 21
8.999899999990987
 31
0.0
1001
ACAD
1000
ASC_BOUNDS
1002
{
1070
    19
1005
2035D
1002
}
  0
LINE
  5
20344
  8
0
 10
43.57899999995641
 20
8.763099999991255
 30
0.0
 11
43.57899999995641
 21
3.421199999996588
 31
0.0
1001
ACAD
1000
ASC_BOUNDS
1002
{
1070
    19
1005
2035D
1002
}
  0
LINE
  5
20345
  8
0
 10
43.57899999995641
 20
8.763099999991255
 30
0.0
 11
44.99999999995498
 21
8.763099999991255
 31
0.0
1001
ACAD
1000
ASC_BOUNDS
1002
{
1070
    19
1005
2035D
1002
}
  0
LINE
  5
20346
  8
0
 10
37.67199999996831
 20
8.763099999991255
 30
0.0
 11
36.23199999996837
 21
8.763099999991255
 31
0.0
  0
LINE
  5
20347
  8
0
 10
31.64199999996833
 20
8.763099999991255
 30
0.0
 11
31.64199999996833
 21
2.481619422925121
 31
0.0
  0
LINE
  5
20348
  8
0
 10
37.67199999996831
 20
8.763099999991255
 30
0.0
 11
37.67199999996831
 21
2.481619422925121
 31
0.0
  0
LINE
  5
20349
  8
0
 10
36.23199999996837
 20
8.763099999991255
 30
0.0
 11
36.23199999996837
 21
2.481619422925064
 31
0.0
  0
LINE
  5
2034A
  8
0
 10
33.08199999996839
 20
8.763099999991255
 30
0.0
 11
33.08199999996839
 21
2.481619422925121
 31
0.0
  0
ARC
  5
2034B
  8
0
 10
34.65699999996832
 20
3.183099999991214
 30
0.0
 40
3.420000000000007
 50
240.0000000000255
 51
299.9999999999766
  0
ARC
  5
2034C
  8
0
 10
34.65699999996832
 20
3.183099999991214
 30
0.0
 40
1.97999999999999
 50
240.000000000026
 51
299.9999999999703
  0
LINE
  5
2034D
  8
0
 10
33.08199999996828
 20
8.763099999991255
 30
0.0
 11
31.64199999996833
 21
8.763099999991255
 31
0.0
  0
ARC
  5
2034E
  8
0
 10
35.06199999996829
 20
2.481619422925064
 30
0.0
 40
1.17
 50
299.9999999999699
 51
0.0
  0
ARC
  5
2034F
  8
0
 10
34.25199999996835
 20
2.481619422925121
 30
0.0
 40
1.17
 50
180.0
 51
240.0000000000238
  0
ARC
  5
20350
  8
0
 10
35.06199999996841
 20
2.481619422925121
 30
0.0
 40
2.61
 50
299.9999999999756
 51
0.0
  0
ARC
  5
20351
  8
0
 10
34.25199999996835
 20
2.481619422925121
 30
0.0
 40
2.61
 50
180.0
 51
240.0000000000244
  0
LINE
  5
20352
  8
0
 10
29.30199999996933
 20
8.763099999991255
 30
0.0
 11
30.74199999996927
 21
8.763099999991255
 31
0.0
1001
ACAD
1000
ASC_BOUNDS
1002
{
1070
    19
1005
2035B
1002
}
  0
LINE
  5
20353
  8
0
 10
30.74199999996927
 20
8.763099999991255
 30
0.0
 11
30.74199999996927
 21
2.373099999991211
 31
0.0
1001
ACAD
1000
ASC_BOUNDS
1002
{
1070
    19
1005
2035B
1002
}
  0
LINE
  5
20354
  8
0
 10
26.02015566812236
 20
0.0330999999912365
 30
0.0
 11
28.40199999996923
 21
0.0330999999912365
 31
0.0
1001
ACAD
1000
ASC_BOUNDS
1002
{
1070
    19
1005
2035B
1002
}
  0
LINE
  5
20355
  8
0
 10
29.30199999996933
 20
8.763099999991255
 30
0.0
 11
29.30199999996933
 21
2.283099999991236
 31
0.0
1001
ACAD
1000
ASC_BOUNDS
1002
{
1070
    19
1005
2035B
1002
}
  0
LINE
  5
20356
  8
0
 10
26.97358892824991
 20
1.383099999991202
 30
0.0
 11
28.40199999996923
 21
1.383099999991202
 31
0.0
1001
ACAD
1000
ASC_BOUNDS
1002
{
1070
    19
1005
2035B
1002
}
  0
ARC
  5
20357
  8
0
 10
28.40199999996923
 20
2.283099999991236
 30
0.0
 40
0.9
 50
270.0
 51
0.0
1001
ACAD
1000
ASC_BOUNDS
1002
{
1070
    19
1005
2035B
1002
}
  0
ARC
  5
20358
  8
0
 10
28.40199999996923
 20
2.373099999991211
 30
0.0
 40
2.34
 50
270.0
 51
0.0
1001
ACAD
1000
ASC_BOUNDS
1002
{
1070
    19
1005
2035B
1002
}
  0
INSERT
  5
20359
  8
0
  2
*X279
 10
0.0
 20
0.0
 30
0.0
1001
ACAD
1000
HATCH
1002
{
1070
    19
1000
ANSI37
1040
0.15
1040
0.0
1000
ASC_BOUNDS
1070
     2
1070
     2
1070
    12
1005
20318
1005
20319
1005
20320
1005
2032F
1005
20332
1005
20330
1005
20321
1005
20326
1005
20324
1005
20328
1005
20327
1005
20329
1070
     2
1070
     3
1005
20334
1005
20336
1005
20335
1000
ASC_SEEDPOINT
1011
3.614004224891801
1021
2.996669441146025
1031
0.0
1021
2.996669441146025
1031
0.0
1000
R14_HATCH_DATA
1000
20359
1011
1.0
1021
0.0
1031
0.0
1021
0.0
1031
0.0
1011
0.0
1021
1.0
1031
0.0
1021
1.0
1031
0.0
1011
0.0
1021
0.0
1031
1.0
1021
0.0
1031
1.0
1040
0.0
1010
0.0
1020
0.0
1030
1.0
1000
ANSI37
1070
     0
1070
     1
1071
        2
1071
        7
1070
     0
1070
     1
1071
       17
1040
13.26299999998673
1040
-0.0001000000000317
1040
9.236999999990758
1040
8.999899999990987
1040
9.236999999990758
1040
8.999999999991019
1040
5.657999999994331
1040
0.9999999999989768
1040
3.181999999996833
1040
4.668599999995308
1040
6.432999999993513
1040
8.763099999991255
1040
4.617999999995391
1040
8.763099999991255
1040
1.420999999998571
1040
4.736799999995242
1040
4.617999999995391
1040
-0.0001000000000317
1040
4.617999999995391
1040
0.0
1040
6.766999999993232
1040
0.0
1040
6.766999999993232
1040
-0.0001000000000317
1040
7.826999999992154
1040
2.368399999997621
1040
10.64699999998936
1040
2.368399999997621
1040
11.70599999998831
1040
-0.0001000000000317
1040
11.70599999998831
1040
0.0
1040
13.26299999998673
1040
0.0
1071
       12
1005
20318
1005
20319
1005
20320
1005
2032F
1005
20332
1005
20330
1005
20321
1005
20326
1005
20324
1005
20328
1005
20327
1005
20329
1071
       22
1070
     0
1070
     1
1071
        3
1040
9.236999999990758
1040
5.5200999999945
1040
10.06399999998996
1040
3.670999999996297
1040
8.409999999991555
1040
3.670999999996297
1071
        3
1005
20334
1005
20336
1005
20335
1070
     0
1070
     1
1040
0.0
1040
0.15
1070
     0
1070
     2
1040
0.7853981633974483
1040
49.29960901727088
1040
-10.17736998311392
1040
-0.3367596045400932
1040
0.3367596045400932
1070
     0
1040
2.356194490192345
1040
49.29960901727088
1040
-10.17736998311392
1040
-0.3367596045400932
1040
-0.3367596045400932
1070
     0
1040
0.0110235143455945
1071
        2
1040
3.614004224891801
1040
2.996669441146025
1040
0.0
1040
3.614004224891801
1040
2.996669441146025
1040
0.0
1002
}
  0
INSERT
  5
2035A
  8
0
  2
*X280
 10
0.0
 20
0.0
 30
0.0
1001
ACAD
1000
HATCH
1002
{
1070
    19
1000
ANSI37
1040
0.15
1040
0.0
1000
ASC_BOUNDS
1070
     1
1070
     2
1070
    10
1005
2031A
1005
2031B
1005
2033C
1005
2033A
1005
2033B
1005
2032E
1005
20333
1005
20337
1005
2031D
1005
2031C
1000
ASC_SEEDPOINT
1011
14.73245321214324
1021
2.798246178283421
1031
0.0
1021
2.798246178283421
1031
0.0
1000
R14_HATCH_DATA
1000
2035A
1011
1.0
1021
0.0
1031
0.0
1021
0.0
1031
0.0
1011
0.0
1021
1.0
1031
0.0
1021
1.0
1031
0.0
1011
0.0
1021
0.0
1031
1.0
1021
0.0
1031
1.0
1040
0.0
1010
0.0
1020
0.0
1030
1.0
1000
ANSI37
1070
     0
1070
     1
1071
        1
1071
        7
1070
     0
1070
     1
1071
       10
1040
16.46099999998353
1040
5.432899999994561
1040
18.59199999998134
1040
-0.2368999999997641
1040
22.38199999997767
1040
8.763099999991255
1040
20.89099999997916
1040
8.763099999991255
1040
18.59799999998143
1040
3.315799999996671
1040
16.46099999998353
1040
8.999899999990987
1040
14.32399999998563
1040
3.315799999996671
1040
12.02999999998792
1040
8.763099999991255
1040
10.53899999998941
1040
8.763099999991255
1040
14.32899999998563
1040
-0.2368999999997641
1071
       10
1005
2031A
1005
2031B
1005
2033C
1005
2033A
1005
2033B
1005
2032E
1005
20333
1005
20337
1005
2031D
1005
2031C
1070
     0
1070
     1
1040
0.0
1040
0.15
1070
     0
1070
     2
1040
0.7853981633974483
1040
49.29960901727088
1040
-10.17736998311392
1040
-0.3367596045400932
1040
0.3367596045400932
1070
     0
1040
2.356194490192345
1040
49.29960901727088
1040
-10.17736998311392
1040
-0.3367596045400932
1040
-0.3367596045400932
1070
     0
1040
0.0110235143455945
1071
        1
1040
14.73245321214324
1040
2.798246178283421
1040
0.0
1002
}
  0
INSERT
  5
2035B
  8
0
  2
*X281
 10
0.0
 20
0.0
 30
0.0
1001
ACAD
1000
HATCH
1002
{
1070
    19
1000
ANSI37
1040
0.15
1040
0.0
1000
ASC_BOUNDS
1070
     2
1070
     2
1070
    13
1005
2031E
1005
2032B
1005
2032C
1005
2032A
1005
2032D
1005
20354
1005
20358
1005
20353
1005
20352
1005
20355
1005
20357
1005
20356
1005
2031F
1070
     2
1070
     3
1005
20338
1005
2033D
1005
20339
1000
ASC_SEEDPOINT
1011
21.97929957367762
1021
3.294304244259308
1031
0.0
1021
3.294304244259308
1031
0.0
1000
R14_HATCH_DATA
1000
2035B
1011
1.0
1021
0.0
1031
0.0
1021
0.0
1031
0.0
1011
0.0
1021
1.0
1031
0.0
1021
1.0
1031
0.0
1011
0.0
1021
0.0
1031
1.0
1021
0.0
1031
1.0
1040
0.0
1010
0.0
1020
0.0
1030
1.0
1000
ANSI37
1070
     0
1070
     1
1071
        2
1071
        7
1070
     1
1070
     1
1071
       15
1040
23.56599999997638
1040
8.999899999990987
1040
0.0
1040
19.53899999998043
1040
-0.0001000000000317
1040
0.0
1040
19.53899999998043
1040
0.0
1040
0.0
1040
21.09599999997886
1040
0.0
1040
0.0
1040
21.09599999997886
1040
-0.0001000000000317
1040
0.0
1040
22.15599999997789
1040
2.368399999997621
1040
0.0
1040
24.97599999997499
1040
2.368399999997621
1040
0.0
1040
26.02015566812236
1040
0.0330999999912365
1040
0.0
1040
28.40199999996923
1040
0.0330999999912365
1040
0.414213562373095
1040
30.74199999996923
1040
2.373099999991211
1040
0.0
1040
30.74199999996927
1040
8.763099999991255
1040
0.0
1040
29.30199999996933
1040
8.763099999991255
1040
0.0
1040
29.30199999996933
1040
2.283099999991236
1040
-0.414213562373095
1040
28.40199999996923
1040
1.383099999991237
1040
0.0
1040
26.97358892824991
1040
1.383099999991202
1040
0.0
1071
       13
1005
2031E
1005
2032B
1005
2032C
1005
2032A
1005
2032D
1005
20354
1005
20358
1005
20353
1005
20352
1005
20355
1005
20357
1005
20356
1005
2031F
1071
       22
1070
     0
1070
     1
1071
        3
1040
22.7389999999773
1040
3.670999999996297
1040
23.56599999997638
1040
5.5200999999945
1040
24.39299999997559
1040
3.670999999996297
1071
        3
1005
20338
1005
2033D
1005
20339
1070
     0
1070
     1
1040
0.0
1040
0.15
1070
     0
1070
     2
1040
0.7853981633974483
1040
49.29960901727088
1040
-10.17736998311392
1040
-0.3367596045400932
1040
0.3367596045400932
1070
     0
1040
2.356194490192345
1040
49.29960901727088
1040
-10.17736998311392
1040
-0.3367596045400932
1040
-0.3367596045400932
1070
     0
1040
0.0110235143455945
1071
        2
1040
21.97929957367762
1040
3.294304244259308
1040
0.0
1040
21.97929957367762
1040
3.294304244259308
1040
0.0
1002
}
  0
INSERT
  5
2035C
  8
0
  2
*X282
 10
0.0
 20
0.0
 30
0.0
1001
ACAD
1000
HATCH
1002
{
1070
    19
1000
ANSI37
1040
0.15
1040
0.0
1000
R14_HATCH_DATA
1000
2035C
1011
1.0
1021
0.0
1031
0.0
1021
0.0
1031
0.0
1011
0.0
1021
1.0
1031
0.0
1021
1.0
1031
0.0
1011
0.0
1021
0.0
1031
1.0
1021
0.0
1031
1.0
1040
0.0
1010
0.0
1020
0.0
1030
1.0
1000
ANSI37
1070
     0
1070
     1
1071
        1
1071
        7
1070
     1
1070
     1
1071
       12
1040
31.64199999996833
1040
2.481619422925121
1040
0.2679491924310942
1040
32.94699999997067
1040
0.2212931190493919
1040
0.2679491924301353
1040
36.36699999995983
1040
0.2212931190459813
1040
0.2679491924321411
1040
37.67199999996831
1040
2.481619422928361
1040
0.0
1040
37.67199999996831
1040
8.763099999991255
1040
0.0
1040
36.23199999996837
1040
8.763099999991255
1040
0.0
1040
36.23199999996837
1040
2.481619422925064
1040
-0.2679491924310291
1040
35.64699999996708
1040
1.468369700498386
1040
-0.267949192430519
1040
33.66699999997093
1040
1.468369700497703
1040
-0.267949192431809
1040
33.08199999996839
1040
2.481619422926997
1040
0.0
1040
33.08199999996839
1040
8.763099999991255
1040
0.0
1040
31.64199999996833
1040
8.763099999991255
1040
0.0
1071
        0
1070
     0
1070
     1
1040
0.0
1040
0.15
1070
     0
1070
     2
1040
0.7853981633974483
1040
49.29960901727088
1040
-10.17736998311392
1040
-0.3367596045400932
1040
0.3367596045400932
1070
     0
1040
2.356194490192345
1040
49.29960901727088
1040
-10.17736998311392
1040
-0.3367596045400932
1040
-0.3367596045400932
1070
     0
1040
0.0110235143455945
1071
        1
1040
32.30357378967278
1040
3.988785755459219
1040
0.0
1002
}
  0
INSERT
  5
2035D
  8
0
  2
*X283
 10
0.0
 20
0.0
 30
0.0
1001
ACAD
1000
HATCH
1002
{
1070
    19
1000
ANSI37
1040
0.15
1040
0.0
1000
ASC_BOUNDS
1070
     1
1070
     2
1070
     8
1005
2033E
1005
20341
1005
20345
1005
20344
1005
20343
1005
20340
1005
20342
1005
2033F
1000
ASC_SEEDPOINT
1011
39.74896370716704
1021
4.484843821435049
1031
0.0
1021
4.484843821435049
1031
0.0
1000
R14_HATCH_DATA
1000
2035D
1011
1.0
1021
0.0
1031
0.0
1021
0.0
1031
0.0
1011
0.0
1021
1.0
1031
0.0
1021
1.0
1031
0.0
1011
0.0
1021
0.0
1031
1.0
1021
0.0
1031
1.0
1040
0.0
1010
0.0
1020
0.0
1030
1.0
1000
ANSI37
1070
     0
1070
     1
1071
        1
1071
        7
1070
     0
1070
     1
1071
        9
1040
40.02599999995994
1040
5.341799999994635
1040
44.99999999995498
1040
-0.2368999999997641
1040
44.99999999995498
1040
8.763099999991255
1040
43.57899999995641
1040
8.763099999991255
1040
43.57899999995641
1040
3.421199999996588
1040
38.60499999996136
1040
8.999899999990987
1040
38.60499999996136
1040
8.999999999991019
1040
38.60499999996136
1040
0.0
1040
40.02599999995994
1040
0.0
1071
        8
1005
2033E
1005
20341
1005
20345
1005
20344
1005
20343
1005
20340
1005
20342
1005
2033F
1070
     0
1070
     1
1040
0.0
1040
0.15
1070
     0
1070
     2
1040
0.7853981633974483
1040
49.29960901727088
1040
-10.17736998311392
1040
-0.3367596045400932
1040
0.3367596045400932
1070
     0
1040
2.356194490192345
1040
49.29960901727088
1040
-10.17736998311392
1040
-0.3367596045400932
1040
-0.3367596045400932
1070
     0
1040
0.0110235143455945
1071
        1
1040
39.74896370716704
1040
4.484843821435049
1040
0.0
1002
}
  0
INSERT
  5
2035E
  8
0
  2
*X284
 10
0.0
 20
0.0
 30
0.0
1001
ACAD
1000
HATCH
1002
{
1070
    19
1000
ANSI37
1040
0.15
1040
0.0
1000
ASC_BOUNDS
1070
     1
1070
     2
1070
     4
1005
20322
1005
20331
1005
20323
1005
20325
1000
ASC_SEEDPOINT
1011
1.079051535452663
1021
4.148538732891836
1031
0.0
1021
4.148538732891836
1031
0.0
1000
R14_HATCH_DATA
1000
2035E
1011
1.0
1021
0.0
1031
0.0
1021
0.0
1031
0.0
1011
0.0
1021
1.0
1031
0.0
1021
1.0
1031
0.0
1011
0.0
1021
0.0
1031
1.0
1021
0.0
1031
1.0
1040
0.0
1010
0.0
1020
0.0
1030
1.0
1000
ANSI37
1070
     0
1070
     1
1071
        1
1071
        7
1070
     0
1070
     1
1071
        4
1040
1.420999999998571
1040
0.0
1040
1.420999999998571
1040
8.763099999991255
1040
0.0
1040
8.763099999991255
1040
0.0
1040
0.0
1071
        4
1005
20322
1005
20331
1005
20323
1005
20325
1070
     0
1070
     1
1040
0.0
1040
0.15
1070
     0
1070
     2
1040
0.7853981633974483
1040
49.29960901727088
1040
-10.17736998311392
1040
-0.3367596045400932
1040
0.3367596045400932
1070
     0
1040
2.356194490192345
1040
49.29960901727088
1040
-10.17736998311392
1040
-0.3367596045400932
1040
-0.3367596045400932
1070
     0
1040
0.0053004257112761
1071
        1
1040
1.079051535452663
1040
4.148538732891836
1040
0.0
1002
}
  0
ENDBLK
  5
20A16
  8
0
  0
BLOCK
  8
0
  2
*X279
 70
     1
 10
0.0
 20
0.0
 30
0.0
  3
*X279
  1

  0
LINE
  5
267C3
  8
0
  6
CONTINUOUS
 10
3.418023043697893
 20
7.251849696850613
 30
0.0
 11
4.929273346838536
 21
8.763099999991255
 31
0.0
  0
LINE
  5
267C4
  8
0
  6
CONTINUOUS
 10
1.483656411257782
 20
4.643963855330318
 30
0.0
 11
5.60279255591872
 21
8.763099999991255
 31
0.0
  0
LINE
  5
267C5
  8
0
  6
CONTINUOUS
 10
1.755053947328235
 20
4.241842182320584
 30
0.0
 11
6.276311764998907
 21
8.763099999991255
 31
0.0
  0
LINE
  5
267C6
  8
0
  6
CONTINUOUS
 10
2.026451483398688
 20
3.839720509310849
 30
0.0
 11
4.441040904851878
 21
6.254309930764039
 31
0.0
  0
LINE
  5
267C7
  8
0
  6
CONTINUOUS
 10
2.297849019469139
 20
3.437598836301114
 30
0.0
 11
3.321765168359338
 21
4.461514985191313
 31
0.0
  0
LINE
  5
267C8
  8
0
  6
CONTINUOUS
 10
2.569246555539591
 20
3.03547716329138
 30
0.0
 11
3.593163397972743
 21
4.059394005724531
 31
0.0
  0
LINE
  5
267C9
  8
0
  6
CONTINUOUS
 10
2.840644091610043
 20
2.633355490281646
 30
0.0
 11
3.864561627586149
 21
3.657273026257751
 31
0.0
  0
LINE
  5
267CA
  8
0
  6
CONTINUOUS
 10
3.112041627680496
 20
2.231233817271911
 30
0.0
 11
4.135959857199554
 21
3.25515204679097
 31
0.0
  0
LINE
  5
267CB
  8
0
  6
CONTINUOUS
 10
3.383439163750948
 20
1.829112144262177
 30
0.0
 11
4.40735808681296
 21
2.853031067324189
 31
0.0
  0
LINE
  5
267CC
  8
0
  6
CONTINUOUS
 10
3.654836699821399
 20
1.426990471252442
 30
0.0
 11
4.678756316426365
 21
2.450910087857407
 31
0.0
  0
LINE
  5
267CD
  8
0
  6
CONTINUOUS
 10
3.926234235891853
 20
1.024868798242709
 30
0.0
 11
4.95015454603977
 21
2.048789108390626
 31
0.0
  0
LINE
  5
267CE
  8
0
  6
CONTINUOUS
 10
4.197631771962304
 20
0.6227471252329737
 30
0.0
 11
5.221552775653176
 21
1.646668128923846
 31
0.0
  0
LINE
  5
267CF
  8
0
  6
CONTINUOUS
 10
8.715877546767851
 20
7.835069736359266
 30
0.0
 11
9.435953450375058
 21
8.555145639966472
 31
0.0
  0
LINE
  5
267D0
  8
0
  6
CONTINUOUS
 10
8.170620868422267
 20
6.616293848933497
 30
0.0
 11
9.644120833743461
 21
8.08979381425469
 31
0.0
  0
LINE
  5
267D1
  8
0
  6
CONTINUOUS
 10
7.625364190076684
 20
5.397517961507727
 30
0.0
 11
9.852288217111864
 21
7.624441988542907
 31
0.0
  0
LINE
  5
267D2
  8
0
  6
CONTINUOUS
 10
7.080107511731101
 20
4.178742074081957
 30
0.0
 11
10.06045560048027
 21
7.159090162831124
 31
0.0
  0
LINE
  5
267D3
  8
0
  6
CONTINUOUS
 10
6.534850833385518
 20
2.959966186656187
 30
0.0
 11
10.26862298384867
 21
6.693738337119342
 31
0.0
  0
LINE
  5
267D4
  8
0
  6
CONTINUOUS
 10
4.469029308032756
 20
0.2206254522232385
 30
0.0
 11
5.492951005266582
 21
1.244547149457064
 31
0.0
  0
LINE
  5
267D5
  8
0
  6
CONTINUOUS
 10
5.989594155039935
 20
1.741190299230417
 30
0.0
 11
8.806950407233131
 21
4.558546551423613
 31
0.0
  0
LINE
  5
267D6
  8
0
  6
CONTINUOUS
 10
9.401251593263643
 20
5.152847737454126
 30
0.0
 11
10.47679036721708
 21
6.228386511407559
 31
0.0
  0
LINE
  5
267D7
  8
0
  6
CONTINUOUS
 10
4.921837203428691
 20
-0.0000858614610131
 30
0.0
 11
8.592923064886001
 21
3.670999999996297
 31
0.0
  0
LINE
  5
267D8
  8
0
  6
CONTINUOUS
 10
9.609390446785305
 20
4.6874673818956
 30
0.0
 11
10.68495775058548
 21
5.763034685695775
 31
0.0
  0
LINE
  5
267D9
  8
0
  6
CONTINUOUS
 10
5.595387755019432
 20
-0.0000545189504582
 30
0.0
 11
7.716137258923768
 21
2.120694984953879
 31
0.0
  0
LINE
  5
267DA
  8
0
  6
CONTINUOUS
 10
6.268938306610172
 20
-0.000023176439905
 30
0.0
 11
7.170485805526503
 21
0.9015243224764267
 31
0.0
  0
LINE
  5
267DB
  8
0
  6
CONTINUOUS
 10
7.963842273967511
 20
2.368399999997621
 30
0.0
 11
9.266442273966188
 21
3.670999999996297
 31
0.0
  0
LINE
  5
267DC
  8
0
  6
CONTINUOUS
 10
8.637361483047696
 20
2.368399999997621
 30
0.0
 11
9.939961483046375
 21
3.670999999996297
 31
0.0
  0
LINE
  5
267DD
  8
0
  6
CONTINUOUS
 10
9.817529300306965
 20
4.222087026337075
 30
0.0
 11
10.89312513395388
 21
5.297682859983993
 31
0.0
  0
LINE
  5
267DE
  8
0
  6
CONTINUOUS
 10
10.02566815382863
 20
3.756706670778549
 30
0.0
 11
11.10129251732229
 21
4.832331034272211
 31
0.0
  0
LINE
  5
267DF
  8
0
  6
CONTINUOUS
 10
9.310880692127883
 20
2.368399999997621
 30
0.0
 11
11.30945990069069
 21
4.366979208560428
 31
0.0
  0
LINE
  5
267E0
  8
0
  6
CONTINUOUS
 10
9.98439990120807
 20
2.36839999999762
 30
0.0
 11
11.5176272840591
 21
3.901627382848645
 31
0.0
  0
LINE
  5
267E1
  8
0
  6
CONTINUOUS
 10
10.65037369446246
 20
2.36085458417182
 30
0.0
 11
11.7257946674275
 21
3.436275557136862
 31
0.0
  0
LINE
  5
267E2
  8
0
  6
CONTINUOUS
 10
10.85847197087848
 20
1.895433651507656
 30
0.0
 11
11.9339620507959
 21
2.97092373142508
 31
0.0
  0
LINE
  5
267E3
  8
0
  6
CONTINUOUS
 10
11.0665702472945
 20
1.430012718843491
 30
0.0
 11
12.14212943416431
 21
2.505571905713296
 31
0.0
  0
LINE
  5
267E4
  8
0
  6
CONTINUOUS
 10
11.27466852371052
 20
0.9645917861793256
 30
0.0
 11
12.35029681753271
 21
2.040220080001513
 31
0.0
  0
LINE
  5
267E5
  8
0
  6
CONTINUOUS
 10
11.48276680012654
 20
0.4991708535151611
 30
0.0
 11
12.55846420090111
 21
1.57486825428973
 31
0.0
  0
LINE
  5
267E6
  8
0
  6
CONTINUOUS
 10
11.69086507654257
 20
0.0337499208509957
 30
0.0
 11
12.76663158426952
 21
1.109516428577947
 31
0.0
  0
LINE
  5
267E7
  8
0
  6
CONTINUOUS
 10
12.33057447873954
 20
-0.0000598860322123
 30
0.0
 11
12.97479896763792
 21
0.6441646028661663
 31
0.0
  0
LINE
  5
267E8
  8
0
  6
CONTINUOUS
 10
13.00413694809395
 20
-0.0000166257579952
 30
0.0
 11
13.18296635100632
 21
0.1788127771543824
 31
0.0
  0
LINE
  5
267E9
  8
0
  6
CONTINUOUS
 10
4.772852165289667
 20
-0.000092794222212
 30
0.0
 11
4.296495091028902
 21
0.4762642800385528
 31
0.0
  0
LINE
  5
267EA
  8
0
  6
CONTINUOUS
 10
5.446340034776103
 20
-0.0000614546284616
 30
0.0
 11
2.898195908335625
 21
2.548082671812017
 31
0.0
  0
LINE
  5
267EB
  8
0
  6
CONTINUOUS
 10
6.119827904262539
 20
-0.0000301150347113
 30
0.0
 11
1.499896725642348
 21
4.61990106358548
 31
0.0
  0
LINE
  5
267EC
  8
0
  6
CONTINUOUS
 10
6.775136745476159
 20
0.0181802528318542
 30
0.0
 11
5.699826040202669
 21
1.093490958105344
 31
0.0
  0
LINE
  5
267ED
  8
0
  6
CONTINUOUS
 10
6.983376846288489
 20
0.4834593610997118
 30
0.0
 11
5.908008617934405
 21
1.558827589453796
 31
0.0
  0
LINE
  5
267EE
  8
0
  6
CONTINUOUS
 10
5.377063484962296
 20
1.416253513345719
 30
0.0
 11
1.702276957014131
 21
5.091040041293883
 31
0.0
  0
LINE
  5
267EF
  8
0
  6
CONTINUOUS
 10
3.978745891735324
 20
3.488090315652877
 30
0.0
 11
2.000373521109399
 21
5.466462686278803
 31
0.0
  0
LINE
  5
267F0
  8
0
  6
CONTINUOUS
 10
7.191616947100819
 20
0.948738469367568
 30
0.0
 11
6.11619119566614
 21
2.024164220802247
 31
0.0
  0
LINE
  5
267F1
  8
0
  6
CONTINUOUS
 10
7.399857047913149
 20
1.414017577635424
 30
0.0
 11
6.324373773397875
 21
2.489500852150698
 31
0.0
  0
LINE
  5
267F2
  8
0
  6
CONTINUOUS
 10
7.608097148725479
 20
1.879296685903281
 30
0.0
 11
6.53255635112961
 21
2.95483748349915
 31
0.0
  0
LINE
  5
267F3
  8
0
  6
CONTINUOUS
 10
7.816337249537808
 20
2.344575794171138
 30
0.0
 11
6.740738928861345
 21
3.420174114847601
 31
0.0
  0
LINE
  5
267F4
  8
0
  6
CONTINUOUS
 10
3.310241080789734
 20
4.830114335678653
 30
0.0
 11
2.298470085204666
 21
5.84188533126372
 31
0.0
  0
LINE
  5
267F5
  8
0
  6
CONTINUOUS
 10
3.60832983563551
 20
5.205544789913063
 30
0.0
 11
2.596566649299935
 21
6.217307976248638
 31
0.0
  0
LINE
  5
267F6
  8
0
  6
CONTINUOUS
 10
3.906418590481286
 20
5.580975244147473
 30
0.0
 11
2.894663213395203
 21
6.592730621233557
 31
0.0
  0
LINE
  5
267F7
  8
0
  6
CONTINUOUS
 10
4.204507345327062
 20
5.956405698381884
 30
0.0
 11
3.192759777490472
 21
6.968153266218474
 31
0.0
  0
LINE
  5
267F8
  8
0
  6
CONTINUOUS
 10
8.466032252791512
 20
2.368399999997621
 30
0.0
 11
6.948921506593081
 21
3.885510746196053
 31
0.0
  0
LINE
  5
267F9
  8
0
  6
CONTINUOUS
 10
9.139551461871699
 20
2.36839999999762
 30
0.0
 11
7.157104084324816
 21
4.350847377544504
 31
0.0
  0
LINE
  5
267FA
  8
0
  6
CONTINUOUS
 10
4.502596100172839
 20
6.331836152616295
 30
0.0
 11
3.49085634158574
 21
7.343575911203393
 31
0.0
  0
LINE
  5
267FB
  8
0
  6
CONTINUOUS
 10
4.800684855018615
 20
6.707266606850705
 30
0.0
 11
3.788952905681008
 21
7.718998556188312
 31
0.0
  0
LINE
  5
267FC
  8
0
  6
CONTINUOUS
 10
12.18154012887317
 20
-0.0000694579236642
 30
0.0
 11
11.32140332908496
 21
0.8600673418645499
 31
0.0
  0
LINE
  5
267FD
  8
0
  6
CONTINUOUS
 10
12.85501608323566
 20
-0.0000262032059659
 30
0.0
 11
10.77672456435345
 21
2.078265315676246
 31
0.0
  0
LINE
  5
267FE
  8
0
  6
CONTINUOUS
 10
9.813070670951886
 20
2.36839999999762
 30
0.0
 11
8.51047067095321
 21
3.670999999996297
 31
0.0
  0
LINE
  5
267FF
  8
0
  6
CONTINUOUS
 10
10.48658988003207
 20
2.36839999999762
 30
0.0
 11
9.183989880033396
 21
3.670999999996297
 31
0.0
  0
LINE
  5
26800
  8
0
  6
CONTINUOUS
 10
8.441048632286794
 20
3.740422038662712
 30
0.0
 11
7.365286662056551
 21
4.816184008892956
 31
0.0
  0
LINE
  5
26801
  8
0
  6
CONTINUOUS
 10
8.649187485808454
 20
4.205802394221237
 30
0.0
 11
7.573469239788285
 21
5.281520640241407
 31
0.0
  0
LINE
  5
26802
  8
0
  6
CONTINUOUS
 10
5.098773609864391
 20
7.082697061085115
 30
0.0
 11
4.087049469776277
 21
8.09442120117323
 31
0.0
  0
LINE
  5
26803
  8
0
  6
CONTINUOUS
 10
5.396862364710167
 20
7.458127515319526
 30
0.0
 11
4.385146033871544
 21
8.469843846158149
 31
0.0
  0
LINE
  5
26804
  8
0
  6
CONTINUOUS
 10
13.04801363231285
 20
0.4804954567970334
 30
0.0
 11
9.85750908911358
 21
3.670999999996297
 31
0.0
  0
LINE
  5
26805
  8
0
  6
CONTINUOUS
 10
8.857326339330116
 20
4.671182749779763
 30
0.0
 11
7.781651817520021
 21
5.746857271589858
 31
0.0
  0
LINE
  5
26806
  8
0
  6
CONTINUOUS
 10
5.694951119555943
 20
7.833557969553937
 30
0.0
 11
4.765409089118624
 21
8.763099999991255
 31
0.0
  0
LINE
  5
26807
  8
0
  6
CONTINUOUS
 10
12.50286117236978
 20
1.699167125820288
 30
0.0
 11
9.68611877250287
 21
4.515909525687196
 31
0.0
  0
LINE
  5
26808
  8
0
  6
CONTINUOUS
 10
9.065465192851777
 20
5.136563105338288
 30
0.0
 11
7.989834395251757
 21
6.21219390293831
 31
0.0
  0
LINE
  5
26809
  8
0
  6
CONTINUOUS
 10
5.993039874401719
 20
8.208988423788346
 30
0.0
 11
5.43892829819881
 21
8.763099999991255
 31
0.0
  0
LINE
  5
2680A
  8
0
  6
CONTINUOUS
 10
11.95770871242671
 20
2.917838794843543
 30
0.0
 11
8.19801697298349
 21
6.677530534286761
 31
0.0
  0
LINE
  5
2680B
  8
0
  6
CONTINUOUS
 10
6.291128629247495
 20
8.584418878022756
 30
0.0
 11
6.112447507278997
 21
8.763099999991255
 31
0.0
  0
LINE
  5
2680C
  8
0
  6
CONTINUOUS
 10
11.41255625248364
 20
4.136510463866797
 30
0.0
 11
8.406199550715227
 21
7.142867165635211
 31
0.0
  0
LINE
  5
2680D
  8
0
  6
CONTINUOUS
 10
10.86740379254057
 20
5.355182132890051
 30
0.0
 11
8.614382128446962
 21
7.608203796983664
 31
0.0
  0
LINE
  5
2680E
  8
0
  6
CONTINUOUS
 10
10.3222513325975
 20
6.573853801913305
 30
0.0
 11
8.822564706178696
 21
8.073540428332114
 31
0.0
  0
LINE
  5
2680F
  8
0
  6
CONTINUOUS
 10
9.777098872654436
 20
7.792525470936562
 30
0.0
 11
9.030747283910433
 21
8.538877059680566
 31
0.0
  0
ENDBLK
  5
26951
  8
0
  0
BLOCK
  8
0
  2
*X280
 70
     1
 10
0.0
 20
0.0
 30
0.0
  3
*X280
  1

  0
LINE
  5
26811
  8
0
  6
CONTINUOUS
 10
10.67292308101235
 20
8.445076852443387
 30
0.0
 11
10.99094622856022
 21
8.763099999991255
 31
0.0
  0
LINE
  5
26812
  8
0
  6
CONTINUOUS
 10
10.87250383178748
 20
7.971138394138331
 30
0.0
 11
11.6644654376404
 21
8.763099999991255
 31
0.0
  0
LINE
  5
26813
  8
0
  6
CONTINUOUS
 10
11.07208458256261
 20
7.497199935833273
 30
0.0
 11
12.12126590876355
 21
8.546381262034211
 31
0.0
  0
LINE
  5
26814
  8
0
  6
CONTINUOUS
 10
11.27166533333774
 20
7.023261477528216
 30
0.0
 11
12.32085164573666
 21
8.072447789927136
 31
0.0
  0
LINE
  5
26815
  8
0
  6
CONTINUOUS
 10
11.47124608411287
 20
6.549323019223158
 30
0.0
 11
12.52043738270977
 21
7.59851431782006
 31
0.0
  0
LINE
  5
26816
  8
0
  6
CONTINUOUS
 10
11.670826834888
 20
6.075384560918101
 30
0.0
 11
12.72002311968288
 21
7.124580845712984
 31
0.0
  0
LINE
  5
26817
  8
0
  6
CONTINUOUS
 10
11.87040758566313
 20
5.601446102613043
 30
0.0
 11
12.91960885665599
 21
6.650647373605907
 31
0.0
  0
LINE
  5
26818
  8
0
  6
CONTINUOUS
 10
12.06998833643825
 20
5.127507644307986
 30
0.0
 11
13.1191945936291
 21
6.176713901498832
 31
0.0
  0
LINE
  5
26819
  8
0
  6
CONTINUOUS
 10
12.26956908721338
 20
4.65356918600293
 30
0.0
 11
13.31878033060221
 21
5.702780429391757
 31
0.0
  0
LINE
  5
2681A
  8
0
  6
CONTINUOUS
 10
12.46914983798851
 20
4.179630727697873
 30
0.0
 11
13.51836606757532
 21
5.228846957284683
 31
0.0
  0
LINE
  5
2681B
  8
0
  6
CONTINUOUS
 10
12.66873058876364
 20
3.705692269392816
 30
0.0
 11
13.71795180454843
 21
4.754913485177607
 31
0.0
  0
LINE
  5
2681C
  8
0
  6
CONTINUOUS
 10
12.86831133953877
 20
3.231753811087759
 30
0.0
 11
13.91753754152154
 21
4.280980013070531
 31
0.0
  0
LINE
  5
2681D
  8
0
  6
CONTINUOUS
 10
13.0678920903139
 20
2.757815352782702
 30
0.0
 11
14.11712327849465
 21
3.807046540963456
 31
0.0
  0
LINE
  5
2681E
  8
0
  6
CONTINUOUS
 10
13.26747284108903
 20
2.283876894477644
 30
0.0
 11
14.31670901546777
 21
3.333113068856379
 31
0.0
  0
LINE
  5
2681F
  8
0
  6
CONTINUOUS
 10
16.36767838827179
 20
8.751678487061342
 30
0.0
 11
16.50332410898388
 21
8.887324207773432
 31
0.0
  0
LINE
  5
26820
  8
0
  6
CONTINUOUS
 10
15.96190732182191
 20
7.67238821153127
 30
0.0
 11
16.68735328004734
 21
8.397834169756699
 31
0.0
  0
LINE
  5
26821
  8
0
  6
CONTINUOUS
 10
15.55613625537202
 20
6.593097936001196
 30
0.0
 11
16.87138245111079
 21
7.908344131739965
 31
0.0
  0
LINE
  5
26822
  8
0
  6
CONTINUOUS
 10
15.15036518892213
 20
5.513807660471122
 30
0.0
 11
17.05541162217424
 21
7.418854093723231
 31
0.0
  0
LINE
  5
26823
  8
0
  6
CONTINUOUS
 10
14.74459412247225
 20
4.434517384941048
 30
0.0
 11
17.2394407932377
 21
6.929364055706499
 31
0.0
  0
LINE
  5
26824
  8
0
  6
CONTINUOUS
 10
14.33882305602236
 20
3.355227109410975
 30
0.0
 11
17.42346996430115
 21
6.439874017689766
 31
0.0
  0
LINE
  5
26825
  8
0
  6
CONTINUOUS
 10
13.46705359186416
 20
1.809938436172586
 30
0.0
 11
16.0819338255367
 21
4.424818669845129
 31
0.0
  0
LINE
  5
26826
  8
0
  6
CONTINUOUS
 10
16.63283254238972
 20
4.975717386698149
 30
0.0
 11
17.60749913536461
 21
5.950383979673033
 31
0.0
  0
LINE
  5
26827
  8
0
  6
CONTINUOUS
 10
13.66663434263929
 20
1.335999977867529
 30
0.0
 11
15.67604797733754
 21
3.345413612565779
 31
0.0
  0
LINE
  5
26828
  8
0
  6
CONTINUOUS
 10
13.86621509341442
 20
0.8620615195624723
 30
0.0
 11
15.27016212913838
 21
2.26600855528643
 31
0.0
  0
LINE
  5
26829
  8
0
  6
CONTINUOUS
 10
16.81682257348267
 20
4.486188208710908
 30
0.0
 11
17.79152830642806
 21
5.460893941656299
 31
0.0
  0
LINE
  5
2682A
  8
0
  6
CONTINUOUS
 10
17.00081260457561
 20
3.996659030723667
 30
0.0
 11
17.97555747749151
 21
4.971403903639565
 31
0.0
  0
LINE
  5
2682B
  8
0
  6
CONTINUOUS
 10
20.74362343514722
 20
8.412989070375462
 30
0.0
 11
21.09373436476302
 21
8.763099999991256
 31
0.0
  0
LINE
  5
2682C
  8
0
  6
CONTINUOUS
 10
20.25401257174777
 20
7.249858997895826
 30
0.0
 11
21.7672535738432
 21
8.763099999991255
 31
0.0
  0
LINE
  5
2682D
  8
0
  6
CONTINUOUS
 10
14.06579584418955
 20
0.3881230612574149
 30
0.0
 11
14.86427628093921
 21
1.186603498007082
 31
0.0
  0
LINE
  5
2682E
  8
0
  6
CONTINUOUS
 10
14.26537659496467
 20
-0.0858153970476412
 30
0.0
 11
14.45839043274005
 21
0.1071984407277329
 31
0.0
  0
LINE
  5
2682F
  8
0
  6
CONTINUOUS
 10
17.18480263566856
 20
3.507129852736426
 30
0.0
 11
18.15958664855496
 21
4.481913865622833
 31
0.0
  0
LINE
  5
26830
  8
0
  6
CONTINUOUS
 10
17.3687926667615
 20
3.017600674749186
 30
0.0
 11
18.34361581961842
 21
3.9924238276061
 31
0.0
  0
LINE
  5
26831
  8
0
  6
CONTINUOUS
 10
19.76440170834832
 20
6.086728925416191
 30
0.0
 11
22.33924590259489
 21
8.661573119662755
 31
0.0
  0
LINE
  5
26832
  8
0
  6
CONTINUOUS
 10
19.27479084494887
 20
4.923598852936555
 30
0.0
 11
21.84929622842713
 21
7.498104236414807
 31
0.0
  0
LINE
  5
26833
  8
0
  6
CONTINUOUS
 10
17.55278269785445
 20
2.528071496761945
 30
0.0
 11
18.52764499068187
 21
3.502933789589366
 31
0.0
  0
LINE
  5
26834
  8
0
  6
CONTINUOUS
 10
18.78517998154942
 20
3.760468780456919
 30
0.0
 11
21.35934655425936
 21
6.33463535316686
 31
0.0
  0
LINE
  5
26835
  8
0
  6
CONTINUOUS
 10
17.73677272894739
 20
2.038542318774704
 30
0.0
 11
20.8693968800916
 21
5.171166469918914
 31
0.0
  0
LINE
  5
26836
  8
0
  6
CONTINUOUS
 10
17.92076276004034
 20
1.549013140787464
 30
0.0
 11
20.37944720592384
 21
4.007697586670968
 31
0.0
  0
LINE
  5
26837
  8
0
  6
CONTINUOUS
 10
18.10475279113329
 20
1.059483962800223
 30
0.0
 11
19.88949753175608
 21
2.84422870342302
 31
0.0
  0
LINE
  5
26838
  8
0
  6
CONTINUOUS
 10
18.28874282222623
 20
0.5699547848129822
 30
0.0
 11
19.39954785758832
 21
1.680759820175074
 31
0.0
  0
LINE
  5
26839
  8
0
  6
CONTINUOUS
 10
18.47273285331918
 20
0.0804256068257416
 30
0.0
 11
18.90959818342056
 21
0.517290936927127
 31
0.0
  0
LINE
  5
2683A
  8
0
  6
CONTINUOUS
 10
14.3590401358224
 20
-0.1570118376323384
 30
0.0
 11
14.24903296539946
 21
-0.0470046672093929
 31
0.0
  0
LINE
  5
2683B
  8
0
  6
CONTINUOUS
 10
14.54309291258661
 20
0.332454594683643
 30
0.0
 11
13.75908329123172
 21
1.116464216038529
 31
0.0
  0
LINE
  5
2683C
  8
0
  6
CONTINUOUS
 10
14.72714568935081
 20
0.8219210269996244
 30
0.0
 11
13.26913361706399
 21
2.27993309928645
 31
0.0
  0
LINE
  5
2683D
  8
0
  6
CONTINUOUS
 10
14.91119846611502
 20
1.311387459315606
 30
0.0
 11
12.77918394289625
 21
3.443401982534371
 31
0.0
  0
LINE
  5
2683E
  8
0
  6
CONTINUOUS
 10
15.09525124287922
 20
1.800853891631587
 30
0.0
 11
12.28923426872852
 21
4.606870865782293
 31
0.0
  0
LINE
  5
2683F
  8
0
  6
CONTINUOUS
 10
15.27930401964343
 20
2.290320323947569
 30
0.0
 11
11.79928459456078
 21
5.770339749030213
 31
0.0
  0
LINE
  5
26840
  8
0
  6
CONTINUOUS
 10
15.46335679640763
 20
2.77978675626355
 30
0.0
 11
14.48885470994921
 21
3.754288842721972
 31
0.0
  0
LINE
  5
26841
  8
0
  6
CONTINUOUS
 10
13.88507249233704
 20
4.358071060334137
 30
0.0
 11
11.30933492039305
 21
6.933808632278135
 31
0.0
  0
LINE
  5
26842
  8
0
  6
CONTINUOUS
 10
18.75840522805855
 20
0.1582575336928151
 30
0.0
 11
18.25383727664818
 21
0.6628254851031863
 31
0.0
  0
LINE
  5
26843
  8
0
  6
CONTINUOUS
 10
15.64740957317184
 20
3.269253188579531
 30
0.0
 11
14.67288388101266
 21
4.243778880738705
 31
0.0
  0
LINE
  5
26844
  8
0
  6
CONTINUOUS
 10
13.39509276772158
 20
5.521569994029786
 30
0.0
 11
10.81938524622531
 21
8.097277515526056
 31
0.0
  0
LINE
  5
26845
  8
0
  6
CONTINUOUS
 10
18.95798597883369
 20
0.6321959919978686
 30
0.0
 11
17.84825644852853
 21
1.741925522303024
 31
0.0
  0
LINE
  5
26846
  8
0
  6
CONTINUOUS
 10
19.15756672960882
 20
1.106134450302922
 30
0.0
 11
17.44267562040888
 21
2.821025559502861
 31
0.0
  0
LINE
  5
26847
  8
0
  6
CONTINUOUS
 10
15.83146234993604
 20
3.758719620895513
 30
0.0
 11
14.85691305207612
 21
4.733268918755439
 31
0.0
  0
LINE
  5
26848
  8
0
  6
CONTINUOUS
 10
16.01551512670025
 20
4.248186053211494
 30
0.0
 11
15.04094222313957
 21
5.222758956772172
 31
0.0
  0
LINE
  5
26849
  8
0
  6
CONTINUOUS
 10
12.90511304310612
 20
6.685068927725435
 30
0.0
 11
10.8270819708403
 21
8.763099999991255
 31
0.0
  0
LINE
  5
2684A
  8
0
  6
CONTINUOUS
 10
12.41513331849066
 20
7.848567861421083
 30
0.0
 11
11.50060117992049
 21
8.763099999991255
 31
0.0
  0
LINE
  5
2684B
  8
0
  6
CONTINUOUS
 10
19.35714748038395
 20
1.580072908607975
 30
0.0
 11
17.03709479228923
 21
3.900125596702697
 31
0.0
  0
LINE
  5
2684C
  8
0
  6
CONTINUOUS
 10
19.55672823115909
 20
2.054011366913028
 30
0.0
 11
16.63151396416958
 21
4.979225633902534
 31
0.0
  0
LINE
  5
2684D
  8
0
  6
CONTINUOUS
 10
16.19956790346445
 20
4.737652485527476
 30
0.0
 11
15.22497139420302
 21
5.712248994788904
 31
0.0
  0
LINE
  5
2684E
  8
0
  6
CONTINUOUS
 10
16.38362068022866
 20
5.227118917843457
 30
0.0
 11
15.40900056526648
 21
6.201739032805637
 31
0.0
  0
LINE
  5
2684F
  8
0
  6
CONTINUOUS
 10
19.75630898193422
 20
2.527949825218081
 30
0.0
 11
18.70774536448286
 21
3.576513442669441
 31
0.0
  0
LINE
  5
26850
  8
0
  6
CONTINUOUS
 10
19.95588973270936
 20
3.001888283523134
 30
0.0
 11
18.90726987211446
 21
4.050508144118028
 31
0.0
  0
LINE
  5
26851
  8
0
  6
CONTINUOUS
 10
20.15547048348449
 20
3.475826741828186
 30
0.0
 11
19.10679437974606
 21
4.524502845566614
 31
0.0
  0
LINE
  5
26852
  8
0
  6
CONTINUOUS
 10
20.35505123425962
 20
3.94976520013324
 30
0.0
 11
19.30631888737766
 21
4.998497547015201
 31
0.0
  0
LINE
  5
26853
  8
0
  6
CONTINUOUS
 10
20.55463198503475
 20
4.423703658438292
 30
0.0
 11
19.50584339500926
 21
5.472492248463787
 31
0.0
  0
LINE
  5
26854
  8
0
  6
CONTINUOUS
 10
18.37481191085755
 20
3.909446896294752
 30
0.0
 11
15.59302973632993
 21
6.691229070822371
 31
0.0
  0
LINE
  5
26855
  8
0
  6
CONTINUOUS
 10
17.96904084440766
 20
4.988737171824825
 30
0.0
 11
15.77705890739338
 21
7.180719108839104
 31
0.0
  0
LINE
  5
26856
  8
0
  6
CONTINUOUS
 10
17.56326977795777
 20
6.068027447354899
 30
0.0
 11
15.96108807845684
 21
7.670209146855838
 31
0.0
  0
LINE
  5
26857
  8
0
  6
CONTINUOUS
 10
17.15749871150789
 20
7.147317722884972
 30
0.0
 11
16.14511724952029
 21
8.15969918487257
 31
0.0
  0
LINE
  5
26858
  8
0
  6
CONTINUOUS
 10
16.751727645058
 20
8.226607998415046
 30
0.0
 11
16.32914642058374
 21
8.649189222889303
 31
0.0
  0
LINE
  5
26859
  8
0
  6
CONTINUOUS
 10
20.75421273580989
 20
4.897642116743345
 30
0.0
 11
19.70536790264086
 21
5.946486949912374
 31
0.0
  0
LINE
  5
2685A
  8
0
  6
CONTINUOUS
 10
20.95379348658502
 20
5.371580575048398
 30
0.0
 11
19.90489241027246
 21
6.42048165136096
 31
0.0
  0
LINE
  5
2685B
  8
0
  6
CONTINUOUS
 10
21.15337423736015
 20
5.845519033353452
 30
0.0
 11
20.10441691790406
 21
6.894476352809547
 31
0.0
  0
LINE
  5
2685C
  8
0
  6
CONTINUOUS
 10
21.35295498813529
 20
6.319457491658505
 30
0.0
 11
20.30394142553566
 21
7.368471054258134
 31
0.0
  0
LINE
  5
2685D
  8
0
  6
CONTINUOUS
 10
21.55253573891042
 20
6.793395949963558
 30
0.0
 11
20.50346593316726
 21
7.842465755706721
 31
0.0
  0
LINE
  5
2685E
  8
0
  6
CONTINUOUS
 10
21.75211648968556
 20
7.267334408268612
 30
0.0
 11
20.70299044079886
 21
8.316460457155308
 31
0.0
  0
LINE
  5
2685F
  8
0
  6
CONTINUOUS
 10
21.95169724046069
 20
7.741272866573663
 30
0.0
 11
20.9298701070431
 21
8.763099999991256
 31
0.0
  0
LINE
  5
26860
  8
0
  6
CONTINUOUS
 10
22.15127799123582
 20
8.215211324878716
 30
0.0
 11
21.60338931612328
 21
8.763099999991256
 31
0.0
  0
LINE
  5
26861
  8
0
  6
CONTINUOUS
 10
22.35085874201096
 20
8.689149783183769
 30
0.0
 11
22.27690852520347
 21
8.763099999991255
 31
0.0
  0
ENDBLK
  5
26953
  8
0
  0
BLOCK
  8
0
  2
*X281
 70
     1
 10
0.0
 20
0.0
 30
0.0
  3
*X281
  1

  0
LINE
  5
26863
  8
0
  6
CONTINUOUS
 10
23.19462913593892
 20
8.169917934846424
 30
0.0
 11
23.70775465517246
 21
8.683043454079957
 31
0.0
  0
LINE
  5
26864
  8
0
  6
CONTINUOUS
 10
22.64923161835078
 20
6.951001208178088
 30
0.0
 11
23.9159364069932
 21
8.217705996820516
 31
0.0
  0
LINE
  5
26865
  8
0
  6
CONTINUOUS
 10
22.10383410076263
 20
5.732084481509751
 30
0.0
 11
24.12411815881395
 21
7.752368539561078
 31
0.0
  0
LINE
  5
26866
  8
0
  6
CONTINUOUS
 10
21.55843658317447
 20
4.513167754841414
 30
0.0
 11
24.3322999106347
 21
7.287031082301639
 31
0.0
  0
LINE
  5
26867
  8
0
  6
CONTINUOUS
 10
21.01303906558632
 20
3.294251028173077
 30
0.0
 11
24.54048166245544
 21
6.821693625042199
 31
0.0
  0
LINE
  5
26868
  8
0
  6
CONTINUOUS
 10
20.46764154799817
 20
2.075334301504738
 30
0.0
 11
23.28571549467848
 21
4.89340824818505
 31
0.0
  0
LINE
  5
26869
  8
0
  6
CONTINUOUS
 10
19.92224403041002
 20
0.8564175748364002
 30
0.0
 11
22.74075865492779
 21
3.674932199354171
 31
0.0
  0
LINE
  5
2686A
  8
0
  6
CONTINUOUS
 10
23.67305085490148
 20
5.280743608408048
 30
0.0
 11
24.74866341427619
 21
6.356356167782759
 31
0.0
  0
LINE
  5
2686B
  8
0
  6
CONTINUOUS
 10
23.88118970842314
 20
4.815363252849522
 30
0.0
 11
24.95684516609694
 21
5.89101871052332
 31
0.0
  0
LINE
  5
2686C
  8
0
  6
CONTINUOUS
 10
19.73925852647308
 20
-0.0000871381807288
 30
0.0
 11
23.4103456646501
 21
3.670999999996297
 31
0.0
  0
LINE
  5
2686D
  8
0
  6
CONTINUOUS
 10
24.0893285619448
 20
4.349982897290997
 30
0.0
 11
25.16502691791769
 21
5.42568125326388
 31
0.0
  0
LINE
  5
2686E
  8
0
  6
CONTINUOUS
 10
20.41282099582748
 20
-0.0000438779065108
 30
0.0
 11
21.64944178675636
 21
1.236576913022366
 31
0.0
  0
LINE
  5
2686F
  8
0
  6
CONTINUOUS
 10
22.78126487373161
 20
2.36839999999762
 30
0.0
 11
24.08386487373029
 21
3.670999999996297
 31
0.0
  0
LINE
  5
26870
  8
0
  6
CONTINUOUS
 10
24.29746741546646
 20
3.884602541732471
 30
0.0
 11
25.37320866973843
 21
4.960343796004441
 31
0.0
  0
LINE
  5
26871
  8
0
  6
CONTINUOUS
 10
21.08638346518189
 20
-0.0000006176322938
 30
0.0
 11
21.10379033335899
 21
0.0174062505448083
 31
0.0
  0
LINE
  5
26872
  8
0
  6
CONTINUOUS
 10
23.4547840828118
 20
2.36839999999762
 30
0.0
 11
25.58139042155918
 21
4.495006338745002
 31
0.0
  0
LINE
  5
26873
  8
0
  6
CONTINUOUS
 10
29.30199999996933
 20
8.215615917155148
 30
0.0
 11
29.84948408280543
 21
8.763099999991255
 31
0.0
  0
LINE
  5
26874
  8
0
  6
CONTINUOUS
 10
24.12830329189199
 20
2.36839999999762
 30
0.0
 11
25.78957217337993
 21
4.029668881485562
 31
0.0
  0
LINE
  5
26875
  8
0
  6
CONTINUOUS
 10
29.30199999996933
 20
7.54209670807496
 30
0.0
 11
30.52300329188562
 21
8.763099999991255
 31
0.0
  0
LINE
  5
26876
  8
0
  6
CONTINUOUS
 10
24.80182250097217
 20
2.36839999999762
 30
0.0
 11
25.99775392520067
 21
3.564331424226122
 31
0.0
  0
LINE
  5
26877
  8
0
  6
CONTINUOUS
 10
29.30199999996933
 20
6.868577498994774
 30
0.0
 11
30.74199999996926
 21
8.308577498994712
 31
0.0
  0
LINE
  5
26878
  8
0
  6
CONTINUOUS
 10
25.13028238392013
 20
2.023340673865392
 30
0.0
 11
26.20593567702142
 21
3.098993966966683
 31
0.0
  0
LINE
  5
26879
  8
0
  6
CONTINUOUS
 10
25.33838066033617
 20
1.557919741201244
 30
0.0
 11
26.41411742884217
 21
2.633656509707244
 31
0.0
  0
LINE
  5
2687A
  8
0
  6
CONTINUOUS
 10
25.54647893675221
 20
1.092498808537098
 30
0.0
 11
26.62229918066291
 21
2.168319052447804
 31
0.0
  0
LINE
  5
2687B
  8
0
  6
CONTINUOUS
 10
25.75457721316825
 20
0.62707787587295
 30
0.0
 11
26.83048093248366
 21
1.702981595188365
 31
0.0
  0
LINE
  5
2687C
  8
0
  6
CONTINUOUS
 10
29.30199999996933
 20
6.195058289914587
 30
0.0
 11
30.74199999996926
 21
7.635058289914522
 31
0.0
  0
LINE
  5
2687D
  8
0
  6
CONTINUOUS
 10
29.30199999996933
 20
5.521539080834401
 30
0.0
 11
30.74199999996926
 21
6.961539080834331
 31
0.0
  0
LINE
  5
2687E
  8
0
  6
CONTINUOUS
 10
29.30199999996933
 20
4.848019871754214
 30
0.0
 11
30.74199999996925
 21
6.288019871754143
 31
0.0
  0
LINE
  5
2687F
  8
0
  6
CONTINUOUS
 10
29.30199999996933
 20
4.174500662674028
 30
0.0
 11
30.74199999996925
 21
5.614500662673953
 31
0.0
  0
LINE
  5
26880
  8
0
  6
CONTINUOUS
 10
25.96267548958429
 20
0.1616569432088024
 30
0.0
 11
27.18411854636669
 21
1.383099999991207
 31
0.0
  0
LINE
  5
26881
  8
0
  6
CONTINUOUS
 10
29.30199999996933
 20
3.500981453593841
 30
0.0
 11
30.74199999996925
 21
4.940981453593762
 31
0.0
  0
LINE
  5
26882
  8
0
  6
CONTINUOUS
 10
26.50763775544691
 20
0.0330999999912356
 30
0.0
 11
27.85763775544689
 21
1.383099999991223
 31
0.0
  0
LINE
  5
26883
  8
0
  6
CONTINUOUS
 10
29.30199999996933
 20
2.827462244513656
 30
0.0
 11
30.74199999996925
 21
4.267462244513574
 31
0.0
  0
LINE
  5
26884
  8
0
  6
CONTINUOUS
 10
27.18115696452709
 20
0.0330999999912356
 30
0.0
 11
28.55073879889363
 21
1.402681834357775
 31
0.0
  0
LINE
  5
26885
  8
0
  6
CONTINUOUS
 10
29.28241816560272
 20
2.134361201066866
 30
0.0
 11
30.74199999996924
 21
3.593943035433383
 31
0.0
  0
LINE
  5
26886
  8
0
  6
CONTINUOUS
 10
27.85467617360728
 20
0.0330999999912356
 30
0.0
 11
30.74199999996924
 21
2.920423826353195
 31
0.0
  0
LINE
  5
26887
  8
0
  6
CONTINUOUS
 10
28.53897559587887
 20
0.0438802131826428
 30
0.0
 11
30.73121978677781
 21
2.236124404081585
 31
0.0
  0
LINE
  5
26888
  8
0
  6
CONTINUOUS
 10
29.45140055588722
 20
0.2827859641107988
 30
0.0
 11
30.49231403584965
 21
1.323699444073236
 31
0.0
  0
LINE
  5
26889
  8
0
  6
CONTINUOUS
 10
19.59027867740337
 20
-0.0000967065718083
 30
0.0
 11
19.55485265190471
 21
0.035329318926844
 31
0.0
  0
LINE
  5
2688A
  8
0
  6
CONTINUOUS
 10
20.26375463176586
 20
-0.0000534518541091
 30
0.0
 11
19.76305575737534
 21
0.5006454225364014
 31
0.0
  0
LINE
  5
2688B
  8
0
  6
CONTINUOUS
 10
20.93723058612834
 20
-0.0000101971364099
 30
0.0
 11
19.97125886284597
 21
0.965961526145958
 31
0.0
  0
LINE
  5
2688C
  8
0
  6
CONTINUOUS
 10
21.25514828313686
 20
0.355591314935257
 30
0.0
 11
20.1794619683166
 21
1.431277629755512
 31
0.0
  0
LINE
  5
2688D
  8
0
  6
CONTINUOUS
 10
21.46338838394921
 20
0.8208704232030986
 30
0.0
 11
20.38766507378723
 21
1.896593733365069
 31
0.0
  0
LINE
  5
2688E
  8
0
  6
CONTINUOUS
 10
21.67162848476155
 20
1.28614953147094
 30
0.0
 11
20.59586817925786
 21
2.361909836974626
 31
0.0
  0
LINE
  5
2688F
  8
0
  6
CONTINUOUS
 10
21.8798685855739
 20
1.751428639738782
 30
0.0
 11
20.80407128472849
 21
2.827225940584183
 31
0.0
  0
LINE
  5
26890
  8
0
  6
CONTINUOUS
 10
22.08810868638624
 20
2.216707748006623
 30
0.0
 11
21.01227439019912
 21
3.292542044193739
 31
0.0
  0
LINE
  5
26891
  8
0
  6
CONTINUOUS
 10
22.60993564347543
 20
2.36839999999762
 30
0.0
 11
21.22047749566975
 21
3.757858147803296
 31
0.0
  0
LINE
  5
26892
  8
0
  6
CONTINUOUS
 10
23.28345485255561
 20
2.36839999999762
 30
0.0
 11
21.42868060114038
 21
4.223174251412853
 31
0.0
  0
LINE
  5
26893
  8
0
  6
CONTINUOUS
 10
26.29227406164219
 20
0.0330999999912356
 30
0.0
 11
25.80009199592872
 21
0.5252820657046957
 31
0.0
  0
LINE
  5
26894
  8
0
  6
CONTINUOUS
 10
23.9569740616358
 20
2.36839999999762
 30
0.0
 11
21.63688370661101
 21
4.688490355022409
 31
0.0
  0
LINE
  5
26895
  8
0
  6
CONTINUOUS
 10
26.96579327072237
 20
0.0330999999912356
 30
0.0
 11
25.2554132311971
 21
1.743480039516508
 31
0.0
  0
LINE
  5
26896
  8
0
  6
CONTINUOUS
 10
24.63049327071599
 20
2.36839999999762
 30
0.0
 11
23.32789327071731
 21
3.670999999996297
 31
0.0
  0
LINE
  5
26897
  8
0
  6
CONTINUOUS
 10
22.92098674744635
 20
4.077906523267254
 30
0.0
 11
21.84508681208164
 21
5.153806458631966
 31
0.0
  0
LINE
  5
26898
  8
0
  6
CONTINUOUS
 10
27.63931247980256
 20
0.0330999999912356
 30
0.0
 11
24.0014124797975
 21
3.670999999996297
 31
0.0
  0
LINE
  5
26899
  8
0
  6
CONTINUOUS
 10
23.129125600968
 20
4.5432868788258
 30
0.0
 11
22.05328991755227
 21
5.619122562241522
 31
0.0
  0
LINE
  5
2689A
  8
0
  6
CONTINUOUS
 10
28.31283168888275
 20
0.0330999999912356
 30
0.0
 11
24.16488385994816
 21
4.181047828925828
 31
0.0
  0
LINE
  5
2689B
  8
0
  6
CONTINUOUS
 10
23.33726445448964
 20
5.008667234384345
 30
0.0
 11
22.2614930230229
 21
6.084438665851079
 31
0.0
  0
LINE
  5
2689C
  8
0
  6
CONTINUOUS
 10
28.92085740005492
 20
0.0985934978992438
 30
0.0
 11
27.63635089796295
 21
1.383099999991217
 31
0.0
  0
LINE
  5
2689D
  8
0
  6
CONTINUOUS
 10
26.43704649509776
 20
2.582404402856405
 30
0.0
 11
23.61992702019732
 21
5.399523877756844
 31
0.0
  0
LINE
  5
2689E
  8
0
  6
CONTINUOUS
 10
23.54540330801128
 20
5.47404758994289
 30
0.0
 11
22.46969612849353
 21
6.549754769460635
 31
0.0
  0
LINE
  5
2689F
  8
0
  6
CONTINUOUS
 10
29.42225615078443
 20
0.2707139562499279
 30
0.0
 11
28.30987010704312
 21
1.383099999991234
 31
0.0
  0
LINE
  5
268A0
  8
0
  6
CONTINUOUS
 10
25.89179548232307
 20
3.801174624711282
 30
0.0
 11
22.67789923396416
 21
7.015070873070191
 31
0.0
  0
LINE
  5
268A1
  8
0
  6
CONTINUOUS
 10
29.83624534690007
 20
0.5302439692144705
 30
0.0
 11
28.85811781497101
 21
1.508371501143527
 31
0.0
  0
LINE
  5
268A2
  8
0
  6
CONTINUOUS
 10
25.34654446954838
 20
5.01994484656616
 30
0.0
 11
22.88610233943479
 21
7.480386976679748
 31
0.0
  0
LINE
  5
268A3
  8
0
  6
CONTINUOUS
 10
30.17865975401872
 20
0.8613487711760022
 30
0.0
 11
29.18888744090175
 21
1.851121084292977
 31
0.0
  0
LINE
  5
268A4
  8
0
  6
CONTINUOUS
 10
24.80129345677369
 20
6.238715068421037
 30
0.0
 11
23.09430544490542
 21
7.945703080289305
 31
0.0
  0
LINE
  5
268A5
  8
0
  6
CONTINUOUS
 10
30.45496647202376
 20
1.258561262251155
 30
0.0
 11
29.30199999996933
 21
2.411527734305588
 31
0.0
  0
LINE
  5
268A6
  8
0
  6
CONTINUOUS
 10
24.256042443999
 20
7.457485290275915
 30
0.0
 11
23.30250855037605
 21
8.411019183898862
 31
0.0
  0
LINE
  5
268A7
  8
0
  6
CONTINUOUS
 10
30.64868582078271
 20
1.738361122572387
 30
0.0
 11
29.30199999996933
 21
3.085046943385775
 31
0.0
  0
LINE
  5
268A8
  8
0
  6
CONTINUOUS
 10
23.71079143122431
 20
8.676255512130794
 30
0.0
 11
23.51071165584668
 21
8.876335287508416
 31
0.0
  0
LINE
  5
268A9
  8
0
  6
CONTINUOUS
 10
30.73802122914428
 20
2.322544923291007
 30
0.0
 11
29.30199999996933
 21
3.758566152465961
 31
0.0
  0
LINE
  5
268AA
  8
0
  6
CONTINUOUS
 10
30.74199999996924
 20
2.992085361546236
 30
0.0
 11
29.30199999996933
 21
4.432085361546148
 31
0.0
  0
LINE
  5
268AB
  8
0
  6
CONTINUOUS
 10
30.74199999996924
 20
3.665604570626419
 30
0.0
 11
29.30199999996933
 21
5.105604570626333
 31
0.0
  0
LINE
  5
268AC
  8
0
  6
CONTINUOUS
 10
30.74199999996925
 20
4.339123779706602
 30
0.0
 11
29.30199999996933
 21
5.77912377970652
 31
0.0
  0
LINE
  5
268AD
  8
0
  6
CONTINUOUS
 10
30.74199999996925
 20
5.012642988786785
 30
0.0
 11
29.30199999996933
 21
6.452642988786707
 31
0.0
  0
LINE
  5
268AE
  8
0
  6
CONTINUOUS
 10
30.74199999996925
 20
5.68616219786697
 30
0.0
 11
29.30199999996933
 21
7.126162197866894
 31
0.0
  0
LINE
  5
268AF
  8
0
  6
CONTINUOUS
 10
30.74199999996925
 20
6.359681406947153
 30
0.0
 11
29.30199999996933
 21
7.799681406947081
 31
0.0
  0
LINE
  5
268B0
  8
0
  6
CONTINUOUS
 10
30.74199999996926
 20
7.033200616027337
 30
0.0
 11
29.30199999996933
 21
8.473200616027269
 31
0.0
  0
LINE
  5
268B1
  8
0
  6
CONTINUOUS
 10
30.74199999996926
 20
7.706719825107518
 30
0.0
 11
29.68561982508552
 21
8.763099999991255
 31
0.0
  0
LINE
  5
268B2
  8
0
  6
CONTINUOUS
 10
30.74199999996926
 20
8.380239034187703
 30
0.0
 11
30.35913903416571
 21
8.763099999991255
 31
0.0
  0
ENDBLK
  5
26955
  8
0
  0
BLOCK
  8
0
  2
*X282
 70
     1
 10
0.0
 20
0.0
 30
0.0
  3
*X282
  1

  0
LINE
  5
268B4
  8
0
  6
CONTINUOUS
 10
31.64199999996833
 20
8.535058289913598
 30
0.0
 11
31.87004171004599
 21
8.763099999991255
 31
0.0
  0
LINE
  5
268B5
  8
0
  6
CONTINUOUS
 10
31.64199999996833
 20
7.861539080833412
 30
0.0
 11
32.54356091912618
 21
8.763099999991255
 31
0.0
  0
LINE
  5
268B6
  8
0
  6
CONTINUOUS
 10
31.64199999996833
 20
7.188019871753226
 30
0.0
 11
33.08199999996839
 21
8.628019871753281
 31
0.0
  0
LINE
  5
268B7
  8
0
  6
CONTINUOUS
 10
31.64199999996833
 20
6.51450066267304
 30
0.0
 11
33.08199999996839
 21
7.954500662673095
 31
0.0
  0
LINE
  5
268B8
  8
0
  6
CONTINUOUS
 10
31.64199999996833
 20
5.840981453592853
 30
0.0
 11
33.08199999996839
 21
7.280981453592908
 31
0.0
  0
LINE
  5
268B9
  8
0
  6
CONTINUOUS
 10
31.64199999996833
 20
5.167462244512667
 30
0.0
 11
33.08199999996839
 21
6.607462244512721
 31
0.0
  0
LINE
  5
268BA
  8
0
  6
CONTINUOUS
 10
31.64199999996833
 20
4.493943035432481
 30
0.0
 11
33.08199999996839
 21
5.933943035432535
 31
0.0
  0
LINE
  5
268BB
  8
0
  6
CONTINUOUS
 10
31.64199999996833
 20
3.820423826352293
 30
0.0
 11
33.08199999996839
 21
5.260423826352348
 31
0.0
  0
LINE
  5
268BC
  8
0
  6
CONTINUOUS
 10
31.64199999996833
 20
3.146904617272106
 30
0.0
 11
33.08199999996839
 21
4.586904617272161
 31
0.0
  0
LINE
  5
268BD
  8
0
  6
CONTINUOUS
 10
36.23199999996837
 20
8.410423826352325
 30
0.0
 11
36.5846761736073
 21
8.763099999991255
 31
0.0
  0
LINE
  5
268BE
  8
0
  6
CONTINUOUS
 10
36.23199999996837
 20
7.73690461727214
 30
0.0
 11
37.25819538268748
 21
8.763099999991255
 31
0.0
  0
LINE
  5
268BF
  8
0
  6
CONTINUOUS
 10
31.64257403601376
 20
2.473959444237348
 30
0.0
 11
33.08199999996839
 21
3.913385408191974
 31
0.0
  0
LINE
  5
268C0
  8
0
  6
CONTINUOUS
 10
36.23199999996837
 20
7.063385408191953
 30
0.0
 11
37.67199999996831
 21
8.503385408191894
 31
0.0
  0
LINE
  5
268C1
  8
0
  6
CONTINUOUS
 10
31.72013636841932
 20
1.87800256756272
 30
0.0
 11
33.08199999996839
 21
3.239866199111788
 31
0.0
  0
LINE
  5
268C2
  8
0
  6
CONTINUOUS
 10
36.23199999996837
 20
6.389866199111767
 30
0.0
 11
37.67199999996831
 21
7.829866199111708
 31
0.0
  0
LINE
  5
268C3
  8
0
  6
CONTINUOUS
 10
31.89042734314753
 20
1.374774333210744
 30
0.0
 11
33.08199999996839
 21
2.566346990031601
 31
0.0
  0
LINE
  5
268C4
  8
0
  6
CONTINUOUS
 10
36.23199999996837
 20
5.71634699003158
 30
0.0
 11
37.67199999996831
 21
7.156346990031521
 31
0.0
  0
LINE
  5
268C5
  8
0
  6
CONTINUOUS
 10
32.14210568064475
 20
0.952933461627778
 30
0.0
 11
33.18745552475986
 21
1.998283305742888
 31
0.0
  0
LINE
  5
268C6
  8
0
  6
CONTINUOUS
 10
36.23199999996837
 20
5.042827780951393
 30
0.0
 11
37.67199999996831
 21
6.482827780951334
 31
0.0
  0
LINE
  5
268C7
  8
0
  6
CONTINUOUS
 10
32.45820639400955
 20
0.5955149659123915
 30
0.0
 11
33.47242681921943
 21
1.60973539112227
 31
0.0
  0
LINE
  5
268C8
  8
0
  6
CONTINUOUS
 10
36.23199999996837
 20
4.369308571871207
 30
0.0
 11
37.67199999996831
 21
5.809308571871147
 31
0.0
  0
LINE
  5
268C9
  8
0
  6
CONTINUOUS
 10
32.83432456621412
 20
0.2981139290367771
 30
0.0
 11
33.89722476612215
 21
1.361014128944803
 31
0.0
  0
LINE
  5
268CA
  8
0
  6
CONTINUOUS
 10
36.23199999996837
 20
3.69578936279102
 30
0.0
 11
37.67199999996831
 21
5.135789362790962
 31
0.0
  0
LINE
  5
268CB
  8
0
  6
CONTINUOUS
 10
33.2711633111245
 20
0.0614334648669672
 30
0.0
 11
34.43247338014423
 21
1.222743533886696
 31
0.0
  0
LINE
  5
268CC
  8
0
  6
CONTINUOUS
 10
36.23199999996837
 20
3.022270153710834
 30
0.0
 11
37.67199999996831
 21
4.462270153710775
 31
0.0
  0
LINE
  5
268CD
  8
0
  6
CONTINUOUS
 10
33.76515245874577
 20
-0.1180965965919523
 30
0.0
 11
35.1587445516215
 21
1.27549549628378
 31
0.0
  0
LINE
  5
268CE
  8
0
  6
CONTINUOUS
 10
36.21639478609585
 20
2.333145730758136
 30
0.0
 11
37.67199999996831
 21
3.788750944630588
 31
0.0
  0
LINE
  5
268CF
  8
0
  6
CONTINUOUS
 10
34.34060583368432
 20
-0.2161624307335863
 30
0.0
 11
37.67199999996831
 21
3.115231735550401
 31
0.0
  0
LINE
  5
268D0
  8
0
  6
CONTINUOUS
 10
35.01698193613905
 20
-0.2133055373590427
 30
0.0
 11
37.66876712070525
 21
2.438479647207154
 31
0.0
  0
LINE
  5
268D1
  8
0
  6
CONTINUOUS
 10
35.90743367693304
 20
0.0036269943547609
 30
0.0
 11
37.51723902192366
 21
1.613432339345381
 31
0.0
  0
LINE
  5
268D2
  8
0
  6
CONTINUOUS
 10
32.55309425579761
 20
0.5074718966376706
 30
0.0
 11
32.27784730925847
 21
0.7827188431768102
 31
0.0
  0
LINE
  5
268D3
  8
0
  6
CONTINUOUS
 10
33.87496468909684
 20
-0.1408793275813673
 30
0.0
 11
31.67993083278052
 21
2.054154528734943
 31
0.0
  0
LINE
  5
268D4
  8
0
  6
CONTINUOUS
 10
34.64362813207632
 20
-0.2360235614806649
 30
0.0
 11
31.64199999996833
 21
2.765604570627322
 31
0.0
  0
LINE
  5
268D5
  8
0
  6
CONTINUOUS
 10
35.25801106796118
 20
-0.1768872882853429
 30
0.0
 11
31.64199999996833
 21
3.439123779707508
 31
0.0
  0
LINE
  5
268D6
  8
0
  6
CONTINUOUS
 10
35.79065650332146
 20
-0.0360135145654361
 30
0.0
 11
34.54143210838231
 21
1.213210880373721
 31
0.0
  0
LINE
  5
268D7
  8
0
  6
CONTINUOUS
 10
33.08199999996839
 20
2.67264298878764
 30
0.0
 11
31.64199999996833
 21
4.112642988787695
 31
0.0
  0
LINE
  5
268D8
  8
0
  6
CONTINUOUS
 10
36.25975597779143
 20
0.1684062200447833
 30
0.0
 11
35.15395110240023
 21
1.274211095435983
 31
0.0
  0
LINE
  5
268D9
  8
0
  6
CONTINUOUS
 10
33.08199999996839
 20
3.346162197867826
 30
0.0
 11
31.64199999996833
 21
4.786162197867881
 31
0.0
  0
LINE
  5
268DA
  8
0
  6
CONTINUOUS
 10
36.67226329638774
 20
0.4294181105286579
 30
0.0
 11
35.63766478748767
 21
1.464016619428737
 31
0.0
  0
LINE
  5
268DB
  8
0
  6
CONTINUOUS
 10
33.08199999996839
 20
4.019681406948012
 30
0.0
 11
31.64199999996833
 21
5.459681406948068
 31
0.0
  0
LINE
  5
268DC
  8
0
  6
CONTINUOUS
 10
37.01677749710036
 20
0.7584231188962329
 30
0.0
 11
35.99563422741351
 21
1.779566388583076
 31
0.0
  0
LINE
  5
268DD
  8
0
  6
CONTINUOUS
 10
33.08199999996839
 20
4.693200616028199
 30
0.0
 11
31.64199999996833
 21
6.133200616028255
 31
0.0
  0
LINE
  5
268DE
  8
0
  6
CONTINUOUS
 10
37.29859977568887
 20
1.1501200493879
 30
0.0
 11
36.20680593341555
 21
2.241913891661226
 31
0.0
  0
LINE
  5
268DF
  8
0
  6
CONTINUOUS
 10
33.08199999996839
 20
5.366719825108386
 30
0.0
 11
31.64199999996833
 21
6.80671982510844
 31
0.0
  0
LINE
  5
268E0
  8
0
  6
CONTINUOUS
 10
37.5148623517228
 20
1.607376682434161
 30
0.0
 11
36.23199999996837
 21
2.890239034188594
 31
0.0
  0
LINE
  5
268E1
  8
0
  6
CONTINUOUS
 10
33.08199999996839
 20
6.040239034188573
 30
0.0
 11
31.64199999996833
 21
7.480239034188627
 31
0.0
  0
LINE
  5
268E2
  8
0
  6
CONTINUOUS
 10
37.64705163358367
 20
2.148706609653477
 30
0.0
 11
36.23199999996837
 21
3.56375824326878
 31
0.0
  0
LINE
  5
268E3
  8
0
  6
CONTINUOUS
 10
33.08199999996839
 20
6.713758243268758
 30
0.0
 11
31.64199999996833
 21
8.153758243268815
 31
0.0
  0
LINE
  5
268E4
  8
0
  6
CONTINUOUS
 10
37.67199999996831
 20
2.797277452349026
 30
0.0
 11
36.23199999996837
 21
4.237277452348967
 31
0.0
  0
LINE
  5
268E5
  8
0
  6
CONTINUOUS
 10
37.67199999996831
 20
3.470796661429213
 30
0.0
 11
36.23199999996837
 21
4.910796661429154
 31
0.0
  0
LINE
  5
268E6
  8
0
  6
CONTINUOUS
 10
37.67199999996831
 20
4.144315870509399
 30
0.0
 11
36.23199999996837
 21
5.58431587050934
 31
0.0
  0
LINE
  5
268E7
  8
0
  6
CONTINUOUS
 10
33.08199999996839
 20
7.387277452348945
 30
0.0
 11
31.70617745232608
 21
8.763099999991255
 31
0.0
  0
LINE
  5
268E8
  8
0
  6
CONTINUOUS
 10
33.08199999996839
 20
8.060796661429132
 30
0.0
 11
32.37969666140626
 21
8.763099999991255
 31
0.0
  0
LINE
  5
268E9
  8
0
  6
CONTINUOUS
 10
33.08199999996839
 20
8.734315870509318
 30
0.0
 11
33.05321587048645
 21
8.763099999991255
 31
0.0
  0
LINE
  5
268EA
  8
0
  6
CONTINUOUS
 10
37.67199999996831
 20
4.817835079589585
 30
0.0
 11
36.23199999996837
 21
6.257835079589526
 31
0.0
  0
LINE
  5
268EB
  8
0
  6
CONTINUOUS
 10
37.67199999996831
 20
5.491354288669771
 30
0.0
 11
36.23199999996837
 21
6.931354288669713
 31
0.0
  0
LINE
  5
268EC
  8
0
  6
CONTINUOUS
 10
37.67199999996831
 20
6.164873497749958
 30
0.0
 11
36.23199999996837
 21
7.6048734977499
 31
0.0
  0
LINE
  5
268ED
  8
0
  6
CONTINUOUS
 10
37.67199999996831
 20
6.838392706830144
 30
0.0
 11
36.23199999996837
 21
8.278392706830086
 31
0.0
  0
LINE
  5
268EE
  8
0
  6
CONTINUOUS
 10
37.67199999996831
 20
7.511911915910332
 30
0.0
 11
36.42081191588738
 21
8.763099999991255
 31
0.0
  0
LINE
  5
268EF
  8
0
  6
CONTINUOUS
 10
37.67199999996831
 20
8.185431124990519
 30
0.0
 11
37.09433112496757
 21
8.763099999991255
 31
0.0
  0
ENDBLK
  5
26957
  8
0
  0
BLOCK
  8
0
  2
*X283
 70
     1
 10
0.0
 20
0.0
 30
0.0
  3
*X283
  1

  0
LINE
  5
268F1
  8
0
  6
CONTINUOUS
 10
38.60499999996136
 20
8.762866199104765
 30
0.0
 11
38.71672554182345
 21
8.874591740966855
 31
0.0
  0
LINE
  5
268F2
  8
0
  6
CONTINUOUS
 10
38.60499999996136
 20
8.089346990024577
 30
0.0
 11
39.03418785440363
 21
8.518534844466847
 31
0.0
  0
LINE
  5
268F3
  8
0
  6
CONTINUOUS
 10
38.60499999996136
 20
7.41582778094439
 30
0.0
 11
39.35165016698382
 21
8.16247794796684
 31
0.0
  0
LINE
  5
268F4
  8
0
  6
CONTINUOUS
 10
38.60499999996136
 20
6.742308571864204
 30
0.0
 11
39.66911247956399
 21
7.806421051466834
 31
0.0
  0
LINE
  5
268F5
  8
0
  6
CONTINUOUS
 10
38.60499999996136
 20
6.068789362784018
 30
0.0
 11
39.98657479214418
 21
7.450364154966827
 31
0.0
  0
LINE
  5
268F6
  8
0
  6
CONTINUOUS
 10
38.60499999996136
 20
5.395270153703832
 30
0.0
 11
40.30403710472435
 21
7.09430725846682
 31
0.0
  0
LINE
  5
268F7
  8
0
  6
CONTINUOUS
 10
38.60499999996136
 20
4.721750944623645
 30
0.0
 11
40.62149941730453
 21
6.738250361966813
 31
0.0
  0
LINE
  5
268F8
  8
0
  6
CONTINUOUS
 10
38.60499999996136
 20
4.048231735543458
 30
0.0
 11
40.93896172988471
 21
6.382193465466806
 31
0.0
  0
LINE
  5
268F9
  8
0
  6
CONTINUOUS
 10
38.60499999996136
 20
3.374712526463272
 30
0.0
 11
40.02599999995994
 21
4.795712526461843
 31
0.0
  0
LINE
  5
268FA
  8
0
  6
CONTINUOUS
 10
38.60499999996136
 20
2.701193317383085
 30
0.0
 11
40.02599999995994
 21
4.122193317381657
 31
0.0
  0
LINE
  5
268FB
  8
0
  6
CONTINUOUS
 10
40.28339754687704
 20
5.053110073378947
 30
0.0
 11
41.25642404246489
 21
6.026136568966799
 31
0.0
  0
LINE
  5
268FC
  8
0
  6
CONTINUOUS
 10
40.60085985945722
 20
4.697053176878939
 30
0.0
 11
41.57388635504507
 21
5.670079672466793
 31
0.0
  0
LINE
  5
268FD
  8
0
  6
CONTINUOUS
 10
43.57899999995641
 20
8.348712526458318
 30
0.0
 11
43.99338747348935
 21
8.763099999991255
 31
0.0
  0
LINE
  5
268FE
  8
0
  6
CONTINUOUS
 10
43.57899999995641
 20
7.675193317378131
 30
0.0
 11
44.66690668256953
 21
8.763099999991255
 31
0.0
  0
LINE
  5
268FF
  8
0
  6
CONTINUOUS
 10
38.60499999996136
 20
2.027674108302898
 30
0.0
 11
40.02599999995994
 21
3.44867410830147
 31
0.0
  0
LINE
  5
26900
  8
0
  6
CONTINUOUS
 10
38.60499999996136
 20
1.354154899222712
 30
0.0
 11
40.02599999995994
 21
2.775154899221284
 31
0.0
  0
LINE
  5
26901
  8
0
  6
CONTINUOUS
 10
38.60499999996136
 20
0.6806356901425255
 30
0.0
 11
40.02599999995994
 21
2.101635690141098
 31
0.0
  0
LINE
  5
26902
  8
0
  6
CONTINUOUS
 10
38.60499999996136
 20
0.0071164810623383
 30
0.0
 11
40.02599999995994
 21
1.428116481060911
 31
0.0
  0
LINE
  5
26903
  8
0
  6
CONTINUOUS
 10
40.9183221720374
 20
4.340996280378933
 30
0.0
 11
41.89134866762525
 21
5.314022775966786
 31
0.0
  0
LINE
  5
26904
  8
0
  6
CONTINUOUS
 10
41.23578448461758
 20
3.984939383878926
 30
0.0
 11
42.20881098020543
 21
4.957965879466778
 31
0.0
  0
LINE
  5
26905
  8
0
  6
CONTINUOUS
 10
41.55324679719776
 20
3.628882487378919
 30
0.0
 11
42.52627329278561
 21
4.601908982966772
 31
0.0
  0
LINE
  5
26906
  8
0
  6
CONTINUOUS
 10
41.87070910977793
 20
3.272825590878912
 30
0.0
 11
42.84373560536579
 21
4.245852086466765
 31
0.0
  0
LINE
  5
26907
  8
0
  6
CONTINUOUS
 10
43.57899999995641
 20
7.001674108297943
 30
0.0
 11
44.99999999995498
 21
8.422674108296516
 31
0.0
  0
LINE
  5
26908
  8
0
  6
CONTINUOUS
 10
43.57899999995641
 20
6.328154899217758
 30
0.0
 11
44.99999999995498
 21
7.749154899216329
 31
0.0
  0
LINE
  5
26909
  8
0
  6
CONTINUOUS
 10
43.57899999995641
 20
5.654635690137571
 30
0.0
 11
44.99999999995498
 21
7.075635690136142
 31
0.0
  0
LINE
  5
2690A
  8
0
  6
CONTINUOUS
 10
43.57899999995641
 20
4.981116481057384
 30
0.0
 11
44.99999999995498
 21
6.402116481055955
 31
0.0
  0
LINE
  5
2690B
  8
0
  6
CONTINUOUS
 10
39.27140272797921
 20
-0.0000000000000009
 30
0.0
 11
40.02599999995994
 21
0.7545972719807246
 31
0.0
  0
LINE
  5
2690C
  8
0
  6
CONTINUOUS
 10
39.9449219370594
 20
-0.0000000000000009
 30
0.0
 11
40.02599999995994
 21
0.0810780629005379
 31
0.0
  0
LINE
  5
2690D
  8
0
  6
CONTINUOUS
 10
42.18817142235812
 20
2.916768694378905
 30
0.0
 11
43.16119791794597
 21
3.889795189966758
 31
0.0
  0
LINE
  5
2690E
  8
0
  6
CONTINUOUS
 10
42.50563373493829
 20
2.560711797878898
 30
0.0
 11
43.47866023052615
 21
3.533738293466751
 31
0.0
  0
LINE
  5
2690F
  8
0
  6
CONTINUOUS
 10
43.57899999995641
 20
4.307597271977198
 30
0.0
 11
44.99999999995498
 21
5.728597271975769
 31
0.0
  0
LINE
  5
26910
  8
0
  6
CONTINUOUS
 10
43.57899999995641
 20
3.634078062897011
 30
0.0
 11
44.99999999995498
 21
5.055078062895582
 31
0.0
  0
LINE
  5
26911
  8
0
  6
CONTINUOUS
 10
42.82309604751848
 20
2.204654901378891
 30
0.0
 11
44.99999999995498
 21
4.381558853815395
 31
0.0
  0
LINE
  5
26912
  8
0
  6
CONTINUOUS
 10
43.14055836009865
 20
1.848598004878885
 30
0.0
 11
44.99999999995498
 21
3.70803964473521
 31
0.0
  0
LINE
  5
26913
  8
0
  6
CONTINUOUS
 10
43.45802067267883
 20
1.492541108378878
 30
0.0
 11
44.99999999995498
 21
3.034520435655023
 31
0.0
  0
LINE
  5
26914
  8
0
  6
CONTINUOUS
 10
43.77548298525902
 20
1.136484211878871
 30
0.0
 11
44.99999999995498
 21
2.361001226574837
 31
0.0
  0
LINE
  5
26915
  8
0
  6
CONTINUOUS
 10
44.09294529783919
 20
0.7804273153788639
 30
0.0
 11
44.99999999995498
 21
1.687482017494649
 31
0.0
  0
LINE
  5
26916
  8
0
  6
CONTINUOUS
 10
44.41040761041938
 20
0.4243704188788566
 30
0.0
 11
44.99999999995498
 21
1.013962808414463
 31
0.0
  0
LINE
  5
26917
  8
0
  6
CONTINUOUS
 10
44.72786992299955
 20
0.0683135223788494
 30
0.0
 11
44.99999999995498
 21
0.340443599334276
 31
0.0
  0
LINE
  5
26918
  8
0
  6
CONTINUOUS
 10
39.12223903415696
 20
-0.0000000000000009
 30
0.0
 11
38.60499999996136
 21
0.5172390341955961
 31
0.0
  0
LINE
  5
26919
  8
0
  6
CONTINUOUS
 10
39.79575824323715
 20
-0.0000000000000009
 30
0.0
 11
38.60499999996136
 21
1.190758243275783
 31
0.0
  0
LINE
  5
2691A
  8
0
  6
CONTINUOUS
 10
40.02599999995994
 20
0.443277452357397
 30
0.0
 11
38.60499999996136
 21
1.864277452355969
 31
0.0
  0
LINE
  5
2691B
  8
0
  6
CONTINUOUS
 10
40.02599999995994
 20
1.116796661437583
 30
0.0
 11
38.60499999996136
 21
2.537796661436155
 31
0.0
  0
LINE
  5
2691C
  8
0
  6
CONTINUOUS
 10
40.02599999995994
 20
1.79031587051777
 30
0.0
 11
38.60499999996136
 21
3.211315870516341
 31
0.0
  0
LINE
  5
2691D
  8
0
  6
CONTINUOUS
 10
40.02599999995994
 20
2.463835079597956
 30
0.0
 11
38.60499999996136
 21
3.884835079596527
 31
0.0
  0
LINE
  5
2691E
  8
0
  6
CONTINUOUS
 10
40.02599999995994
 20
3.137354288678143
 30
0.0
 11
38.60499999996136
 21
4.558354288676714
 31
0.0
  0
LINE
  5
2691F
  8
0
  6
CONTINUOUS
 10
40.02599999995994
 20
3.810873497758329
 30
0.0
 11
38.60499999996136
 21
5.2318734977569
 31
0.0
  0
LINE
  5
26920
  8
0
  6
CONTINUOUS
 10
40.02599999995994
 20
4.484392706838515
 30
0.0
 11
38.60499999996136
 21
5.905392706837086
 31
0.0
  0
LINE
  5
26921
  8
0
  6
CONTINUOUS
 10
44.99999999995498
 20
0.183911915923658
 30
0.0
 11
41.53858364506288
 21
3.64532827081576
 31
0.0
  0
LINE
  5
26922
  8
0
  6
CONTINUOUS
 10
40.02599999995994
 20
5.157911915918703
 30
0.0
 11
38.60499999996136
 21
6.578911915917274
 31
0.0
  0
LINE
  5
26923
  8
0
  6
CONTINUOUS
 10
44.99999999995498
 20
0.8574311250038447
 30
0.0
 11
38.60499999996136
 21
7.25243112499746
 31
0.0
  0
LINE
  5
26924
  8
0
  6
CONTINUOUS
 10
44.99999999995498
 20
1.530950334084031
 30
0.0
 11
38.60499999996136
 21
7.925950334077647
 31
0.0
  0
LINE
  5
26925
  8
0
  6
CONTINUOUS
 10
44.99999999995498
 20
2.204469543164218
 30
0.0
 11
43.57899999995641
 21
3.625469543162789
 31
0.0
  0
LINE
  5
26926
  8
0
  6
CONTINUOUS
 10
41.89876730984767
 20
5.305702233271528
 30
0.0
 11
38.60499999996136
 21
8.599469543157834
 31
0.0
  0
LINE
  5
26927
  8
0
  6
CONTINUOUS
 10
44.99999999995498
 20
2.877988752244405
 30
0.0
 11
43.57899999995641
 21
4.298988752242975
 31
0.0
  0
LINE
  5
26928
  8
0
  6
CONTINUOUS
 10
44.99999999995498
 20
3.551507961324591
 30
0.0
 11
43.57899999995641
 21
4.972507961323163
 31
0.0
  0
LINE
  5
26929
  8
0
  6
CONTINUOUS
 10
44.99999999995498
 20
4.225027170404777
 30
0.0
 11
43.57899999995641
 21
5.646027170403348
 31
0.0
  0
LINE
  5
2692A
  8
0
  6
CONTINUOUS
 10
44.99999999995498
 20
4.898546379484964
 30
0.0
 11
43.57899999995641
 21
6.319546379483535
 31
0.0
  0
LINE
  5
2692B
  8
0
  6
CONTINUOUS
 10
44.99999999995498
 20
5.572065588565151
 30
0.0
 11
43.57899999995641
 21
6.993065588563722
 31
0.0
  0
LINE
  5
2692C
  8
0
  6
CONTINUOUS
 10
44.99999999995498
 20
6.245584797645336
 30
0.0
 11
43.57899999995641
 21
7.666584797643908
 31
0.0
  0
LINE
  5
2692D
  8
0
  6
CONTINUOUS
 10
44.99999999995498
 20
6.919104006725522
 30
0.0
 11
43.57899999995641
 21
8.340104006724093
 31
0.0
  0
LINE
  5
2692E
  8
0
  6
CONTINUOUS
 10
44.99999999995498
 20
7.592623215805709
 30
0.0
 11
43.82952321576943
 21
8.763099999991255
 31
0.0
  0
LINE
  5
2692F
  8
0
  6
CONTINUOUS
 10
44.99999999995498
 20
8.266142424885896
 30
0.0
 11
44.50304242484962
 21
8.763099999991255
 31
0.0
  0
ENDBLK
  5
26959
  8
0
  0
BLOCK
  8
0
  2
*X284
 70
     1
 10
0.0
 20
0.0
 30
0.0
  3
*X284
  1

  0
LINE
  5
26931
  8
0
  6
CONTINUOUS
 10
0.0
 20
8.548461116714023
 30
0.0
 11
0.2146388832772324
 21
8.763099999991255
 31
0.0
  0
LINE
  5
26932
  8
0
  6
CONTINUOUS
 10
-0.0000000000000002
 20
7.874941907633837
 30
0.0
 11
0.8881580923574184
 21
8.763099999991255
 31
0.0
  0
LINE
  5
26933
  8
0
  6
CONTINUOUS
 10
0.0
 20
7.20142269855365
 30
0.0
 11
1.420999999998572
 21
8.622422698552223
 31
0.0
  0
LINE
  5
26934
  8
0
  6
CONTINUOUS
 10
-0.0000000000000001
 20
6.527903489473465
 30
0.0
 11
1.420999999998571
 21
7.948903489472036
 31
0.0
  0
LINE
  5
26935
  8
0
  6
CONTINUOUS
 10
-0.0000000000000002
 20
5.854384280393278
 30
0.0
 11
1.420999999998571
 21
7.275384280391849
 31
0.0
  0
LINE
  5
26936
  8
0
  6
CONTINUOUS
 10
-0.0000000000000002
 20
5.180865071313091
 30
0.0
 11
1.420999999998571
 21
6.601865071311663
 31
0.0
  0
LINE
  5
26937
  8
0
  6
CONTINUOUS
 10
0.0
 20
4.507345862232905
 30
0.0
 11
1.420999999998571
 21
5.928345862231477
 31
0.0
  0
LINE
  5
26938
  8
0
  6
CONTINUOUS
 10
-0.0000000000000003
 20
3.833826653152718
 30
0.0
 11
1.420999999998571
 21
5.25482665315129
 31
0.0
  0
LINE
  5
26939
  8
0
  6
CONTINUOUS
 10
-0.0000000000000002
 20
3.160307444072532
 30
0.0
 11
1.420999999998571
 21
4.581307444071103
 31
0.0
  0
LINE
  5
2693A
  8
0
  6
CONTINUOUS
 10
-0.0000000000000001
 20
2.486788234992345
 30
0.0
 11
1.420999999998571
 21
3.907788234990917
 31
0.0
  0
LINE
  5
2693B
  8
0
  6
CONTINUOUS
 10
-0.0000000000000006
 20
1.813269025912159
 30
0.0
 11
1.420999999998571
 21
3.234269025910731
 31
0.0
  0
LINE
  5
2693C
  8
0
  6
CONTINUOUS
 10
0.0
 20
1.139749816831973
 30
0.0
 11
1.420999999998571
 21
2.560749816830544
 31
0.0
  0
LINE
  5
2693D
  8
0
  6
CONTINUOUS
 10
0.0000000000000002
 20
0.466230607751787
 30
0.0
 11
1.420999999998571
 21
1.887230607750358
 31
0.0
  0
LINE
  5
2693E
  8
0
  6
CONTINUOUS
 10
0.2072886013284003
 20
-0.0000000000000009
 30
0.0
 11
1.420999999998571
 21
1.213711398670171
 31
0.0
  0
LINE
  5
2693F
  8
0
  6
CONTINUOUS
 10
0.8808078104085864
 20
-0.0000000000000009
 30
0.0
 11
1.420999999998571
 21
0.5401921895899839
 31
0.0
  0
LINE
  5
26940
  8
0
  6
CONTINUOUS
 10
0.0581249075061505
 20
-0.0000000000000009
 30
0.0
 11
-0.0000000000000002
 21
0.0581249075061496
 31
0.0
  0
LINE
  5
26941
  8
0
  6
CONTINUOUS
 10
0.7316441165863372
 20
-0.0000000000000009
 30
0.0
 11
-0.0000000000000002
 21
0.7316441165863363
 31
0.0
  0
LINE
  5
26942
  8
0
  6
CONTINUOUS
 10
1.405163325666523
 20
-0.0000000000000009
 30
0.0
 11
-0.0000000000000002
 21
1.405163325666523
 31
0.0
  0
LINE
  5
26943
  8
0
  6
CONTINUOUS
 10
1.420999999998572
 20
0.6576825347481381
 30
0.0
 11
-0.0000000000000001
 21
2.07868253474671
 31
0.0
  0
LINE
  5
26944
  8
0
  6
CONTINUOUS
 10
1.420999999998571
 20
1.331201743828324
 30
0.0
 11
-0.0000000000000001
 21
2.752201743826896
 31
0.0
  0
LINE
  5
26945
  8
0
  6
CONTINUOUS
 10
1.420999999998571
 20
2.004720952908511
 30
0.0
 11
-0.0000000000000002
 21
3.425720952907082
 31
0.0
  0
LINE
  5
26946
  8
0
  6
CONTINUOUS
 10
1.420999999998571
 20
2.678240161988697
 30
0.0
 11
-0.0000000000000001
 21
4.099240161987269
 31
0.0
  0
LINE
  5
26947
  8
0
  6
CONTINUOUS
 10
1.420999999998572
 20
3.351759371068884
 30
0.0
 11
0.0
 21
4.772759371067455
 31
0.0
  0
LINE
  5
26948
  8
0
  6
CONTINUOUS
 10
1.420999999998571
 20
4.02527858014907
 30
0.0
 11
-0.0000000000000003
 21
5.446278580147642
 31
0.0
  0
LINE
  5
26949
  8
0
  6
CONTINUOUS
 10
1.420999999998571
 20
4.698797789229257
 30
0.0
 11
0.0
 21
6.119797789227828
 31
0.0
  0
LINE
  5
2694A
  8
0
  6
CONTINUOUS
 10
1.420999999998571
 20
5.372316998309444
 30
0.0
 11
-0.0000000000000001
 21
6.793316998308015
 31
0.0
  0
LINE
  5
2694B
  8
0
  6
CONTINUOUS
 10
1.420999999998572
 20
6.045836207389629
 30
0.0
 11
-0.0000000000000004
 21
7.466836207388202
 31
0.0
  0
LINE
  5
2694C
  8
0
  6
CONTINUOUS
 10
1.420999999998571
 20
6.719355416469816
 30
0.0
 11
0.0
 21
8.140355416468388
 31
0.0
  0
LINE
  5
2694D
  8
0
  6
CONTINUOUS
 10
1.420999999998571
 20
7.392874625550003
 30
0.0
 11
0.0507746255573185
 21
8.763099999991255
 31
0.0
  0
LINE
  5
2694E
  8
0
  6
CONTINUOUS
 10
1.420999999998571
 20
8.06639383463019
 30
0.0
 11
0.7242938346375052
 21
8.763099999991255
 31
0.0
  0
LINE
  5
2694F
  8
0
  6
CONTINUOUS
 10
1.420999999998571
 20
8.739913043710375
 30
0.0
 11
1.397813043717691
 21
8.763099999991255
 31
0.0
  0
ENDBLK
  5
2695B
  8
0
  0
ENDSEC
  0
SECTION
  2
ENTITIES
  0
LINE
  5
25D53
  8
01
 10
2984.249946212768
 20
-1315.392365035004
 30
0.0
 11
1606.749933242798
 21
-1315.392365035004
 31
0.0
  0
LINE
  5
25D54
  8
01
 10
3005.499946326017
 20
-751.3923716809222
 30
0.0
 11
3005.499946326017
 21
-1294.892365632913
 31
0.0
  0
LINE
  5
25D55
  8
01
 10
1606.03973865509
 20
-1299.392365672029
 30
0.0
 11
1606.03973865509
 21
-1299.892365753985
 31
0.0
  0
ARC
  5
25D58
  8
01
 10
1605.539764114386
 20
-1299.392365638714
 30
0.0
 40
0.5
 50
0.0
 51
90.0
  0
LINE
  5
25D59
  8
01
 10
1600.03981590271
 20
-1360.892364111132
 30
0.0
 11
1600.03981590271
 21
-1359.892362084574
 31
0.0
  0
LINE
  5
25D5C
  8
01
 10
1605.539774894714
 20
-1360.892364111132
 30
0.0
 11
1600.03981590271
 21
-1360.892364111132
 31
0.0
  0
LINE
  5
25D5D
  8
01
 10
1600.03981590271
 20
-1359.892362084574
 30
0.0
 11
1600.03981590271
 21
-1299.892365753985
 31
0.0
  0
LINE
  5
25D61
  8
01
 10
1606.03973865509
 20
-1359.892362084574
 30
0.0
 11
1606.03973865509
 21
-1360.392363097853
 31
0.0
  0
ARC
  5
25D62
  8
01
 10
1605.539764114386
 20
-1360.392365638714
 30
0.0
 40
0.5000000000001137
 50
270.0
 51
0.0
  0
LINE
  5
25D63
  8
01
 10
1606.03973865509
 20
-1299.892365753985
 30
0.0
 11
1606.03973865509
 21
-1359.892362084574
 31
0.0
  0
LINE
  5
25D64
  8
01
 10
1600.03981590271
 20
-1299.892365753985
 30
0.0
 11
1600.03981590271
 21
-1298.892365590072
 31
0.0
  0
LINE
  5
25D65
  8
01
 10
1600.03981590271
 20
-1298.892365590072
 30
0.0
 11
1605.539774894714
 21
-1298.892365590072
 31
0.0
  0
LINE
  5
25D66
  8
01
 10
3049.999947100878
 20
-750.9321940209338
 30
0.0
 11
2989.999946113676
 21
-750.9321940209338
 31
0.0
  0
LINE
  5
25D6A
  8
01
 10
2989.999946113676
 20
-750.9321940209338
 30
0.0
 11
2989.499946031719
 21
-750.9321940209338
 31
0.0
  0
ARC
  5
25D6B
  8
01
 10
2989.499946212769
 20
-750.4321835403316
 30
0.0
 40
0.5000000000001137
 50
180.0
 51
270.0
  0
LINE
  5
25D6F
  8
01
 10
2989.999946113676
 20
-744.9321818615863
 30
0.0
 11
3049.999947100878
 21
-744.9321818615863
 31
0.0
  0
LINE
  5
25D70
  8
01
 10
3050.999945402145
 20
-744.9321818615863
 30
0.0
 11
3050.999945402145
 21
-750.4321706559131
 31
0.0
  0
LINE
  5
25D72
  8
01
 10
3049.999947100878
 20
-744.9321818615863
 30
0.0
 11
3050.999945402145
 21
-744.9321818615863
 31
0.0
  0
LINE
  5
25D73
  8
01
 10
3050.499944388866
 20
-750.9321940209338
 30
0.0
 11
3049.999947100878
 21
-750.9321940209338
 31
0.0
  0
ARC
  5
25D74
  8
01
 10
3050.499946212768
 20
-750.4321835403316
 30
0.0
 40
0.5000000000001137
 50
270.0
 51
0.0
  0
LINE
  5
25D75
  8
01
 10
2988.999946415424
 20
-750.4321706559131
 30
0.0
 11
2988.999946415424
 21
-744.9321818615863
 31
0.0
  0
LINE
  5
25D76
  8
01
 10
2988.999946415424
 20
-744.9321818615863
 30
0.0
 11
2989.999946113676
 21
-744.9321818615863
 31
0.0
  0
LINE
  5
25D81
  8
01
 10
1600.0
 20
-1349.892364170737
 30
0.0
 11
1600.03981590271
 21
-1349.892364170737
 31
0.0
  0
LINE
  5
25D82
  8
01
 10
1600.0
 20
-1309.892365064806
 30
0.0
 11
1600.03981590271
 21
-1309.892365064806
 31
0.0
  0
LINE
  5
25D8B
  8
01
 10
1606.749933242798
 20
-1315.392365035004
 30
0.0
 11
1606.749933242798
 21
-1316.612319376654
 31
0.0
  0
LINE
  5
25D8C
  8
01
 10
1607.499933242798
 20
-1316.892366212196
 30
0.0
 11
2984.999945759773
 21
-1316.892366212196
 31
0.0
  0
LINE
  5
25D8D
  8
01
 10
1606.749933242798
 20
-1316.612319376654
 30
0.0
 11
1606.749933242798
 21
-1316.892366212196
 31
0.0
  0
LINE
  5
25D8E
  8
01
 10
1606.749933242798
 20
-1315.392365035004
 30
0.0
 11
1606.749933242798
 21
-1315.6152919944
 31
0.0
  0
LINE
  5
25D8F
  8
01
 10
2984.999945759773
 20
-1344.392364200539
 30
0.0
 11
1606.03973865509
 21
-1344.392364200539
 31
0.0
  0
LINE
  5
25D90
  8
01
 10
2984.999945759773
 20
-1317.192365702576
 30
0.0
 11
2984.999945759773
 21
-1343.392365899271
 31
0.0
  0
LINE
  5
25D91
  8
01
 10
1606.03973865509
 20
-1316.892366212196
 30
0.0
 11
2984.999945759773
 21
-1316.892366212196
 31
0.0
  0
LINE
  5
25D93
  8
01
 10
3006.999946571887
 20
-751.3923716809222
 30
0.0
 11
3006.719898805022
 21
-751.3923716809222
 31
0.0
  0
LINE
  5
25D94
  8
01
 10
3006.999946571887
 20
-751.3923716809222
 30
0.0
 11
3006.999946571887
 21
-1294.892365632913
 31
0.0
  0
LINE
  5
25D96
  8
01
 10
3006.719898805022
 20
-751.3923716809222
 30
0.0
 11
3005.722873285413
 21
-751.3923716809222
 31
0.0
  0
LINE
  5
25D97
  8
01
 10
3005.722873285413
 20
-751.3923716809222
 30
0.0
 11
3005.499946326017
 21
-751.3923716809222
 31
0.0
  0
LINE
  5
25D98
  8
01
 10
3006.999946571887
 20
-1294.892365632913
 30
0.0
 11
3006.999946571887
 21
-750.9321940209339
 31
0.0
  0
LINE
  5
25D99
  8
01
 10
3033.499947190285
 20
-1294.892365632913
 30
0.0
 11
3007.299946062267
 21
-1294.892365632913
 31
0.0
  0
LINE
  5
25D9A
  8
01
 10
3034.499945491552
 20
-750.9321940209338
 30
0.0
 11
3034.499945491552
 21
-1294.892365632913
 31
0.0
  0
LINE
  5
25D9E
  8
01
 10
3034.999946504831
 20
-1295.39236571487
 30
0.0
 11
3034.999946504831
 21
-1343.392365899271
 31
0.0
  0
ARC
  5
25D9F
  8
01
 10
3033.499946212768
 20
-1343.392365638714
 30
0.0
 40
1.500000000000114
 50
270.0
 51
0.0
  0
LINE
  5
25DA5
  8
01
 10
2985.49994584173
 20
-1314.89236588437
 30
0.0
 11
3002.999945916235
 21
-1314.89236588437
 31
0.0
  0
LINE
  5
25DA8
  8
01
 10
2984.999945759773
 20
-1343.89236691255
 30
0.0
 11
2984.999945759773
 21
-1316.392365198917
 31
0.0
  0
LINE
  5
25DAA
  8
01
 10
2984.999945759773
 20
-1316.392365198917
 30
0.0
 11
2984.999945759773
 21
-1315.392365035004
 31
0.0
  0
ARC
  5
25DAB
  8
01
 10
2985.499946212768
 20
-1315.392365638714
 30
0.0
 40
0.5
 50
90.0
 51
180.0
  0
ARC
  5
25DB1
  8
01
 10
3005.499946212768
 20
-1295.392365638714
 30
0.0
 40
0.5
 50
90.0
 51
180.0
  0
LINE
  5
25DB2
  8
01
 10
3005.499946326017
 20
-1294.892365632913
 30
0.0
 11
3006.49994648993
 21
-1294.892365632913
 31
0.0
  0
LINE
  5
25DB4
  8
01
 10
3006.49994648993
 20
-1294.892365632913
 30
0.0
 11
3033.999944478273
 21
-1294.892365632913
 31
0.0
  0
LINE
  5
25DB6
  8
01
 10
3033.999944478273
 20
-1294.892365632913
 30
0.0
 11
3034.499945491552
 21
-1294.892365632913
 31
0.0
  0
ARC
  5
25DB7
  8
01
 10
3034.499946212768
 20
-1295.392365638714
 30
0.0
 40
0.5
 50
0.0
 51
90.0
  0
ARC
  5
25DB9
  8
01
 10
2985.499946212768
 20
-1344.392365638714
 30
0.0
 40
0.5000000000001137
 50
180.0
 51
270.0
  0
LINE
  5
25DBA
  8
01
 10
2984.999945759773
 20
-1344.392364200539
 30
0.0
 11
2984.999945759773
 21
-1343.89236691255
 31
0.0
  0
ARC
  5
25DBB
  8
01
 10
3002.999946212768
 20
-1312.892365638714
 30
0.0
 40
2.000000000000114
 50
270.0
 51
0.0
  0
LINE
  5
25DBD
  8
01
 10
3004.999946244061
 20
-1312.892365556545
 30
0.0
 11
3004.999946244061
 21
-1295.39236571487
 31
0.0
  0
LINE
  5
25DBE
  8
01
 10
3033.499947190285
 20
-1344.892365213818
 30
0.0
 11
2985.49994584173
 21
-1344.892365213818
 31
0.0
  0
LINE
  5
25DC7
  8
01
 10
1606.03973865509
 20
-1498.999999836087
 30
0.0
 11
1606.03973865509
 21
-1499.499999918044
 31
0.0
  0
ARC
  5
25DC8
  8
01
 10
1605.539764114386
 20
-1499.499999888433
 30
0.0
 40
0.5
 50
270.0
 51
0.0
  0
LINE
  5
25DCD
  8
01
 10
1606.03973865509
 20
-1467.999999644235
 30
0.0
 11
1606.03973865509
 21
-1498.999999836087
 31
0.0
  0
LINE
  5
25DD6
  8
01
 10
1600.03981590271
 20
-1498.999999836087
 30
0.0
 11
1600.03981590271
 21
-1467.000001342967
 31
0.0
  0
LINE
  5
25DD7
  8
01
 10
1605.539774894714
 20
-1500.0
 30
0.0
 11
1600.03981590271
 21
-1500.0
 31
0.0
  0
LINE
  5
25DD8
  8
01
 10
1600.03981590271
 20
-1500.0
 30
0.0
 11
1600.03981590271
 21
-1498.999999836087
 31
0.0
  0
LINE
  5
25DD9
  8
01
 10
1600.03981590271
 20
-1467.000001342967
 30
0.0
 11
1605.539774894714
 21
-1467.000001342967
 31
0.0
  0
ARC
  5
25DDC
  8
01
 10
1605.539764114386
 20
-1467.499999888433
 30
0.0
 40
0.5
 50
0.0
 51
90.0
  0
LINE
  5
25DDD
  8
01
 10
1606.03973865509
 20
-1467.499998630956
 30
0.0
 11
1606.03973865509
 21
-1467.999999644235
 31
0.0
  0
LINE
  5
25E01
  8
01
 10
2984.999945759773
 20
-1490.499999606982
 30
0.0
 11
1606.03973865509
 21
-1490.499999606982
 31
0.0
  0
LINE
  5
25E03
  8
01
 10
1606.03973865509
 20
-1476.500000106171
 30
0.0
 11
2984.999945759773
 21
-1476.500000106171
 31
0.0
  0
ARC
  5
25E22
  8
01
 10
3123.131833834816
 20
-1359.892365638714
 30
0.0
 40
1.000000000000114
 50
180.0
 51
270.0
  0
ARC
  5
25E2D
  8
01
 10
3154.131833834816
 20
-1299.892365638714
 30
0.0
 40
1.0
 50
0.0
 51
90.0
  0
ARC
  5
25E30
  8
01
 10
3154.131833834816
 20
-1359.892365638714
 30
0.0
 40
1.000000000000114
 50
270.0
 51
0.0
  0
LINE
  5
25E32
  8
01
 10
3154.13183378247
 20
-1360.892364111132
 30
0.0
 11
3123.131833590618
 21
-1360.892364111132
 31
0.0
  0
LINE
  5
25E33
  8
01
 10
3155.131833946383
 20
-1299.892365753985
 30
0.0
 11
3155.131833946383
 21
-1359.892362084574
 31
0.0
  0
LINE
  5
25E35
  8
01
 10
3123.131833590618
 20
-1298.892365590072
 30
0.0
 11
3131.131833039275
 21
-1298.892365590072
 31
0.0
  0
LINE
  5
25E36
  8
01
 10
3146.131833635322
 20
-1298.892365590072
 30
0.0
 11
3154.13183378247
 21
-1298.892365590072
 31
0.0
  0
ARC
  5
25E38
  8
01
 10
3123.131833834816
 20
-1299.892365638714
 30
0.0
 40
1.0
 50
90.0
 51
180.0
  0
LINE
  5
25E39
  8
01
 10
3122.13183528935
 20
-1359.892362084574
 30
0.0
 11
3122.13183528935
 21
-1299.892365753985
 31
0.0
  0
LINE
  5
25E42
  8
01
 10
3141.631833829037
 20
-744.9321818615863
 30
0.0
 11
3154.13183378247
 21
-744.9321818615863
 31
0.0
  0
LINE
  5
25E43
  8
01
 10
3123.131833590618
 20
-744.9321818615863
 30
0.0
 11
3135.631834708205
 21
-744.9321818615863
 31
0.0
  0
LINE
  5
25E45
  8
01
 10
3122.13183528935
 20
-750.4321706559131
 30
0.0
 11
3122.13183528935
 21
-744.9321818615863
 31
0.0
  0
LINE
  5
25E46
  8
01
 10
3122.13183528935
 20
-744.9321818615863
 30
0.0
 11
3123.131833590618
 21
-744.9321818615863
 31
0.0
  0
LINE
  5
25E47
  8
01
 10
3123.131833590618
 20
-750.9321940209338
 30
0.0
 11
3122.631832577339
 21
-750.9321940209338
 31
0.0
  0
ARC
  5
25E48
  8
01
 10
3122.631833834816
 20
-750.4321835403316
 30
0.0
 40
0.5
 50
180.0
 51
270.0
  0
LINE
  5
25E4B
  8
01
 10
3154.13183378247
 20
-750.9321940209338
 30
0.0
 11
3123.131833590618
 21
-750.9321940209338
 31
0.0
  0
ARC
  5
25E4D
  8
01
 10
3154.631833834816
 20
-750.4321835403316
 30
0.0
 40
0.5
 50
270.0
 51
0.0
  0
LINE
  5
25E4E
  8
01
 10
3154.631833864427
 20
-750.9321940209338
 30
0.0
 11
3154.13183378247
 21
-750.9321940209338
 31
0.0
  0
LINE
  5
25E4F
  8
01
 10
3155.131833946383
 20
-744.9321818615863
 30
0.0
 11
3155.131833946383
 21
-750.4321706559131
 31
0.0
  0
LINE
  5
25E50
  8
01
 10
3154.13183378247
 20
-744.9321818615863
 30
0.0
 11
3155.131833946383
 21
-744.9321818615863
 31
0.0
  0
LINE
  5
25E5C
  8
01
 10
3145.631833553365
 20
-750.9321940209338
 30
0.0
 11
3145.631833553365
 21
-1294.892365632913
 31
0.0
  0
LINE
  5
25E5D
  8
01
 10
3131.631834052554
 20
-1294.892365632913
 30
0.0
 11
3131.631834052554
 21
-750.9321940209337
 31
0.0
  0
LINE
  5
25E5E
  8
01
 10
3144.631833389452
 20
-1294.892365632913
 30
0.0
 11
3132.631834216467
 21
-1294.892365632913
 31
0.0
  0
LINE
  5
25E5F
  8
01
 10
3145.131833471409
 20
-1294.892365632913
 30
0.0
 11
3145.631833553365
 21
-1294.892365632913
 31
0.0
  0
ARC
  5
25E60
  8
01
 10
3145.631833834816
 20
-1295.392365638714
 30
0.0
 40
0.5
 50
0.0
 51
90.0
  0
LINE
  5
25E65
  8
01
 10
3146.131833635322
 20
-1295.39236571487
 30
0.0
 11
3146.131833635322
 21
-1343.392365899271
 31
0.0
  0
LINE
  5
25E6A
  8
01
 10
3131.131833039275
 20
-1343.392365899271
 30
0.0
 11
3131.131833039275
 21
-1295.39236571487
 31
0.0
  0
LINE
  5
25E6C
  8
01
 10
3132.131833203188
 20
-1294.892365632913
 30
0.0
 11
3145.131833471409
 21
-1294.892365632913
 31
0.0
  0
ARC
  5
25E6F
  8
01
 10
3132.131833834816
 20
-1343.892365638714
 30
0.0
 40
1.0
 50
180.0
 51
270.0
  0
LINE
  5
25E70
  8
01
 10
3131.131833039275
 20
-1343.89236691255
 30
0.0
 11
3131.131833039275
 21
-1343.392365899271
 31
0.0
  0
LINE
  5
25E71
  8
01
 10
3146.131833635322
 20
-1343.392365899271
 30
0.0
 11
3146.131833635322
 21
-1343.89236691255
 31
0.0
  0
ARC
  5
25E72
  8
01
 10
3145.131833834816
 20
-1343.892365638714
 30
0.0
 40
1.0
 50
270.0
 51
0.0
  0
LINE
  5
25E74
  8
01
 10
3145.131833471409
 20
-1344.892365213818
 30
0.0
 11
3132.131833203188
 21
-1344.892365213818
 31
0.0
  0
LINE
  5
25E75
  8
01
 10
3131.631834052554
 20
-1294.892365632913
 30
0.0
 11
3132.131833203188
 21
-1294.892365632913
 31
0.0
  0
ARC
  5
25E76
  8
01
 10
3131.631833834816
 20
-1295.392365638714
 30
0.0
 40
0.5000000000001137
 50
90.0
 51
180.0
  0
LINE
  5
25E7D
  8
01
 10
3141.631833829037
 20
-744.9321818615863
 30
0.0
 11
3135.631834708205
 21
-744.9321818615863
 31
0.0
  0
LINE
  5
25E7E
  8
01
 10
2984.249946212768
 20
-1315.392365035004
 30
0.0
 11
2984.249945759773
 21
-1316.892366212196
 31
0.0
  0
LINE
  5
25E9B
  8
01
  6
PHANTOM2
 10
3048.849864459038
 20
-744.9321818615863
 30
0.0
 11
3040.499864459038
 21
-744.9321818615863
 31
0.0
  0
LINE
  5
25E9C
  8
01
  6
PHANTOM2
 10
3000.499864459038
 20
-744.9321818615863
 30
0.0
 11
2992.149864459038
 21
-744.9321818615863
 31
0.0
  0
LINE
  5
25E9D
  8
01
  6
PHANTOM2
 10
3049.849864459038
 20
-744.9321818615863
 30
0.0
 11
3048.849864459038
 21
-744.9321818615863
 31
0.0
  0
LINE
  5
25E9E
  8
01
  6
PHANTOM2
 10
3049.849864459038
 20
-747.9321818615863
 30
0.0
 11
3049.849864459038
 21
-744.9321818615863
 31
0.0
  0
LINE
  5
25E9F
  8
01
  6
PHANTOM2
 10
2991.149864459038
 20
-744.9321818615863
 30
0.0
 11
2991.149864459038
 21
-747.9321818615863
 31
0.0
  0
LINE
  5
25EA0
  8
01
  6
PHANTOM2
 10
2992.149864459038
 20
-744.9321818615863
 30
0.0
 11
2991.149864459038
 21
-744.9321818615863
 31
0.0
  0
LINE
  5
25EA1
  8
01
  6
PHANTOM2
 10
2992.149864459038
 20
-748.4321818615863
 30
0.0
 11
3015.299864459038
 21
-748.4321818615863
 31
0.0
  0
LINE
  5
25EA2
  8
01
  6
PHANTOM2
 10
3048.849864459038
 20
-748.4321818615863
 30
0.0
 11
3049.349864459038
 21
-748.4321818615863
 31
0.0
  0
LINE
  5
25EA3
  8
01
  6
PHANTOM2
 10
3049.349864459038
 20
-748.4321818615863
 30
0.0
 11
3049.849864459038
 21
-747.9321818615863
 31
0.0
  0
LINE
  5
25EA4
  8
01
  6
PHANTOM2
 10
2991.649864459038
 20
-748.4321818615863
 30
0.0
 11
2992.149864459038
 21
-748.4321818615863
 31
0.0
  0
LINE
  5
25EA5
  8
01
  6
PHANTOM2
 10
2991.649864459038
 20
-748.4321818615863
 30
0.0
 11
2991.149864459038
 21
-747.9321818615863
 31
0.0
  0
LINE
  5
25EA6
  8
01
  6
PHANTOM2
 10
3040.499864459038
 20
-744.9321818615863
 30
0.0
 11
3000.499864459038
 21
-744.9321818615863
 31
0.0
  0
ARC
  5
25EA7
  8
01
  6
PHANTOM2
 10
3015.299864459038
 20
-749.4321818615863
 30
0.0
 40
1.0
 50
0.0
 51
90.0
  0
ARC
  5
25EA8
  8
01
  6
PHANTOM2
 10
3034.199864459038
 20
-749.4321818615863
 30
0.0
 40
1.0
 50
90.0
 51
180.0
  0
LINE
  5
25EA9
  8
01
  6
PHANTOM2
 10
3016.299864459038
 20
-749.4321818615863
 30
0.0
 11
3016.299864459038
 21
-778.4321818615863
 31
0.0
  0
LINE
  5
25EAA
  8
01
  6
PHANTOM2
 10
3033.199864459038
 20
-778.4321818615863
 30
0.0
 11
3033.199864459038
 21
-749.4321818615863
 31
0.0
  0
LINE
  5
25EAB
  8
01
  6
PHANTOM2
 10
3017.799864459038
 20
-779.4321818615863
 30
0.0
 11
3031.699864459038
 21
-779.4321818615863
 31
0.0
  0
LINE
  5
25EAC
  8
01
  6
PHANTOM2
 10
3017.299864459038
 20
-779.4321818615863
 30
0.0
 11
3017.799864459038
 21
-779.4321818615863
 31
0.0
  0
LINE
  5
25EAD
  8
01
  6
PHANTOM2
 10
3017.299864459038
 20
-779.4321818615863
 30
0.0
 11
3016.299864459038
 21
-778.4321818615863
 31
0.0
  0
LINE
  5
25EAE
  8
01
  6
PHANTOM2
 10
3031.699864459038
 20
-779.4321818615863
 30
0.0
 11
3032.199864459038
 21
-779.4321818615863
 31
0.0
  0
LINE
  5
25EAF
  8
01
  6
PHANTOM2
 10
3033.199864459038
 20
-778.4321818615863
 30
0.0
 11
3032.199864459038
 21
-779.4321818615863
 31
0.0
  0
LINE
  5
25EB0
  8
01
  6
PHANTOM2
 10
3034.199864459038
 20
-748.4321818615863
 30
0.0
 11
3048.849864459038
 21
-748.4321818615863
 31
0.0
  0
LINE
  5
25EB2
  8
01
  6
PHANTOM2
 10
3013.799865335226
 20
-763.732195332236
 30
0.0
 11
3013.799865335226
 21
-756.132195332236
 31
0.0
  0
LINE
  5
25EB3
  8
01
  6
PHANTOM2
 10
3013.799865335226
 20
-756.132195332236
 30
0.0
 11
3014.799865335226
 21
-756.132195332236
 31
0.0
  0
LINE
  5
25EB4
  8
01
  6
PHANTOM2
 10
3014.799865335226
 20
-756.132195332236
 30
0.0
 11
3014.799865335226
 21
-763.732195332236
 31
0.0
  0
LINE
  5
25EB5
  8
01
  6
PHANTOM2
 10
3014.799865335226
 20
-763.732195332236
 30
0.0
 11
3013.799865335226
 21
-763.732195332236
 31
0.0
  0
LINE
  5
25EB7
  8
01
  6
PHANTOM2
 10
3013.799873479116
 20
-771.4321493923846
 30
0.0
 11
3013.799868825419
 21
-773.4321959282827
 31
0.0
  0
LINE
  5
25EB8
  8
01
  6
PHANTOM2
 10
3013.799861845033
 20
-776.4321959282822
 30
0.0
 11
3013.799857191552
 21
-778.4321493923842
 31
0.0
  0
LINE
  5
25EB9
  8
01
  6
PHANTOM2
 10
3013.799865335226
 20
-778.7321959282824
 30
0.0
 11
3013.799865335226
 21
-771.1321959282825
 31
0.0
  0
LINE
  5
25EBA
  8
01
  6
PHANTOM2
 10
3013.799865335226
 20
-771.1321959282825
 30
0.0
 11
3014.799865335226
 21
-771.1321959282825
 31
0.0
  0
LINE
  5
25EBB
  8
01
  6
PHANTOM2
 10
3014.799865335226
 20
-771.1321959282825
 30
0.0
 11
3014.799865335226
 21
-778.7321959282824
 31
0.0
  0
LINE
  5
25EBC
  8
01
  6
PHANTOM2
 10
3014.799865335226
 20
-778.7321959282824
 30
0.0
 11
3013.799865335226
 21
-778.7321959282824
 31
0.0
  0
LINE
  5
25F35
  8
01
  6
PHANTOM2
 10
3124.781834617867
 20
-748.4321818615864
 30
0.0
 11
3124.281834617867
 21
-748.4321818615864
 31
0.0
  0
LINE
  5
25F36
  8
01
  6
PHANTOM2
 10
3124.281834617867
 20
-748.4321818615864
 30
0.0
 11
3123.781834617867
 21
-747.9321818615864
 31
0.0
  0
LINE
  5
25F37
  8
01
  6
PHANTOM2
 10
3123.781834617867
 20
-747.9321818615864
 30
0.0
 11
3123.781834617867
 21
-744.9321818615863
 31
0.0
  0
LINE
  5
25F38
  8
01
  6
PHANTOM2
 10
3123.781834617867
 20
-744.9321818615863
 30
0.0
 11
3124.781834617867
 21
-744.9321818615863
 31
0.0
  0
LINE
  5
25F39
  8
01
  6
PHANTOM2
 10
3153.481834617867
 20
-747.9321818615864
 30
0.0
 11
3152.981834617867
 21
-748.4321818615864
 31
0.0
  0
LINE
  5
25F3A
  8
01
  6
PHANTOM2
 10
3152.981834617867
 20
-748.4321818615864
 30
0.0
 11
3152.481834617867
 21
-748.4321818615864
 31
0.0
  0
LINE
  5
25F3B
  8
01
  6
PHANTOM2
 10
3124.781834617867
 20
-744.9321818615863
 30
0.0
 11
3152.481834617867
 21
-744.9321818615863
 31
0.0
  0
LINE
  5
25F3C
  8
01
  6
PHANTOM2
 10
3153.481834617867
 20
-744.9321818615863
 30
0.0
 11
3153.481834617867
 21
-747.9321818615864
 31
0.0
  0
LINE
  5
25F3D
  8
01
  6
PHANTOM2
 10
3152.481834617867
 20
-744.9321818615863
 30
0.0
 11
3153.481834617867
 21
-744.9321818615863
 31
0.0
  0
ARC
  5
25F3E
  8
01
  6
PHANTOM2
 10
3132.281834617867
 20
-749.4321818615864
 30
0.0
 40
1.0
 50
0.0
 51
90.0
  0
ARC
  5
25F3F
  8
01
  6
PHANTOM2
 10
3144.981834617867
 20
-749.4321818615864
 30
0.0
 40
1.0
 50
90.0
 51
180.0
  0
LINE
  5
25F40
  8
01
  6
PHANTOM2
 10
3142.981834617867
 20
-779.4321818615864
 30
0.0
 11
3142.481834617867
 21
-779.4321818615864
 31
0.0
  0
LINE
  5
25F41
  8
01
  6
PHANTOM2
 10
3142.981834617867
 20
-779.4321818615864
 30
0.0
 11
3143.981834617867
 21
-778.4321818615864
 31
0.0
  0
LINE
  5
25F42
  8
01
  6
PHANTOM2
 10
3143.981834617867
 20
-749.4321818615864
 30
0.0
 11
3143.981834617867
 21
-778.4321818615864
 31
0.0
  0
LINE
  5
25F43
  8
01
  6
PHANTOM2
 10
3142.481834617867
 20
-779.4321818615864
 30
0.0
 11
3134.781834617867
 21
-779.4321818615864
 31
0.0
  0
LINE
  5
25F44
  8
01
  6
PHANTOM2
 10
3133.281834617867
 20
-778.4321818615864
 30
0.0
 11
3133.281834617867
 21
-749.4321818615864
 31
0.0
  0
LINE
  5
25F45
  8
01
  6
PHANTOM2
 10
3134.781834617867
 20
-779.4321818615864
 30
0.0
 11
3134.281834617867
 21
-779.4321818615864
 31
0.0
  0
LINE
  5
25F46
  8
01
  6
PHANTOM2
 10
3134.281834617867
 20
-779.4321818615864
 30
0.0
 11
3133.281834617867
 21
-778.4321818615864
 31
0.0
  0
LINE
  5
25F47
  8
01
  6
PHANTOM2
 10
3124.781834617867
 20
-748.4321818615864
 30
0.0
 11
3132.281834617867
 21
-748.4321818615864
 31
0.0
  0
LINE
  5
25F48
  8
01
  6
PHANTOM2
 10
3152.481834617867
 20
-748.4321818615864
 30
0.0
 11
3144.981834617867
 21
-748.4321818615864
 31
0.0
  0
LINE
  5
25F9C
  8
01
  6
PHANTOM2
 10
1600.03981590271
 20
-1358.242364576793
 30
0.0
 11
1600.03981590271
 21
-1349.892364576793
 31
0.0
  0
LINE
  5
25F9D
  8
01
  6
PHANTOM2
 10
1600.03981590271
 20
-1309.892364576793
 30
0.0
 11
1600.03981590271
 21
-1301.542364576793
 31
0.0
  0
LINE
  5
25F9E
  8
01
  6
PHANTOM2
 10
1600.03981590271
 20
-1359.242364576793
 30
0.0
 11
1600.03981590271
 21
-1358.242364576793
 31
0.0
  0
LINE
  5
25F9F
  8
01
  6
PHANTOM2
 10
1603.03981590271
 20
-1359.242364576793
 30
0.0
 11
1600.03981590271
 21
-1359.242364576793
 31
0.0
  0
LINE
  5
25FA0
  8
01
  6
PHANTOM2
 10
1600.03981590271
 20
-1300.542364576793
 30
0.0
 11
1603.03981590271
 21
-1300.542364576793
 31
0.0
  0
LINE
  5
25FA1
  8
01
  6
PHANTOM2
 10
1600.03981590271
 20
-1301.542364576793
 30
0.0
 11
1600.03981590271
 21
-1300.542364576793
 31
0.0
  0
LINE
  5
25FA2
  8
01
  6
PHANTOM2
 10
1603.53981590271
 20
-1301.542364576793
 30
0.0
 11
1603.53981590271
 21
-1324.692364576793
 31
0.0
  0
LINE
  5
25FA3
  8
01
  6
PHANTOM2
 10
1603.53981590271
 20
-1358.242364576793
 30
0.0
 11
1603.53981590271
 21
-1358.742364576793
 31
0.0
  0
LINE
  5
25FA4
  8
01
  6
PHANTOM2
 10
1603.53981590271
 20
-1358.742364576793
 30
0.0
 11
1603.03981590271
 21
-1359.242364576793
 31
0.0
  0
LINE
  5
25FA5
  8
01
  6
PHANTOM2
 10
1603.53981590271
 20
-1301.042364576793
 30
0.0
 11
1603.53981590271
 21
-1301.542364576793
 31
0.0
  0
LINE
  5
25FA6
  8
01
  6
PHANTOM2
 10
1603.53981590271
 20
-1301.042364576793
 30
0.0
 11
1603.03981590271
 21
-1300.542364576793
 31
0.0
  0
LINE
  5
25FA7
  8
01
  6
PHANTOM2
 10
1600.03981590271
 20
-1349.892364576793
 30
0.0
 11
1600.03981590271
 21
-1309.892364576793
 31
0.0
  0
ARC
  5
25FA8
  8
01
  6
PHANTOM2
 10
1604.53981590271
 20
-1324.692364576793
 30
0.0
 40
1.0
 50
180.0
 51
270.0
  0
ARC
  5
25FA9
  8
01
  6
PHANTOM2
 10
1604.53981590271
 20
-1343.592364576793
 30
0.0
 40
1.0
 50
90.0
 51
180.0
  0
LINE
  5
25FAA
  8
01
  6
PHANTOM2
 10
1604.53981590271
 20
-1325.692364576793
 30
0.0
 11
1633.53981590271
 21
-1325.692364576793
 31
0.0
  0
LINE
  5
25FAB
  8
01
  6
PHANTOM2
 10
1633.53981590271
 20
-1342.592364576793
 30
0.0
 11
1604.53981590271
 21
-1342.592364576793
 31
0.0
  0
LINE
  5
25FAC
  8
01
  6
PHANTOM2
 10
1634.53981590271
 20
-1327.192364576793
 30
0.0
 11
1634.53981590271
 21
-1341.092364576793
 31
0.0
  0
LINE
  5
25FAD
  8
01
  6
PHANTOM2
 10
1634.53981590271
 20
-1326.692364576793
 30
0.0
 11
1634.53981590271
 21
-1327.192364576793
 31
0.0
  0
LINE
  5
25FAE
  8
01
  6
PHANTOM2
 10
1634.53981590271
 20
-1326.692364576793
 30
0.0
 11
1633.53981590271
 21
-1325.692364576793
 31
0.0
  0
LINE
  5
25FAF
  8
01
  6
PHANTOM2
 10
1634.53981590271
 20
-1341.092364576793
 30
0.0
 11
1634.53981590271
 21
-1341.592364576793
 31
0.0
  0
LINE
  5
25FB0
  8
01
  6
PHANTOM2
 10
1633.53981590271
 20
-1342.592364576793
 30
0.0
 11
1634.53981590271
 21
-1341.592364576793
 31
0.0
  0
LINE
  5
25FB1
  8
01
  6
PHANTOM2
 10
1603.53981590271
 20
-1343.592364576793
 30
0.0
 11
1603.53981590271
 21
-1358.242364576793
 31
0.0
  0
LINE
  5
25FB3
  8
01
  6
PHANTOM2
 10
1618.83982937336
 20
-1323.192365452982
 30
0.0
 11
1611.23982937336
 21
-1323.192365452982
 31
0.0
  0
LINE
  5
25FB4
  8
01
  6
PHANTOM2
 10
1611.23982937336
 20
-1323.192365452982
 30
0.0
 11
1611.23982937336
 21
-1324.192365452982
 31
0.0
  0
LINE
  5
25FB5
  8
01
  6
PHANTOM2
 10
1611.23982937336
 20
-1324.192365452982
 30
0.0
 11
1618.83982937336
 21
-1324.192365452982
 31
0.0
  0
LINE
  5
25FB6
  8
01
  6
PHANTOM2
 10
1618.83982937336
 20
-1324.192365452982
 30
0.0
 11
1618.83982937336
 21
-1323.192365452982
 31
0.0
  0
LINE
  5
25FB8
  8
01
  6
PHANTOM2
 10
1626.539783433508
 20
-1323.192373596872
 30
0.0
 11
1628.539829969406
 21
-1323.192368943175
 31
0.0
  0
LINE
  5
25FB9
  8
01
  6
PHANTOM2
 10
1631.539829969406
 20
-1323.192361962788
 30
0.0
 11
1633.539783433508
 21
-1323.192357309308
 31
0.0
  0
LINE
  5
25FBA
  8
01
  6
PHANTOM2
 10
1633.839829969406
 20
-1323.192365452982
 30
0.0
 11
1626.239829969406
 21
-1323.192365452982
 31
0.0
  0
LINE
  5
25FBB
  8
01
  6
PHANTOM2
 10
1626.239829969406
 20
-1323.192365452982
 30
0.0
 11
1626.239829969406
 21
-1324.192365452982
 31
0.0
  0
LINE
  5
25FBC
  8
01
  6
PHANTOM2
 10
1626.239829969406
 20
-1324.192365452982
 30
0.0
 11
1633.839829969406
 21
-1324.192365452982
 31
0.0
  0
LINE
  5
25FBD
  8
01
  6
PHANTOM2
 10
1633.839829969406
 20
-1324.192365452982
 30
0.0
 11
1633.839829969406
 21
-1323.192365452982
 31
0.0
  0
ARC
  5
25FFD
  8
01
 10
3049.999946212769
 20
-1498.999999888432
 30
0.0
 40
1.0
 50
270.0
 51
0.0
  0
LINE
  5
25FFE
  8
01
 10
3049.999947100878
 20
-1500.0
 30
0.0
 11
2989.999946113676
 21
-1500.0
 31
0.0
  0
LINE
  5
25FFF
  8
01
 10
3050.999945402145
 20
-1467.999999644235
 30
0.0
 11
3050.999945402145
 21
-1498.999999836087
 31
0.0
  0
LINE
  5
26000
  8
01
 10
2988.999946415424
 20
-1498.999999836087
 30
0.0
 11
2988.999946415424
 21
-1490.999999688938
 31
0.0
  0
LINE
  5
26001
  8
01
 10
2988.999946415424
 20
-1475.999999092892
 30
0.0
 11
2988.999946415424
 21
-1467.999999644235
 31
0.0
  0
ARC
  5
26002
  8
01
 10
2989.999946212768
 20
-1498.999999888432
 30
0.0
 40
1.0
 50
180.0
 51
270.0
  0
ARC
  5
26003
  8
01
 10
3049.999946212769
 20
-1467.999999888433
 30
0.0
 40
1.0
 50
0.0
 51
90.0
  0
ARC
  5
26004
  8
01
 10
2989.999946212768
 20
-1467.999999888433
 30
0.0
 40
1.0
 50
90.0
 51
180.0
  0
LINE
  5
26005
  8
01
 10
2989.999946113676
 20
-1467.000001342967
 30
0.0
 11
3049.999947100878
 21
-1467.000001342967
 31
0.0
  0
LINE
  5
26006
  8
01
 10
2984.999945759773
 20
-1477.500000270084
 30
0.0
 11
2984.999945759773
 21
-1489.499999443069
 31
0.0
  0
LINE
  5
26007
  8
01
 10
3033.999944478273
 20
-1490.999999688938
 30
0.0
 11
3033.499947190285
 21
-1490.999999688938
 31
0.0
  0
ARC
  5
26008
  8
01
 10
3033.999946212768
 20
-1489.999999888432
 30
0.0
 40
1.0
 50
270.0
 51
0.0
  0
LINE
  5
26009
  8
01
 10
3034.999946504831
 20
-1476.999999256805
 30
0.0
 11
3034.999946504831
 21
-1489.999999525025
 31
0.0
  0
LINE
  5
2600A
  8
01
 10
3033.499947190285
 20
-1490.999999688938
 30
0.0
 11
2985.49994584173
 21
-1490.999999688938
 31
0.0
  0
LINE
  5
2600B
  8
01
 10
2984.999945759773
 20
-1490.499999606982
 30
0.0
 11
2984.999945759773
 21
-1489.999999525025
 31
0.0
  0
ARC
  5
2600C
  8
01
 10
2985.499946212768
 20
-1490.499999888432
 30
0.0
 40
0.5
 50
180.0
 51
270.0
  0
LINE
  5
2600D
  8
01
 10
2984.999945759773
 20
-1489.999999525025
 30
0.0
 11
2984.999945759773
 21
-1476.999999256805
 31
0.0
  0
LINE
  5
2600E
  8
01
 10
3033.499947190285
 20
-1475.999999092892
 30
0.0
 11
3033.999944478273
 21
-1475.999999092892
 31
0.0
  0
ARC
  5
2600F
  8
01
 10
3033.999946212768
 20
-1476.999999888432
 30
0.0
 40
1.0
 50
0.0
 51
90.0
  0
LINE
  5
26010
  8
01
 10
2985.49994584173
 20
-1475.999999092892
 30
0.0
 11
3033.499947190285
 21
-1475.999999092892
 31
0.0
  0
LINE
  5
26011
  8
01
 10
2984.999945759773
 20
-1476.999999256805
 30
0.0
 11
2984.999945759773
 21
-1476.500000106171
 31
0.0
  0
ARC
  5
26012
  8
01
 10
2985.499946212768
 20
-1476.499999888432
 30
0.0
 40
0.5
 50
90.0
 51
180.0
  0
CIRCLE
  5
26013
  8
01
 10
2999.999884580969
 20
-1483.500030091428
 30
0.0
 40
2.25
  0
LINE
  5
26014
  8
1CENTER
 10
2996.624842965603
 20
-1483.499999740161
 30
0.0
 11
3003.374842965603
 21
-1483.499999740161
 31
0.0
  0
LINE
  5
26015
  8
1CENTER
 10
2999.999842965603
 20
-1486.874999740161
 30
0.0
 11
2999.999842965603
 21
-1480.124999740161
 31
0.0
  0
CIRCLE
  5
26016
  8
01
 10
3039.999884580969
 20
-1483.500030091428
 30
0.0
 40
2.25
  0
LINE
  5
26017
  8
1CENTER
 10
3036.624842965603
 20
-1483.499999740161
 30
0.0
 11
3043.374842965603
 21
-1483.499999740161
 31
0.0
  0
LINE
  5
26018
  8
1CENTER
 10
3039.999842965603
 20
-1486.874999740161
 30
0.0
 11
3039.999842965603
 21
-1480.124999740161
 31
0.0
  0
ARC
  5
2601B
  8
01
 10
3049.999946212769
 20
-1498.999999888432
 30
0.0
 40
1.0
 50
270.0
 51
0.0
  0
LINE
  5
2601C
  8
01
 10
3049.999947100878
 20
-1500.0
 30
0.0
 11
2989.999946113676
 21
-1500.0
 31
0.0
  0
LINE
  5
2601D
  8
01
 10
3050.999945402145
 20
-1467.999999644235
 30
0.0
 11
3050.999945402145
 21
-1498.999999836087
 31
0.0
  0
LINE
  5
2601E
  8
01
 10
2988.999946415424
 20
-1498.999999836087
 30
0.0
 11
2988.999946415424
 21
-1490.999999688938
 31
0.0
  0
LINE
  5
2601F
  8
01
 10
2988.999946415424
 20
-1475.999999092892
 30
0.0
 11
2988.999946415424
 21
-1467.999999644235
 31
0.0
  0
ARC
  5
26020
  8
01
 10
2989.999946212768
 20
-1498.999999888432
 30
0.0
 40
1.0
 50
180.0
 51
270.0
  0
ARC
  5
26021
  8
01
 10
3049.999946212769
 20
-1467.999999888433
 30
0.0
 40
1.0
 50
0.0
 51
90.0
  0
ARC
  5
26022
  8
01
 10
2989.999946212768
 20
-1467.999999888433
 30
0.0
 40
1.0
 50
90.0
 51
180.0
  0
LINE
  5
26023
  8
01
 10
2989.999946113676
 20
-1467.000001342967
 30
0.0
 11
3049.999947100878
 21
-1467.000001342967
 31
0.0
  0
LINE
  5
26024
  8
01
 10
2984.999945759773
 20
-1477.500000270084
 30
0.0
 11
2984.999945759773
 21
-1489.499999443069
 31
0.0
  0
LINE
  5
26025
  8
01
 10
3033.999944478273
 20
-1490.999999688938
 30
0.0
 11
3033.499947190285
 21
-1490.999999688938
 31
0.0
  0
ARC
  5
26026
  8
01
 10
3033.999946212768
 20
-1489.999999888432
 30
0.0
 40
1.0
 50
270.0
 51
0.0
  0
LINE
  5
26027
  8
01
 10
3034.999946504831
 20
-1476.999999256805
 30
0.0
 11
3034.999946504831
 21
-1489.999999525025
 31
0.0
  0
LINE
  5
26028
  8
01
 10
3033.499947190285
 20
-1490.999999688938
 30
0.0
 11
2985.49994584173
 21
-1490.999999688938
 31
0.0
  0
LINE
  5
26029
  8
01
 10
2984.999945759773
 20
-1490.499999606982
 30
0.0
 11
2984.999945759773
 21
-1489.999999525025
 31
0.0
  0
ARC
  5
2602A
  8
01
 10
2985.499946212768
 20
-1490.499999888432
 30
0.0
 40
0.5
 50
180.0
 51
270.0
  0
LINE
  5
2602B
  8
01
 10
2984.999945759773
 20
-1489.999999525025
 30
0.0
 11
2984.999945759773
 21
-1476.999999256805
 31
0.0
  0
LINE
  5
2602C
  8
01
 10
3033.499947190285
 20
-1475.999999092892
 30
0.0
 11
3033.999944478273
 21
-1475.999999092892
 31
0.0
  0
ARC
  5
2602D
  8
01
 10
3033.999946212768
 20
-1476.999999888432
 30
0.0
 40
1.0
 50
0.0
 51
90.0
  0
LINE
  5
2602E
  8
01
 10
2985.49994584173
 20
-1475.999999092892
 30
0.0
 11
3033.499947190285
 21
-1475.999999092892
 31
0.0
  0
LINE
  5
2602F
  8
01
 10
2984.999945759773
 20
-1476.999999256805
 30
0.0
 11
2984.999945759773
 21
-1476.500000106171
 31
0.0
  0
ARC
  5
26030
  8
01
 10
2985.499946212768
 20
-1476.499999888432
 30
0.0
 40
0.5
 50
90.0
 51
180.0
  0
CIRCLE
  5
26031
  8
01
 10
2999.999884580969
 20
-1483.500030091428
 30
0.0
 40
2.25
  0
LINE
  5
26032
  8
1CENTER
 10
2996.624842965603
 20
-1483.499999740161
 30
0.0
 11
3003.374842965603
 21
-1483.499999740161
 31
0.0
  0
LINE
  5
26033
  8
1CENTER
 10
2999.999842965603
 20
-1486.874999740161
 30
0.0
 11
2999.999842965603
 21
-1480.124999740161
 31
0.0
  0
CIRCLE
  5
26034
  8
01
 10
3039.999884580969
 20
-1483.500030091428
 30
0.0
 40
2.25
  0
LINE
  5
26035
  8
1CENTER
 10
3036.624842965603
 20
-1483.499999740161
 30
0.0
 11
3043.374842965603
 21
-1483.499999740161
 31
0.0
  0
LINE
  5
26036
  8
1CENTER
 10
3039.999842965603
 20
-1486.874999740161
 30
0.0
 11
3039.999842965603
 21
-1480.124999740161
 31
0.0
  0
CIRCLE
  5
2606F
  8
01
 10
3138.631803335278
 20
-1309.892303289955
 30
0.0
 40
2.25
  0
LINE
  5
26070
  8
1CENTER
 10
3138.631833686544
 20
-1306.51726167459
 30
0.0
 11
3138.631833686544
 21
-1313.26726167459
 31
0.0
  0
LINE
  5
26071
  8
1CENTER
 10
3135.256833686544
 20
-1309.89226167459
 30
0.0
 11
3142.006833686544
 21
-1309.89226167459
 31
0.0
  0
CIRCLE
  5
26072
  8
01
 10
3138.631803335278
 20
-1349.892303289955
 30
0.0
 40
2.25
  0
LINE
  5
26073
  8
1CENTER
 10
3138.631833686544
 20
-1346.51726167459
 30
0.0
 11
3138.631833686544
 21
-1353.26726167459
 31
0.0
  0
LINE
  5
26074
  8
1CENTER
 10
3135.256833686544
 20
-1349.89226167459
 30
0.0
 11
3142.006833686544
 21
-1349.89226167459
 31
0.0
  0
CIRCLE
  5
26076
  8
01
 10
3138.631803335278
 20
-1309.892303289955
 30
0.0
 40
2.25
  0
LINE
  5
26077
  8
1CENTER
 10
3138.631833686544
 20
-1306.51726167459
 30
0.0
 11
3138.631833686544
 21
-1313.26726167459
 31
0.0
  0
LINE
  5
26078
  8
1CENTER
 10
3135.256833686544
 20
-1309.89226167459
 30
0.0
 11
3142.006833686544
 21
-1309.89226167459
 31
0.0
  0
CIRCLE
  5
26079
  8
01
 10
3138.631803335278
 20
-1349.892303289955
 30
0.0
 40
2.25
  0
LINE
  5
2607A
  8
1CENTER
 10
3138.631833686544
 20
-1346.51726167459
 30
0.0
 11
3138.631833686544
 21
-1353.26726167459
 31
0.0
  0
LINE
  5
2607B
  8
1CENTER
 10
3135.256833686544
 20
-1349.89226167459
 30
0.0
 11
3142.006833686544
 21
-1349.89226167459
 31
0.0
  0
TEXT
  5
2624B
  8
1TEXT
 10
3283.735988513653
 20
-773.3989736091169
 30
0.0
 40
32.0
  1
AC-902-※-1451-600
 72
     2
 11
3787.928581106246
 21
-773.3989736091169
 31
0.0
 73
     1
  0
TEXT
  5
2624C
  8
1TEXT
 10
3232.328581106246
 20
-815.3989736091169
 30
0.0
 40
16.0
  1
※には色品番が入ります。
 72
     2
 11
3447.261914439579
 21
-815.3989736091169
 31
0.0
 73
     1
  0
TEXT
  5
2624D
  8
1TEXT
 10
3235.229440235603
 20
-856.7323069424506
 30
0.0
 40
16.0
  1
取付け可能な下地については取扱説明書をご参照ください。
 72
     2
 11
3738.162773568936
 21
-856.7323069424506
 31
0.0
 73
     1
  0
LINE
  5
2631D
  8
01
  6
PHANTOM2
 10
1603.53981590271
 20
-1497.350000671483
 30
0.0
 11
1603.53981590271
 21
-1497.850000671483
 31
0.0
  0
LINE
  5
2631E
  8
01
  6
PHANTOM2
 10
1603.53981590271
 20
-1497.850000671483
 30
0.0
 11
1603.03981590271
 21
-1498.350000671483
 31
0.0
  0
LINE
  5
2631F
  8
01
  6
PHANTOM2
 10
1603.03981590271
 20
-1498.350000671483
 30
0.0
 11
1600.03981590271
 21
-1498.350000671483
 31
0.0
  0
LINE
  5
26320
  8
01
  6
PHANTOM2
 10
1600.03981590271
 20
-1498.350000671483
 30
0.0
 11
1600.03981590271
 21
-1497.350000671483
 31
0.0
  0
LINE
  5
26321
  8
01
  6
PHANTOM2
 10
1603.03981590271
 20
-1468.650000671484
 30
0.0
 11
1603.53981590271
 21
-1469.150000671484
 31
0.0
  0
LINE
  5
26322
  8
01
  6
PHANTOM2
 10
1603.53981590271
 20
-1469.150000671484
 30
0.0
 11
1603.53981590271
 21
-1469.650000671484
 31
0.0
  0
LINE
  5
26323
  8
01
  6
PHANTOM2
 10
1600.03981590271
 20
-1497.350000671483
 30
0.0
 11
1600.03981590271
 21
-1469.650000671484
 31
0.0
  0
LINE
  5
26324
  8
01
  6
PHANTOM2
 10
1600.03981590271
 20
-1468.650000671484
 30
0.0
 11
1603.03981590271
 21
-1468.650000671484
 31
0.0
  0
LINE
  5
26325
  8
01
  6
PHANTOM2
 10
1600.03981590271
 20
-1469.650000671484
 30
0.0
 11
1600.03981590271
 21
-1468.650000671484
 31
0.0
  0
ARC
  5
26326
  8
01
  6
PHANTOM2
 10
1604.53981590271
 20
-1489.850000671483
 30
0.0
 40
1.0
 50
90.0
 51
180.0
  0
ARC
  5
26327
  8
01
  6
PHANTOM2
 10
1604.53981590271
 20
-1477.150000671484
 30
0.0
 40
1.0
 50
180.0
 51
270.0
  0
LINE
  5
26328
  8
01
  6
PHANTOM2
 10
1634.53981590271
 20
-1479.150000671484
 30
0.0
 11
1634.53981590271
 21
-1479.650000671484
 31
0.0
  0
LINE
  5
26329
  8
01
  6
PHANTOM2
 10
1634.53981590271
 20
-1479.150000671484
 30
0.0
 11
1633.53981590271
 21
-1478.150000671484
 31
0.0
  0
LINE
  5
2632A
  8
01
  6
PHANTOM2
 10
1604.53981590271
 20
-1478.150000671484
 30
0.0
 11
1633.53981590271
 21
-1478.150000671484
 31
0.0
  0
LINE
  5
2632B
  8
01
  6
PHANTOM2
 10
1634.53981590271
 20
-1479.650000671484
 30
0.0
 11
1634.53981590271
 21
-1487.350000671483
 31
0.0
  0
LINE
  5
2632C
  8
01
  6
PHANTOM2
 10
1633.53981590271
 20
-1488.850000671483
 30
0.0
 11
1604.53981590271
 21
-1488.850000671483
 31
0.0
  0
LINE
  5
2632D
  8
01
  6
PHANTOM2
 10
1634.53981590271
 20
-1487.350000671483
 30
0.0
 11
1634.53981590271
 21
-1487.850000671483
 31
0.0
  0
LINE
  5
2632E
  8
01
  6
PHANTOM2
 10
1634.53981590271
 20
-1487.850000671483
 30
0.0
 11
1633.53981590271
 21
-1488.850000671483
 31
0.0
  0
LINE
  5
2632F
  8
01
  6
PHANTOM2
 10
1603.53981590271
 20
-1497.350000671483
 30
0.0
 11
1603.53981590271
 21
-1489.850000671483
 31
0.0
  0
LINE
  5
26330
  8
01
  6
PHANTOM2
 10
1603.53981590271
 20
-1469.650000671484
 30
0.0
 11
1603.53981590271
 21
-1477.150000671484
 31
0.0
  0
LINE
  5
2645A
  8
01
 10
3109.781176698764
 20
-744.9321818615863
 30
0.0
 11
1600.03981590271
 21
-744.9321818615877
 31
0.0
  0
LINE
  5
2645F
  8
01
 10
1600.03981590271
 20
-744.9321818615877
 30
0.0
 11
1600.03981590271
 21
-1449.545401437765
 31
0.0
  0
LINE
  5
264B5
  8
1CENTER
 10
3000.499930655956
 20
-711.5276763637698
 30
0.0000000000060347
 11
3000.499930655956
 21
-749.3608094111446
 31
0.0000000000060347
  0
LINE
  5
264B6
  8
01
 10
2998.999977191854
 20
-720.1821690644306
 30
0.0000000000060347
 11
2998.499977191854
 21
-720.0821679010335
 31
0.0000000000060347
  0
LINE
  5
264B7
  8
01
 10
2998.499977191854
 20
-720.0821679010335
 30
0.0000000000060347
 11
3002.499977191854
 21
-719.2821772082109
 31
0.0000000000060347
  0
LINE
  5
264B8
  8
01
 10
3002.499977191854
 20
-719.2821772082109
 30
0.0000000000060347
 11
3001.999977191854
 21
-719.1821760448138
 31
0.0000000000060347
  0
LINE
  5
264B9
  8
01
 10
2998.999977191854
 20
-721.7821690644307
 30
0.0000000000060347
 11
2998.499977191854
 21
-721.6821679010336
 31
0.0000000000060347
  0
LINE
  5
264BA
  8
01
 10
3002.499977191854
 20
-720.882177208211
 30
0.0000000000060347
 11
3001.999977191854
 21
-720.7821760448139
 31
0.0000000000060347
  0
LINE
  5
264BB
  8
01
 10
2998.499977191854
 20
-721.6821679010336
 30
0.0000000000060347
 11
3002.499977191854
 21
-720.882177208211
 31
0.0000000000060347
  0
LINE
  5
264BC
  8
01
 10
2998.999977191854
 20
-723.3821690644306
 30
0.0000000000060347
 11
2998.499977191854
 21
-723.2821679010335
 31
0.0000000000060347
  0
LINE
  5
264BD
  8
01
 10
2998.499977191854
 20
-723.2821679010335
 30
0.0000000000060347
 11
3002.499977191854
 21
-722.4821772082109
 31
0.0000000000060347
  0
LINE
  5
264BE
  8
01
 10
3002.499977191854
 20
-722.4821772082109
 30
0.0000000000060347
 11
3001.999977191854
 21
-722.3821760448138
 31
0.0000000000060347
  0
LINE
  5
264BF
  8
01
 10
2998.999977191854
 20
-731.3821690644309
 30
0.0000000000060347
 11
2998.499977191854
 21
-731.2821679010337
 31
0.0000000000060347
  0
LINE
  5
264C0
  8
01
 10
3002.499977191854
 20
-730.4821772082112
 30
0.0000000000060347
 11
3001.999977191854
 21
-730.3821760448138
 31
0.0000000000060347
  0
LINE
  5
264C1
  8
01
 10
3002.499977191854
 20
-728.882177208211
 30
0.0000000000060347
 11
3001.999977191854
 21
-728.7821760448139
 31
0.0000000000060347
  0
LINE
  5
264C2
  8
01
 10
2998.999977191854
 20
-729.7821690644307
 30
0.0000000000060347
 11
2998.499977191854
 21
-729.6821679010336
 31
0.0000000000060347
  0
LINE
  5
264C3
  8
01
 10
2998.999977191854
 20
-728.1821690644308
 30
0.0000000000060347
 11
2998.499977191854
 21
-728.0821679010337
 31
0.0000000000060347
  0
LINE
  5
264C4
  8
01
 10
2998.499977191854
 20
-729.6821679010336
 30
0.0000000000060347
 11
3002.499977191854
 21
-728.882177208211
 31
0.0000000000060347
  0
LINE
  5
264C5
  8
01
 10
2998.499977191854
 20
-731.2821679010337
 30
0.0000000000060347
 11
3002.499977191854
 21
-730.4821772082112
 31
0.0000000000060347
  0
LINE
  5
264C6
  8
01
 10
2998.999977191854
 20
-726.5821690644309
 30
0.0000000000060347
 11
2998.499977191854
 21
-726.4821679010336
 31
0.0000000000060347
  0
LINE
  5
264C7
  8
01
 10
2998.999977191854
 20
-718.3821690644309
 30
0.0000000000060347
 11
2998.499977191854
 21
-718.2821679010337
 31
0.0000000000060347
  0
LINE
  5
264C8
  8
01
 10
2998.499977191854
 20
-718.2821679010337
 30
0.0000000000060347
 11
3002.27357013965
 21
-717.4821766814084
 31
0.0000000000060347
  0
LINE
  5
264C9
  8
01
 10
3002.27357013965
 20
-717.4821766814084
 30
0.0000000000060347
 11
3001.736976404379
 21
-717.3529059837786
 31
0.0000000000060347
  0
LINE
  5
264CA
  8
01
 10
3002.499977191854
 20
-725.682177208211
 30
0.0000000000060347
 11
3001.999977191854
 21
-725.5821760448141
 31
0.0000000000060347
  0
LINE
  5
264CB
  8
01
 10
3002.499977191854
 20
-724.0821772082111
 30
0.0000000000060347
 11
3001.999977191854
 21
-723.982176044814
 31
0.0000000000060347
  0
LINE
  5
264CC
  8
01
 10
2998.999977191854
 20
-724.9821690644308
 30
0.0000000000060347
 11
2998.499977191854
 21
-724.8821679010337
 31
0.0000000000060347
  0
LINE
  5
264CD
  8
01
 10
2998.499977191854
 20
-724.8821679010337
 30
0.0000000000060347
 11
3002.499977191854
 21
-724.0821772082111
 31
0.0000000000060347
  0
LINE
  5
264CE
  8
01
 10
2998.499977191854
 20
-726.4821679010336
 30
0.0000000000060347
 11
3002.499977191854
 21
-725.682177208211
 31
0.0000000000060347
  0
LINE
  5
264CF
  8
01
 10
2998.952793333913
 20
-716.6821689546439
 30
0.0000000000060347
 11
3001.820756035243
 21
-715.8821756278028
 31
0.0000000000060347
  0
LINE
  5
264D0
  8
01
 10
2999.405606841961
 20
-715.0821700082481
 30
0.0000000000060347
 11
3001.367941930836
 21
-714.2821745741971
 31
0.0000000000060347
  0
LINE
  5
264D1
  8
01
 10
3001.820756035243
 20
-715.8821756278028
 30
0.0000000000060347
 11
3001.26900657144
 21
-715.6994114851748
 31
0.0000000000060347
  0
LINE
  5
264D2
  8
01
 10
2999.862778682592
 20
-715.2336058046885
 30
0.0000000000060347
 11
2999.405606841961
 21
-715.0821700082481
 31
0.0000000000060347
  0
LINE
  5
264D3
  8
01
 10
3001.367941930836
 20
-714.2821745741971
 30
0.0000000000060347
 11
3000.779665355794
 21
-713.970404717945
 31
0.0000000000060347
  0
LINE
  5
264D4
  8
01
 10
2999.420891789063
 20
-716.7949384669939
 30
0.0000000000060347
 11
2998.952793333913
 21
-716.6821689546439
 31
0.0000000000060347
  0
LINE
  5
264D5
  8
01
 10
3002.499977191854
 20
-727.2821772082111
 30
0.0000000000060347
 11
3001.999977191854
 21
-727.1821760448138
 31
0.0000000000060347
  0
LINE
  5
264D6
  8
01
 10
2998.499977191854
 20
-728.0821679010337
 30
0.0000000000060347
 11
3002.499977191854
 21
-727.2821772082111
 31
0.0000000000060347
  0
LINE
  5
264D7
  8
01
 10
3001.999977191854
 20
-744.9821760448308
 30
0.0000000000060347
 11
3002.499977191854
 21
-744.8821772082285
 31
0.0000000000060347
  0
LINE
  5
264D8
  8
01
 10
2998.499977191854
 20
-744.0821679010423
 30
0.0000000000060347
 11
3002.499977191854
 21
-743.2821772082241
 31
0.0000000000060347
  0
LINE
  5
264D9
  8
01
 10
2998.499977191854
 20
-740.8821679010423
 30
0.0000000000060347
 11
3002.499977191854
 21
-740.082177208224
 31
0.0000000000060347
  0
LINE
  5
264DA
  8
01
 10
3002.499977191854
 20
-740.082177208224
 30
0.0000000000060347
 11
3001.999977191854
 21
-739.9821760448265
 31
0.0000000000060347
  0
LINE
  5
264DB
  8
01
 10
3002.499977191854
 20
-743.2821772082241
 30
0.0000000000060347
 11
3001.999977191854
 21
-743.1821760448265
 31
0.0000000000060347
  0
LINE
  5
264DC
  8
01
 10
2998.999977191854
 20
-742.5821690644402
 30
0.0000000000060347
 11
2998.499977191854
 21
-742.4821679010424
 31
0.0000000000060347
  0
LINE
  5
264DD
  8
01
 10
3002.499977191854
 20
-741.6821772082242
 30
0.0000000000060347
 11
3001.999977191854
 21
-741.5821760448266
 31
0.0000000000060347
  0
LINE
  5
264DE
  8
01
 10
2998.499977191854
 20
-742.4821679010424
 30
0.0000000000060347
 11
3002.499977191854
 21
-741.6821772082242
 31
0.0000000000060347
  0
LINE
  5
264DF
  8
01
 10
2998.999977191854
 20
-740.9821690644401
 30
0.0000000000060347
 11
2998.499977191854
 21
-740.8821679010423
 31
0.0000000000060347
  0
LINE
  5
264E0
  8
01
 10
3002.499977191854
 20
-744.8821772082285
 30
0.0000000000060347
 11
3001.999977191854
 21
-744.7821760448309
 31
0.0000000000060347
  0
LINE
  5
264E1
  8
01
 10
2998.999977191854
 20
-744.18216906444
 30
0.0000000000060347
 11
2998.499977191854
 21
-744.0821679010423
 31
0.0000000000060347
  0
LINE
  5
264E2
  8
01
 10
2996.499930655956
 20
-747.6821632472272
 30
0.0000000000060347
 11
3004.499930655956
 21
-747.6821818615864
 31
0.0000000000060347
  0
LINE
  5
264E3
  8
01
 10
2998.999977191854
 20
-739.3821690644356
 30
0.0000000000060347
 11
2998.499977191854
 21
-739.2821679010381
 31
0.0000000000060347
  0
LINE
  5
264E4
  8
01
 10
2998.999977191854
 20
-737.7821690644314
 30
0.0000000000060347
 11
2998.499977191854
 21
-737.6821679010336
 31
0.0000000000060347
  0
LINE
  5
264E5
  8
01
 10
3002.499977191854
 20
-738.4821772082198
 30
0.0000000000060347
 11
3001.999977191854
 21
-738.382176044822
 31
0.0000000000060347
  0
LINE
  5
264E6
  8
01
 10
2998.999977191854
 20
-734.5821690644314
 30
0.0000000000060347
 11
2998.499977191854
 21
-734.4821679010336
 31
0.0000000000060347
  0
LINE
  5
264E7
  8
01
 10
2998.499977191854
 20
-736.0821679010337
 30
0.0000000000060347
 11
3002.499977191854
 21
-735.2821772082154
 31
0.0000000000060347
  0
LINE
  5
264E8
  8
01
 10
3002.499977191854
 20
-735.2821772082154
 30
0.0000000000060347
 11
3001.999977191854
 21
-735.1821760448179
 31
0.0000000000060347
  0
LINE
  5
264E9
  8
01
 10
2998.999977191854
 20
-736.1821690644315
 30
0.0000000000060347
 11
2998.499977191854
 21
-736.0821679010337
 31
0.0000000000060347
  0
LINE
  5
264EA
  8
01
 10
3002.499977191854
 20
-736.8821772082154
 30
0.0000000000060347
 11
3001.999977191854
 21
-736.7821760448178
 31
0.0000000000060347
  0
LINE
  5
264EB
  8
01
 10
3002.499977191854
 20
-732.0821772082111
 30
0.0000000000060347
 11
3001.999977191854
 21
-731.982176044814
 31
0.0000000000060347
  0
LINE
  5
264EC
  8
01
 10
3002.499977191854
 20
-733.6821772082153
 30
0.0000000000060347
 11
3001.999977191854
 21
-733.5821760448177
 31
0.0000000000060347
  0
LINE
  5
264ED
  8
01
 10
2998.999977191854
 20
-732.9821690644314
 30
0.0000000000060347
 11
2998.499977191854
 21
-732.8821679010337
 31
0.0000000000060347
  0
LINE
  5
264EE
  8
01
 10
2998.499977191854
 20
-732.8821679010337
 30
0.0000000000060347
 11
3002.499977191854
 21
-732.0821772082111
 31
0.0000000000060347
  0
LINE
  5
264EF
  8
01
 10
2998.499977191854
 20
-734.4821679010336
 30
0.0000000000060347
 11
3002.499977191854
 21
-733.6821772082153
 31
0.0000000000060347
  0
LINE
  5
264F0
  8
01
 10
2998.499977191854
 20
-737.6821679010336
 30
0.0000000000060347
 11
3002.499977191854
 21
-736.8821772082154
 31
0.0000000000060347
  0
LINE
  5
264F1
  8
01
 10
2998.499977191854
 20
-739.2821679010381
 30
0.0000000000060347
 11
3002.499977191854
 21
-738.4821772082198
 31
0.0000000000060347
  0
LINE
  5
264F3
  8
1CENTER
 10
3040.499930655956
 20
-711.5276763637698
 30
0.0000000000060347
 11
3040.499930655956
 21
-749.3608094111446
 31
0.0000000000060347
  0
LINE
  5
264F4
  8
01
 10
3038.999977191854
 20
-720.1821690644306
 30
0.0000000000060347
 11
3038.499977191854
 21
-720.0821679010335
 31
0.0000000000060347
  0
LINE
  5
264F5
  8
01
 10
3038.499977191854
 20
-720.0821679010335
 30
0.0000000000060347
 11
3042.499977191854
 21
-719.2821772082109
 31
0.0000000000060347
  0
LINE
  5
264F6
  8
01
 10
3042.499977191854
 20
-719.2821772082109
 30
0.0000000000060347
 11
3041.999977191854
 21
-719.1821760448138
 31
0.0000000000060347
  0
LINE
  5
264F7
  8
01
 10
3038.999977191854
 20
-721.7821690644307
 30
0.0000000000060347
 11
3038.499977191854
 21
-721.6821679010336
 31
0.0000000000060347
  0
LINE
  5
264F8
  8
01
 10
3042.499977191854
 20
-720.882177208211
 30
0.0000000000060347
 11
3041.999977191854
 21
-720.7821760448139
 31
0.0000000000060347
  0
LINE
  5
264F9
  8
01
 10
3038.499977191854
 20
-721.6821679010336
 30
0.0000000000060347
 11
3042.499977191854
 21
-720.882177208211
 31
0.0000000000060347
  0
LINE
  5
264FA
  8
01
 10
3038.999977191854
 20
-723.3821690644306
 30
0.0000000000060347
 11
3038.499977191854
 21
-723.2821679010335
 31
0.0000000000060347
  0
LINE
  5
264FB
  8
01
 10
3038.499977191854
 20
-723.2821679010335
 30
0.0000000000060347
 11
3042.499977191854
 21
-722.4821772082109
 31
0.0000000000060347
  0
LINE
  5
264FC
  8
01
 10
3042.499977191854
 20
-722.4821772082109
 30
0.0000000000060347
 11
3041.999977191854
 21
-722.3821760448138
 31
0.0000000000060347
  0
LINE
  5
264FD
  8
01
 10
3038.999977191854
 20
-731.3821690644309
 30
0.0000000000060347
 11
3038.499977191854
 21
-731.2821679010337
 31
0.0000000000060347
  0
LINE
  5
264FE
  8
01
 10
3042.499977191854
 20
-730.4821772082112
 30
0.0000000000060347
 11
3041.999977191854
 21
-730.3821760448138
 31
0.0000000000060347
  0
LINE
  5
264FF
  8
01
 10
3042.499977191854
 20
-728.882177208211
 30
0.0000000000060347
 11
3041.999977191854
 21
-728.7821760448139
 31
0.0000000000060347
  0
LINE
  5
26500
  8
01
 10
3038.999977191854
 20
-729.7821690644307
 30
0.0000000000060347
 11
3038.499977191854
 21
-729.6821679010336
 31
0.0000000000060347
  0
LINE
  5
26501
  8
01
 10
3038.999977191854
 20
-728.1821690644308
 30
0.0000000000060347
 11
3038.499977191854
 21
-728.0821679010337
 31
0.0000000000060347
  0
LINE
  5
26502
  8
01
 10
3038.499977191854
 20
-729.6821679010336
 30
0.0000000000060347
 11
3042.499977191854
 21
-728.882177208211
 31
0.0000000000060347
  0
LINE
  5
26503
  8
01
 10
3038.499977191854
 20
-731.2821679010337
 30
0.0000000000060347
 11
3042.499977191854
 21
-730.4821772082112
 31
0.0000000000060347
  0
LINE
  5
26504
  8
01
 10
3038.999977191854
 20
-726.5821690644309
 30
0.0000000000060347
 11
3038.499977191854
 21
-726.4821679010336
 31
0.0000000000060347
  0
LINE
  5
26505
  8
01
 10
3038.999977191854
 20
-718.3821690644309
 30
0.0000000000060347
 11
3038.499977191854
 21
-718.2821679010337
 31
0.0000000000060347
  0
LINE
  5
26506
  8
01
 10
3038.499977191854
 20
-718.2821679010337
 30
0.0000000000060347
 11
3042.27357013965
 21
-717.4821766814084
 31
0.0000000000060347
  0
LINE
  5
26507
  8
01
 10
3042.27357013965
 20
-717.4821766814084
 30
0.0000000000060347
 11
3041.736976404379
 21
-717.3529059837786
 31
0.0000000000060347
  0
LINE
  5
26508
  8
01
 10
3042.499977191854
 20
-725.682177208211
 30
0.0000000000060347
 11
3041.999977191854
 21
-725.5821760448141
 31
0.0000000000060347
  0
LINE
  5
26509
  8
01
 10
3042.499977191854
 20
-724.0821772082111
 30
0.0000000000060347
 11
3041.999977191854
 21
-723.982176044814
 31
0.0000000000060347
  0
LINE
  5
2650A
  8
01
 10
3038.999977191854
 20
-724.9821690644308
 30
0.0000000000060347
 11
3038.499977191854
 21
-724.8821679010337
 31
0.0000000000060347
  0
LINE
  5
2650B
  8
01
 10
3038.499977191854
 20
-724.8821679010337
 30
0.0000000000060347
 11
3042.499977191854
 21
-724.0821772082111
 31
0.0000000000060347
  0
LINE
  5
2650C
  8
01
 10
3038.499977191854
 20
-726.4821679010336
 30
0.0000000000060347
 11
3042.499977191854
 21
-725.682177208211
 31
0.0000000000060347
  0
LINE
  5
2650D
  8
01
 10
3038.952793333913
 20
-716.6821689546439
 30
0.0000000000060347
 11
3041.820756035243
 21
-715.8821756278028
 31
0.0000000000060347
  0
LINE
  5
2650E
  8
01
 10
3039.405606841961
 20
-715.0821700082481
 30
0.0000000000060347
 11
3041.367941930836
 21
-714.2821745741971
 31
0.0000000000060347
  0
LINE
  5
2650F
  8
01
 10
3041.820756035243
 20
-715.8821756278028
 30
0.0000000000060347
 11
3041.26900657144
 21
-715.6994114851748
 31
0.0000000000060347
  0
LINE
  5
26510
  8
01
 10
3039.862778682592
 20
-715.2336058046885
 30
0.0000000000060347
 11
3039.405606841961
 21
-715.0821700082481
 31
0.0000000000060347
  0
LINE
  5
26511
  8
01
 10
3041.367941930836
 20
-714.2821745741971
 30
0.0000000000060347
 11
3040.779665355794
 21
-713.970404717945
 31
0.0000000000060347
  0
LINE
  5
26512
  8
01
 10
3039.420891789063
 20
-716.7949384669939
 30
0.0000000000060347
 11
3038.952793333913
 21
-716.6821689546439
 31
0.0000000000060347
  0
LINE
  5
26513
  8
01
 10
3042.499977191854
 20
-727.2821772082111
 30
0.0000000000060347
 11
3041.999977191854
 21
-727.1821760448138
 31
0.0000000000060347
  0
LINE
  5
26514
  8
01
 10
3038.499977191854
 20
-728.0821679010337
 30
0.0000000000060347
 11
3042.499977191854
 21
-727.2821772082111
 31
0.0000000000060347
  0
LINE
  5
26515
  8
01
 10
3041.999977191854
 20
-744.9821760448308
 30
0.0000000000060347
 11
3042.499977191854
 21
-744.8821772082285
 31
0.0000000000060347
  0
LINE
  5
26516
  8
01
 10
3038.499977191854
 20
-744.0821679010423
 30
0.0000000000060347
 11
3042.499977191854
 21
-743.2821772082241
 31
0.0000000000060347
  0
LINE
  5
26517
  8
01
 10
3038.499977191854
 20
-740.8821679010423
 30
0.0000000000060347
 11
3042.499977191854
 21
-740.082177208224
 31
0.0000000000060347
  0
LINE
  5
26518
  8
01
 10
3042.499977191854
 20
-740.082177208224
 30
0.0000000000060347
 11
3041.999977191854
 21
-739.9821760448265
 31
0.0000000000060347
  0
LINE
  5
26519
  8
01
 10
3042.499977191854
 20
-743.2821772082241
 30
0.0000000000060347
 11
3041.999977191854
 21
-743.1821760448265
 31
0.0000000000060347
  0
LINE
  5
2651A
  8
01
 10
3038.999977191854
 20
-742.5821690644402
 30
0.0000000000060347
 11
3038.499977191854
 21
-742.4821679010424
 31
0.0000000000060347
  0
LINE
  5
2651B
  8
01
 10
3042.499977191854
 20
-741.6821772082242
 30
0.0000000000060347
 11
3041.999977191854
 21
-741.5821760448266
 31
0.0000000000060347
  0
LINE
  5
2651C
  8
01
 10
3038.499977191854
 20
-742.4821679010424
 30
0.0000000000060347
 11
3042.499977191854
 21
-741.6821772082242
 31
0.0000000000060347
  0
LINE
  5
2651D
  8
01
 10
3038.999977191854
 20
-740.9821690644401
 30
0.0000000000060347
 11
3038.499977191854
 21
-740.8821679010423
 31
0.0000000000060347
  0
LINE
  5
2651E
  8
01
 10
3042.499977191854
 20
-744.8821772082285
 30
0.0000000000060347
 11
3041.999977191854
 21
-744.7821760448309
 31
0.0000000000060347
  0
LINE
  5
2651F
  8
01
 10
3038.999977191854
 20
-744.18216906444
 30
0.0000000000060347
 11
3038.499977191854
 21
-744.0821679010423
 31
0.0000000000060347
  0
LINE
  5
26520
  8
01
 10
3036.499930655956
 20
-747.6821632472272
 30
0.0000000000060347
 11
3044.499930655956
 21
-747.6821818615864
 31
0.0000000000060347
  0
LINE
  5
26521
  8
01
 10
3038.999977191854
 20
-739.3821690644356
 30
0.0000000000060347
 11
3038.499977191854
 21
-739.2821679010381
 31
0.0000000000060347
  0
LINE
  5
26522
  8
01
 10
3038.999977191854
 20
-737.7821690644314
 30
0.0000000000060347
 11
3038.499977191854
 21
-737.6821679010336
 31
0.0000000000060347
  0
LINE
  5
26523
  8
01
 10
3042.499977191854
 20
-738.4821772082198
 30
0.0000000000060347
 11
3041.999977191854
 21
-738.382176044822
 31
0.0000000000060347
  0
LINE
  5
26524
  8
01
 10
3038.999977191854
 20
-734.5821690644314
 30
0.0000000000060347
 11
3038.499977191854
 21
-734.4821679010336
 31
0.0000000000060347
  0
LINE
  5
26525
  8
01
 10
3038.499977191854
 20
-736.0821679010337
 30
0.0000000000060347
 11
3042.499977191854
 21
-735.2821772082154
 31
0.0000000000060347
  0
LINE
  5
26526
  8
01
 10
3042.499977191854
 20
-735.2821772082154
 30
0.0000000000060347
 11
3041.999977191854
 21
-735.1821760448179
 31
0.0000000000060347
  0
LINE
  5
26527
  8
01
 10
3038.999977191854
 20
-736.1821690644315
 30
0.0000000000060347
 11
3038.499977191854
 21
-736.0821679010337
 31
0.0000000000060347
  0
LINE
  5
26528
  8
01
 10
3042.499977191854
 20
-736.8821772082154
 30
0.0000000000060347
 11
3041.999977191854
 21
-736.7821760448178
 31
0.0000000000060347
  0
LINE
  5
26529
  8
01
 10
3042.499977191854
 20
-732.0821772082111
 30
0.0000000000060347
 11
3041.999977191854
 21
-731.982176044814
 31
0.0000000000060347
  0
LINE
  5
2652A
  8
01
 10
3042.499977191854
 20
-733.6821772082153
 30
0.0000000000060347
 11
3041.999977191854
 21
-733.5821760448177
 31
0.0000000000060347
  0
LINE
  5
2652B
  8
01
 10
3038.999977191854
 20
-732.9821690644314
 30
0.0000000000060347
 11
3038.499977191854
 21
-732.8821679010337
 31
0.0000000000060347
  0
LINE
  5
2652C
  8
01
 10
3038.499977191854
 20
-732.8821679010337
 30
0.0000000000060347
 11
3042.499977191854
 21
-732.0821772082111
 31
0.0000000000060347
  0
LINE
  5
2652D
  8
01
 10
3038.499977191854
 20
-734.4821679010336
 30
0.0000000000060347
 11
3042.499977191854
 21
-733.6821772082153
 31
0.0000000000060347
  0
LINE
  5
2652E
  8
01
 10
3038.499977191854
 20
-737.6821679010336
 30
0.0000000000060347
 11
3042.499977191854
 21
-736.8821772082154
 31
0.0000000000060347
  0
LINE
  5
2652F
  8
01
 10
3038.499977191854
 20
-739.2821679010381
 30
0.0000000000060347
 11
3042.499977191854
 21
-738.4821772082198
 31
0.0000000000060347
  0
LINE
  5
26531
  8
1CENTER
 10
3029.82574570166
 20
-759.9321953322362
 30
0.0
 11
3009.949174688515
 21
-759.9321953322362
 31
0.0
  0
LINE
  5
26532
  8
1HATCH
 10
3028.799865335226
 20
-761.5821953322362
 30
0.0
 11
3013.799865335226
 21
-761.5821953322362
 31
0.0
  0
LINE
  5
26533
  8
1HATCH
 10
3028.799865335226
 20
-758.2821953322363
 30
0.0
 11
3013.799865335226
 21
-758.2821953322361
 31
0.0
  0
LINE
  5
26534
  8
1HATCH
 10
3028.449865335226
 20
-761.9321953322362
 30
0.0
 11
3028.449865335226
 21
-757.9321953322362
 31
0.0
  0
LINE
  5
26535
  8
01
 10
3013.799865335226
 20
-761.9321953322362
 30
0.0
 11
3013.799865335226
 21
-757.9321953322362
 31
0.0
  0
LINE
  5
26537
  8
1CENTER
 10
3029.82574570166
 20
-774.9321959282827
 30
0.0
 11
3009.949174688515
 21
-774.9321959282827
 31
0.0
  0
LINE
  5
26538
  8
1HATCH
 10
3028.799865335226
 20
-776.5821959282827
 30
0.0
 11
3013.799865335226
 21
-776.5821959282827
 31
0.0
  0
LINE
  5
26539
  8
1HATCH
 10
3028.799865335226
 20
-773.2821959282827
 30
0.0
 11
3013.799865335226
 21
-773.2821959282826
 31
0.0
  0
LINE
  5
2653A
  8
1HATCH
 10
3028.449865335226
 20
-776.9321959282827
 30
0.0
 11
3028.449865335226
 21
-772.9321959282827
 31
0.0
  0
LINE
  5
2653B
  8
01
 10
3013.799865335226
 20
-776.9321959282827
 30
0.0
 11
3013.799865335226
 21
-772.9321959282827
 31
0.0
  0
LINE
  5
2653D
  8
1CENTER
 10
3138.631834617867
 20
-711.52767636377
 30
0.0
 11
3138.631834617867
 21
-749.3608094111447
 31
0.0
  0
LINE
  5
2653E
  8
01
 10
3137.131881153765
 20
-720.1821690644308
 30
0.0
 11
3136.631881153765
 21
-720.0821679010337
 31
0.0
  0
LINE
  5
2653F
  8
01
 10
3136.631881153765
 20
-720.0821679010337
 30
0.0
 11
3140.631881153765
 21
-719.2821772082111
 31
0.0
  0
LINE
  5
26540
  8
01
 10
3140.631881153765
 20
-719.2821772082111
 30
0.0
 11
3140.131881153765
 21
-719.182176044814
 31
0.0
  0
LINE
  5
26541
  8
01
 10
3137.131881153765
 20
-721.7821690644307
 30
0.0
 11
3136.631881153765
 21
-721.6821679010336
 31
0.0
  0
LINE
  5
26542
  8
01
 10
3140.631881153765
 20
-720.882177208211
 30
0.0
 11
3140.131881153765
 21
-720.7821760448139
 31
0.0
  0
LINE
  5
26543
  8
01
 10
3136.631881153765
 20
-721.6821679010336
 30
0.0
 11
3140.631881153765
 21
-720.882177208211
 31
0.0
  0
LINE
  5
26544
  8
01
 10
3137.131881153765
 20
-723.3821690644309
 30
0.0
 11
3136.631881153765
 21
-723.2821679010337
 31
0.0
  0
LINE
  5
26545
  8
01
 10
3136.631881153765
 20
-723.2821679010337
 30
0.0
 11
3140.631881153765
 21
-722.4821772082112
 31
0.0
  0
LINE
  5
26546
  8
01
 10
3140.631881153765
 20
-722.4821772082112
 30
0.0
 11
3140.131881153765
 21
-722.3821760448141
 31
0.0
  0
LINE
  5
26547
  8
01
 10
3137.131881153765
 20
-731.3821690644309
 30
0.0
 11
3136.631881153765
 21
-731.2821679010337
 31
0.0
  0
LINE
  5
26548
  8
01
 10
3140.631881153765
 20
-730.4821772082112
 30
0.0
 11
3140.131881153765
 21
-730.3821760448141
 31
0.0
  0
LINE
  5
26549
  8
01
 10
3140.631881153765
 20
-728.882177208211
 30
0.0
 11
3140.131881153765
 21
-728.7821760448139
 31
0.0
  0
LINE
  5
2654A
  8
01
 10
3137.131881153765
 20
-729.7821690644307
 30
0.0
 11
3136.631881153765
 21
-729.6821679010336
 31
0.0
  0
LINE
  5
2654B
  8
01
 10
3137.131881153765
 20
-728.1821690644308
 30
0.0
 11
3136.631881153765
 21
-728.0821679010337
 31
0.0
  0
LINE
  5
2654C
  8
01
 10
3136.631881153765
 20
-729.6821679010336
 30
0.0
 11
3140.631881153765
 21
-728.882177208211
 31
0.0
  0
LINE
  5
2654D
  8
01
 10
3136.631881153765
 20
-731.2821679010337
 30
0.0
 11
3140.631881153765
 21
-730.4821772082112
 31
0.0
  0
LINE
  5
2654E
  8
01
 10
3137.131881153765
 20
-726.5821690644309
 30
0.0
 11
3136.631881153765
 21
-726.4821679010338
 31
0.0
  0
LINE
  5
2654F
  8
01
 10
3137.131881153765
 20
-718.3821690644309
 30
0.0
 11
3136.631881153765
 21
-718.2821679010337
 31
0.0
  0
LINE
  5
26550
  8
01
 10
3136.631881153765
 20
-718.2821679010337
 30
0.0
 11
3140.405474101561
 21
-717.4821766814085
 31
0.0
  0
LINE
  5
26551
  8
01
 10
3140.405474101561
 20
-717.4821766814085
 30
0.0
 11
3139.86888036629
 21
-717.3529059837787
 31
0.0
  0
LINE
  5
26552
  8
01
 10
3140.631881153765
 20
-725.6821772082112
 30
0.0
 11
3140.131881153765
 21
-725.5821760448141
 31
0.0
  0
LINE
  5
26553
  8
01
 10
3140.631881153765
 20
-724.0821772082111
 30
0.0
 11
3140.131881153765
 21
-723.982176044814
 31
0.0
  0
LINE
  5
26554
  8
01
 10
3137.131881153765
 20
-724.9821690644308
 30
0.0
 11
3136.631881153765
 21
-724.8821679010337
 31
0.0
  0
LINE
  5
26555
  8
01
 10
3136.631881153765
 20
-724.8821679010337
 30
0.0
 11
3140.631881153765
 21
-724.0821772082111
 31
0.0
  0
LINE
  5
26556
  8
01
 10
3136.631881153765
 20
-726.4821679010338
 30
0.0
 11
3140.631881153765
 21
-725.6821772082112
 31
0.0
  0
LINE
  5
26557
  8
01
 10
3137.084697295823
 20
-716.682168954644
 30
0.0
 11
3139.952659997154
 21
-715.8821756278029
 31
0.0
  0
LINE
  5
26558
  8
01
 10
3137.537510803872
 20
-715.0821700082482
 30
0.0
 11
3139.499845892747
 21
-714.2821745741973
 31
0.0
  0
LINE
  5
26559
  8
01
 10
3139.952659997154
 20
-715.8821756278029
 30
0.0
 11
3139.400910533351
 21
-715.6994114851749
 31
0.0
  0
LINE
  5
2655A
  8
01
 10
3137.994682644503
 20
-715.2336058046886
 30
0.0
 11
3137.537510803872
 21
-715.0821700082482
 31
0.0
  0
LINE
  5
2655B
  8
01
 10
3139.499845892747
 20
-714.2821745741973
 30
0.0
 11
3138.911569317705
 21
-713.9704047179451
 31
0.0
  0
LINE
  5
2655C
  8
01
 10
3137.552795750973
 20
-716.794938466994
 30
0.0
 11
3137.084697295823
 21
-716.682168954644
 31
0.0
  0
LINE
  5
2655D
  8
01
 10
3140.631881153765
 20
-727.2821772082111
 30
0.0
 11
3140.131881153765
 21
-727.182176044814
 31
0.0
  0
LINE
  5
2655E
  8
01
 10
3136.631881153765
 20
-728.0821679010337
 30
0.0
 11
3140.631881153765
 21
-727.2821772082111
 31
0.0
  0
LINE
  5
2655F
  8
01
 10
3140.131881153765
 20
-744.9821760448309
 30
0.0
 11
3140.631881153765
 21
-744.8821772082287
 31
0.0
  0
LINE
  5
26560
  8
01
 10
3136.631881153765
 20
-744.0821679010425
 30
0.0
 11
3140.631881153765
 21
-743.2821772082243
 31
0.0
  0
LINE
  5
26561
  8
01
 10
3136.631881153765
 20
-740.8821679010425
 30
0.0
 11
3140.631881153765
 21
-740.0821772082243
 31
0.0
  0
LINE
  5
26562
  8
01
 10
3140.631881153765
 20
-740.0821772082243
 30
0.0
 11
3140.131881153765
 21
-739.9821760448265
 31
0.0
  0
LINE
  5
26563
  8
01
 10
3140.631881153765
 20
-743.2821772082243
 30
0.0
 11
3140.131881153765
 21
-743.1821760448265
 31
0.0
  0
LINE
  5
26564
  8
01
 10
3137.131881153765
 20
-742.5821690644402
 30
0.0
 11
3136.631881153765
 21
-742.4821679010427
 31
0.0
  0
LINE
  5
26565
  8
01
 10
3140.631881153765
 20
-741.6821772082244
 30
0.0
 11
3140.131881153765
 21
-741.5821760448266
 31
0.0
  0
LINE
  5
26566
  8
01
 10
3136.631881153765
 20
-742.4821679010427
 30
0.0
 11
3140.631881153765
 21
-741.6821772082244
 31
0.0
  0
LINE
  5
26567
  8
01
 10
3137.131881153765
 20
-740.9821690644401
 30
0.0
 11
3136.631881153765
 21
-740.8821679010425
 31
0.0
  0
LINE
  5
26568
  8
01
 10
3140.631881153765
 20
-744.8821772082287
 30
0.0
 11
3140.131881153765
 21
-744.782176044831
 31
0.0
  0
LINE
  5
26569
  8
01
 10
3137.131881153765
 20
-744.1821690644401
 30
0.0
 11
3136.631881153765
 21
-744.0821679010425
 31
0.0
  0
LINE
  5
2656A
  8
01
 10
3134.631834617867
 20
-747.6821632472273
 30
0.0
 11
3142.631834617867
 21
-747.6821818615865
 31
0.0
  0
LINE
  5
2656B
  8
01
 10
3137.131881153765
 20
-739.3821690644359
 30
0.0
 11
3136.631881153765
 21
-739.2821679010381
 31
0.0
  0
LINE
  5
2656C
  8
01
 10
3137.131881153765
 20
-737.7821690644314
 30
0.0
 11
3136.631881153765
 21
-737.6821679010338
 31
0.0
  0
LINE
  5
2656D
  8
01
 10
3140.631881153765
 20
-738.4821772082198
 30
0.0
 11
3140.131881153765
 21
-738.3821760448222
 31
0.0
  0
LINE
  5
2656E
  8
01
 10
3137.131881153765
 20
-734.5821690644314
 30
0.0
 11
3136.631881153765
 21
-734.4821679010338
 31
0.0
  0
LINE
  5
2656F
  8
01
 10
3136.631881153765
 20
-736.0821679010339
 30
0.0
 11
3140.631881153765
 21
-735.2821772082157
 31
0.0
  0
LINE
  5
26570
  8
01
 10
3140.631881153765
 20
-735.2821772082157
 30
0.0
 11
3140.131881153765
 21
-735.1821760448179
 31
0.0
  0
LINE
  5
26571
  8
01
 10
3137.131881153765
 20
-736.1821690644315
 30
0.0
 11
3136.631881153765
 21
-736.0821679010339
 31
0.0
  0
LINE
  5
26572
  8
01
 10
3140.631881153765
 20
-736.8821772082156
 30
0.0
 11
3140.131881153765
 21
-736.7821760448178
 31
0.0
  0
LINE
  5
26573
  8
01
 10
3140.631881153765
 20
-732.0821772082111
 30
0.0
 11
3140.131881153765
 21
-731.982176044814
 31
0.0
  0
LINE
  5
26574
  8
01
 10
3140.631881153765
 20
-733.6821772082155
 30
0.0
 11
3140.131881153765
 21
-733.5821760448177
 31
0.0
  0
LINE
  5
26575
  8
01
 10
3137.131881153765
 20
-732.9821690644314
 30
0.0
 11
3136.631881153765
 21
-732.8821679010337
 31
0.0
  0
LINE
  5
26576
  8
01
 10
3136.631881153765
 20
-732.8821679010337
 30
0.0
 11
3140.631881153765
 21
-732.0821772082111
 31
0.0
  0
LINE
  5
26577
  8
01
 10
3136.631881153765
 20
-734.4821679010338
 30
0.0
 11
3140.631881153765
 21
-733.6821772082155
 31
0.0
  0
LINE
  5
26578
  8
01
 10
3136.631881153765
 20
-737.6821679010338
 30
0.0
 11
3140.631881153765
 21
-736.8821772082156
 31
0.0
  0
LINE
  5
26579
  8
01
 10
3136.631881153765
 20
-739.2821679010381
 30
0.0
 11
3140.631881153765
 21
-738.4821772082198
 31
0.0
  0
LINE
  5
2657B
  8
1CENTER
 10
1566.635310404893
 20
-1349.892366448379
 30
0.0000000000060347
 11
1604.468443452268
 21
-1349.892366448379
 31
0.0000000000060347
  0
LINE
  5
2657C
  8
01
 10
1575.289803105554
 20
-1351.392319912481
 30
0.0000000000060347
 11
1575.189801942157
 21
-1351.892319912481
 31
0.0000000000060347
  0
LINE
  5
2657D
  8
01
 10
1575.189801942157
 20
-1351.892319912481
 30
0.0000000000060347
 11
1574.389811249335
 21
-1347.892319912481
 31
0.0000000000060347
  0
LINE
  5
2657E
  8
01
 10
1574.389811249335
 20
-1347.892319912481
 30
0.0000000000060347
 11
1574.289810085937
 21
-1348.392319912481
 31
0.0000000000060347
  0
LINE
  5
2657F
  8
01
 10
1576.889803105554
 20
-1351.392319912481
 30
0.0000000000060347
 11
1576.789801942157
 21
-1351.892319912481
 31
0.0000000000060347
  0
LINE
  5
26580
  8
01
 10
1575.989811249334
 20
-1347.892319912481
 30
0.0000000000060347
 11
1575.889810085937
 21
-1348.392319912481
 31
0.0000000000060347
  0
LINE
  5
26581
  8
01
 10
1576.789801942157
 20
-1351.892319912481
 30
0.0000000000060347
 11
1575.989811249334
 21
-1347.892319912481
 31
0.0000000000060347
  0
LINE
  5
26582
  8
01
 10
1578.489803105554
 20
-1351.392319912481
 30
0.0000000000060347
 11
1578.389801942157
 21
-1351.892319912481
 31
0.0000000000060347
  0
LINE
  5
26583
  8
01
 10
1578.389801942157
 20
-1351.892319912481
 30
0.0000000000060347
 11
1577.589811249335
 21
-1347.892319912481
 31
0.0000000000060347
  0
LINE
  5
26584
  8
01
 10
1577.589811249335
 20
-1347.892319912481
 30
0.0000000000060347
 11
1577.489810085938
 21
-1348.392319912481
 31
0.0000000000060347
  0
LINE
  5
26585
  8
01
 10
1586.489803105554
 20
-1351.392319912481
 30
0.0000000000060347
 11
1586.389801942157
 21
-1351.892319912481
 31
0.0000000000060347
  0
LINE
  5
26586
  8
01
 10
1585.589811249335
 20
-1347.892319912481
 30
0.0000000000060347
 11
1585.489810085938
 21
-1348.392319912481
 31
0.0000000000060347
  0
LINE
  5
26587
  8
01
 10
1583.989811249334
 20
-1347.892319912481
 30
0.0000000000060347
 11
1583.889810085937
 21
-1348.392319912481
 31
0.0000000000060347
  0
LINE
  5
26588
  8
01
 10
1584.889803105554
 20
-1351.392319912481
 30
0.0000000000060347
 11
1584.789801942157
 21
-1351.892319912481
 31
0.0000000000060347
  0
LINE
  5
26589
  8
01
 10
1583.289803105554
 20
-1351.392319912481
 30
0.0000000000060347
 11
1583.189801942157
 21
-1351.892319912481
 31
0.0000000000060347
  0
LINE
  5
2658A
  8
01
 10
1584.789801942157
 20
-1351.892319912481
 30
0.0000000000060347
 11
1583.989811249334
 21
-1347.892319912481
 31
0.0000000000060347
  0
LINE
  5
2658B
  8
01
 10
1586.389801942157
 20
-1351.892319912481
 30
0.0000000000060347
 11
1585.589811249335
 21
-1347.892319912481
 31
0.0000000000060347
  0
LINE
  5
2658C
  8
01
 10
1581.689803105554
 20
-1351.392319912481
 30
0.0000000000060347
 11
1581.589801942157
 21
-1351.892319912481
 31
0.0000000000060347
  0
LINE
  5
2658D
  8
01
 10
1573.489803105554
 20
-1351.392319912481
 30
0.0000000000060347
 11
1573.389801942157
 21
-1351.892319912481
 31
0.0000000000060347
  0
LINE
  5
2658E
  8
01
 10
1573.389801942157
 20
-1351.892319912481
 30
0.0000000000060347
 11
1572.589810722532
 21
-1348.118726964685
 31
0.0000000000060347
  0
LINE
  5
2658F
  8
01
 10
1572.589810722532
 20
-1348.118726964685
 30
0.0000000000060347
 11
1572.460540024902
 21
-1348.655320699957
 31
0.0000000000060347
  0
LINE
  5
26590
  8
01
 10
1580.789811249335
 20
-1347.892319912481
 30
0.0000000000060347
 11
1580.689810085938
 21
-1348.392319912481
 31
0.0000000000060347
  0
LINE
  5
26591
  8
01
 10
1579.189811249335
 20
-1347.892319912481
 30
0.0000000000060347
 11
1579.089810085937
 21
-1348.392319912481
 31
0.0000000000060347
  0
LINE
  5
26592
  8
01
 10
1580.089803105554
 20
-1351.392319912481
 30
0.0000000000060347
 11
1579.989801942157
 21
-1351.892319912481
 31
0.0000000000060347
  0
LINE
  5
26593
  8
01
 10
1579.989801942157
 20
-1351.892319912481
 30
0.0000000000060347
 11
1579.189811249335
 21
-1347.892319912481
 31
0.0000000000060347
  0
LINE
  5
26594
  8
01
 10
1581.589801942157
 20
-1351.892319912481
 30
0.0000000000060347
 11
1580.789811249335
 21
-1347.892319912481
 31
0.0000000000060347
  0
LINE
  5
26595
  8
01
 10
1571.789802995767
 20
-1351.439503770423
 30
0.0000000000060347
 11
1570.989809668926
 21
-1348.571541069092
 31
0.0000000000060347
  0
LINE
  5
26596
  8
01
 10
1570.189804049372
 20
-1350.986690262374
 30
0.0000000000060347
 11
1569.389808615321
 21
-1349.024355173499
 31
0.0000000000060347
  0
LINE
  5
26597
  8
01
 10
1570.989809668926
 20
-1348.571541069092
 30
0.0000000000060347
 11
1570.807045526298
 21
-1349.123290532895
 31
0.0000000000060347
  0
LINE
  5
26598
  8
01
 10
1570.341239845812
 20
-1350.529518421743
 30
0.0000000000060347
 11
1570.189804049372
 21
-1350.986690262374
 31
0.0000000000060347
  0
LINE
  5
26599
  8
01
 10
1569.389808615321
 20
-1349.024355173499
 30
0.0000000000060347
 11
1569.078038759068
 21
-1349.612631748541
 31
0.0000000000060347
  0
LINE
  5
2659A
  8
01
 10
1571.902572508117
 20
-1350.971405315273
 30
0.0000000000060347
 11
1571.789802995767
 21
-1351.439503770423
 31
0.0000000000060347
  0
LINE
  5
2659B
  8
01
 10
1582.389811249335
 20
-1347.892319912481
 30
0.0000000000060347
 11
1582.289810085937
 21
-1348.392319912481
 31
0.0000000000060347
  0
LINE
  5
2659C
  8
01
 10
1583.189801942157
 20
-1351.892319912481
 30
0.0000000000060347
 11
1582.389811249335
 21
-1347.892319912481
 31
0.0000000000060347
  0
LINE
  5
2659D
  8
01
 10
1600.089810085954
 20
-1348.392319912481
 30
0.0000000000060347
 11
1599.989811249352
 21
-1347.892319912481
 31
0.0000000000060347
  0
LINE
  5
2659E
  8
01
 10
1599.189801942166
 20
-1351.892319912481
 30
0.0000000000060347
 11
1598.389811249348
 21
-1347.892319912481
 31
0.0000000000060347
  0
LINE
  5
2659F
  8
01
 10
1595.989801942166
 20
-1351.892319912481
 30
0.0000000000060347
 11
1595.189811249348
 21
-1347.892319912481
 31
0.0000000000060347
  0
LINE
  5
265A0
  8
01
 10
1595.189811249348
 20
-1347.892319912481
 30
0.0000000000060347
 11
1595.08981008595
 21
-1348.392319912481
 31
0.0000000000060347
  0
LINE
  5
265A1
  8
01
 10
1598.389811249348
 20
-1347.892319912481
 30
0.0000000000060347
 11
1598.28981008595
 21
-1348.392319912481
 31
0.0000000000060347
  0
LINE
  5
265A2
  8
01
 10
1597.689803105564
 20
-1351.392319912481
 30
0.0000000000060347
 11
1597.589801942166
 21
-1351.892319912481
 31
0.0000000000060347
  0
LINE
  5
265A3
  8
01
 10
1596.789811249348
 20
-1347.892319912481
 30
0.0000000000060347
 11
1596.68981008595
 21
-1348.392319912481
 31
0.0000000000060347
  0
LINE
  5
265A4
  8
01
 10
1597.589801942166
 20
-1351.892319912481
 30
0.0000000000060347
 11
1596.789811249348
 21
-1347.892319912481
 31
0.0000000000060347
  0
LINE
  5
265A5
  8
01
 10
1596.089803105564
 20
-1351.392319912481
 30
0.0000000000060347
 11
1595.989801942166
 21
-1351.892319912481
 31
0.0000000000060347
  0
LINE
  5
265A6
  8
01
 10
1599.989811249352
 20
-1347.892319912481
 30
0.0000000000060347
 11
1599.889810085954
 21
-1348.392319912481
 31
0.0000000000060347
  0
LINE
  5
265A7
  8
01
 10
1599.289803105564
 20
-1351.392319912481
 30
0.0000000000060347
 11
1599.189801942166
 21
-1351.892319912481
 31
0.0000000000060347
  0
LINE
  5
265A8
  8
01
 10
1602.789797288351
 20
-1353.892366448379
 30
0.0000000000060347
 11
1602.78981590271
 21
-1345.892366448379
 31
0.0000000000060347
  0
LINE
  5
265A9
  8
01
 10
1594.489803105559
 20
-1351.392319912481
 30
0.0000000000060347
 11
1594.389801942162
 21
-1351.892319912481
 31
0.0000000000060347
  0
LINE
  5
265AA
  8
01
 10
1592.889803105555
 20
-1351.392319912481
 30
0.0000000000060347
 11
1592.789801942157
 21
-1351.892319912481
 31
0.0000000000060347
  0
LINE
  5
265AB
  8
01
 10
1593.589811249343
 20
-1347.892319912481
 30
0.0000000000060347
 11
1593.489810085946
 21
-1348.392319912481
 31
0.0000000000060347
  0
LINE
  5
265AC
  8
01
 10
1589.689803105555
 20
-1351.392319912481
 30
0.0000000000060347
 11
1589.589801942157
 21
-1351.892319912481
 31
0.0000000000060347
  0
LINE
  5
265AD
  8
01
 10
1591.189801942157
 20
-1351.892319912481
 30
0.0000000000060347
 11
1590.389811249339
 21
-1347.892319912481
 31
0.0000000000060347
  0
LINE
  5
265AE
  8
01
 10
1590.389811249339
 20
-1347.892319912481
 30
0.0000000000060347
 11
1590.289810085941
 21
-1348.392319912481
 31
0.0000000000060347
  0
LINE
  5
265AF
  8
01
 10
1591.289803105555
 20
-1351.392319912481
 30
0.0000000000060347
 11
1591.189801942157
 21
-1351.892319912481
 31
0.0000000000060347
  0
LINE
  5
265B0
  8
01
 10
1591.989811249339
 20
-1347.892319912481
 30
0.0000000000060347
 11
1591.889810085941
 21
-1348.392319912481
 31
0.0000000000060347
  0
LINE
  5
265B1
  8
01
 10
1587.189811249335
 20
-1347.892319912481
 30
0.0000000000060347
 11
1587.089810085937
 21
-1348.392319912481
 31
0.0000000000060347
  0
LINE
  5
265B2
  8
01
 10
1588.789811249339
 20
-1347.892319912481
 30
0.0000000000060347
 11
1588.689810085941
 21
-1348.392319912481
 31
0.0000000000060347
  0
LINE
  5
265B3
  8
01
 10
1588.089803105555
 20
-1351.392319912481
 30
0.0000000000060347
 11
1587.989801942157
 21
-1351.892319912481
 31
0.0000000000060347
  0
LINE
  5
265B4
  8
01
 10
1587.989801942157
 20
-1351.892319912481
 30
0.0000000000060347
 11
1587.189811249335
 21
-1347.892319912481
 31
0.0000000000060347
  0
LINE
  5
265B5
  8
01
 10
1589.589801942157
 20
-1351.892319912481
 30
0.0000000000060347
 11
1588.789811249339
 21
-1347.892319912481
 31
0.0000000000060347
  0
LINE
  5
265B6
  8
01
 10
1592.789801942157
 20
-1351.892319912481
 30
0.0000000000060347
 11
1591.989811249339
 21
-1347.892319912481
 31
0.0000000000060347
  0
LINE
  5
265B7
  8
01
 10
1594.389801942162
 20
-1351.892319912481
 30
0.0000000000060347
 11
1593.589811249343
 21
-1347.892319912481
 31
0.0000000000060347
  0
LINE
  5
265B9
  8
1CENTER
 10
1566.635310404893
 20
-1309.892366448379
 30
0.0000000000060347
 11
1604.468443452268
 21
-1309.892366448379
 31
0.0000000000060347
  0
LINE
  5
265BA
  8
01
 10
1575.289803105554
 20
-1311.392319912481
 30
0.0000000000060347
 11
1575.189801942157
 21
-1311.892319912481
 31
0.0000000000060347
  0
LINE
  5
265BB
  8
01
 10
1575.189801942157
 20
-1311.892319912481
 30
0.0000000000060347
 11
1574.389811249335
 21
-1307.892319912481
 31
0.0000000000060347
  0
LINE
  5
265BC
  8
01
 10
1574.389811249335
 20
-1307.892319912481
 30
0.0000000000060347
 11
1574.289810085937
 21
-1308.392319912481
 31
0.0000000000060347
  0
LINE
  5
265BD
  8
01
 10
1576.889803105554
 20
-1311.392319912481
 30
0.0000000000060347
 11
1576.789801942157
 21
-1311.892319912481
 31
0.0000000000060347
  0
LINE
  5
265BE
  8
01
 10
1575.989811249334
 20
-1307.892319912481
 30
0.0000000000060347
 11
1575.889810085937
 21
-1308.392319912481
 31
0.0000000000060347
  0
LINE
  5
265BF
  8
01
 10
1576.789801942157
 20
-1311.892319912481
 30
0.0000000000060347
 11
1575.989811249334
 21
-1307.892319912481
 31
0.0000000000060347
  0
LINE
  5
265C0
  8
01
 10
1578.489803105554
 20
-1311.392319912481
 30
0.0000000000060347
 11
1578.389801942157
 21
-1311.892319912481
 31
0.0000000000060347
  0
LINE
  5
265C1
  8
01
 10
1578.389801942157
 20
-1311.892319912481
 30
0.0000000000060347
 11
1577.589811249335
 21
-1307.892319912481
 31
0.0000000000060347
  0
LINE
  5
265C2
  8
01
 10
1577.589811249335
 20
-1307.892319912481
 30
0.0000000000060347
 11
1577.489810085938
 21
-1308.392319912481
 31
0.0000000000060347
  0
LINE
  5
265C3
  8
01
 10
1586.489803105554
 20
-1311.392319912481
 30
0.0000000000060347
 11
1586.389801942157
 21
-1311.892319912481
 31
0.0000000000060347
  0
LINE
  5
265C4
  8
01
 10
1585.589811249335
 20
-1307.892319912481
 30
0.0000000000060347
 11
1585.489810085938
 21
-1308.392319912481
 31
0.0000000000060347
  0
LINE
  5
265C5
  8
01
 10
1583.989811249334
 20
-1307.892319912481
 30
0.0000000000060347
 11
1583.889810085937
 21
-1308.392319912481
 31
0.0000000000060347
  0
LINE
  5
265C6
  8
01
 10
1584.889803105554
 20
-1311.392319912481
 30
0.0000000000060347
 11
1584.789801942157
 21
-1311.892319912481
 31
0.0000000000060347
  0
LINE
  5
265C7
  8
01
 10
1583.289803105554
 20
-1311.392319912481
 30
0.0000000000060347
 11
1583.189801942157
 21
-1311.892319912481
 31
0.0000000000060347
  0
LINE
  5
265C8
  8
01
 10
1584.789801942157
 20
-1311.892319912481
 30
0.0000000000060347
 11
1583.989811249334
 21
-1307.892319912481
 31
0.0000000000060347
  0
LINE
  5
265C9
  8
01
 10
1586.389801942157
 20
-1311.892319912481
 30
0.0000000000060347
 11
1585.589811249335
 21
-1307.892319912481
 31
0.0000000000060347
  0
LINE
  5
265CA
  8
01
 10
1581.689803105554
 20
-1311.392319912481
 30
0.0000000000060347
 11
1581.589801942157
 21
-1311.892319912481
 31
0.0000000000060347
  0
LINE
  5
265CB
  8
01
 10
1573.489803105554
 20
-1311.392319912481
 30
0.0000000000060347
 11
1573.389801942157
 21
-1311.892319912481
 31
0.0000000000060347
  0
LINE
  5
265CC
  8
01
 10
1573.389801942157
 20
-1311.892319912481
 30
0.0000000000060347
 11
1572.589810722532
 21
-1308.118726964685
 31
0.0000000000060347
  0
LINE
  5
265CD
  8
01
 10
1572.589810722532
 20
-1308.118726964685
 30
0.0000000000060347
 11
1572.460540024902
 21
-1308.655320699957
 31
0.0000000000060347
  0
LINE
  5
265CE
  8
01
 10
1580.789811249335
 20
-1307.892319912481
 30
0.0000000000060347
 11
1580.689810085938
 21
-1308.392319912481
 31
0.0000000000060347
  0
LINE
  5
265CF
  8
01
 10
1579.189811249335
 20
-1307.892319912481
 30
0.0000000000060347
 11
1579.089810085937
 21
-1308.392319912481
 31
0.0000000000060347
  0
LINE
  5
265D0
  8
01
 10
1580.089803105554
 20
-1311.392319912481
 30
0.0000000000060347
 11
1579.989801942157
 21
-1311.892319912481
 31
0.0000000000060347
  0
LINE
  5
265D1
  8
01
 10
1579.989801942157
 20
-1311.892319912481
 30
0.0000000000060347
 11
1579.189811249335
 21
-1307.892319912481
 31
0.0000000000060347
  0
LINE
  5
265D2
  8
01
 10
1581.589801942157
 20
-1311.892319912481
 30
0.0000000000060347
 11
1580.789811249335
 21
-1307.892319912481
 31
0.0000000000060347
  0
LINE
  5
265D3
  8
01
 10
1571.789802995767
 20
-1311.439503770423
 30
0.0000000000060347
 11
1570.989809668926
 21
-1308.571541069092
 31
0.0000000000060347
  0
LINE
  5
265D4
  8
01
 10
1570.189804049372
 20
-1310.986690262374
 30
0.0000000000060347
 11
1569.389808615321
 21
-1309.024355173499
 31
0.0000000000060347
  0
LINE
  5
265D5
  8
01
 10
1570.989809668926
 20
-1308.571541069092
 30
0.0000000000060347
 11
1570.807045526298
 21
-1309.123290532895
 31
0.0000000000060347
  0
LINE
  5
265D6
  8
01
 10
1570.341239845812
 20
-1310.529518421743
 30
0.0000000000060347
 11
1570.189804049372
 21
-1310.986690262374
 31
0.0000000000060347
  0
LINE
  5
265D7
  8
01
 10
1569.389808615321
 20
-1309.024355173499
 30
0.0000000000060347
 11
1569.078038759068
 21
-1309.612631748541
 31
0.0000000000060347
  0
LINE
  5
265D8
  8
01
 10
1571.902572508117
 20
-1310.971405315273
 30
0.0000000000060347
 11
1571.789802995767
 21
-1311.439503770423
 31
0.0000000000060347
  0
LINE
  5
265D9
  8
01
 10
1582.389811249335
 20
-1307.892319912481
 30
0.0000000000060347
 11
1582.289810085937
 21
-1308.392319912481
 31
0.0000000000060347
  0
LINE
  5
265DA
  8
01
 10
1583.189801942157
 20
-1311.892319912481
 30
0.0000000000060347
 11
1582.389811249335
 21
-1307.892319912481
 31
0.0000000000060347
  0
LINE
  5
265DB
  8
01
 10
1600.089810085954
 20
-1308.392319912481
 30
0.0000000000060347
 11
1599.989811249352
 21
-1307.892319912481
 31
0.0000000000060347
  0
LINE
  5
265DC
  8
01
 10
1599.189801942166
 20
-1311.892319912481
 30
0.0000000000060347
 11
1598.389811249348
 21
-1307.892319912481
 31
0.0000000000060347
  0
LINE
  5
265DD
  8
01
 10
1595.989801942166
 20
-1311.892319912481
 30
0.0000000000060347
 11
1595.189811249348
 21
-1307.892319912481
 31
0.0000000000060347
  0
LINE
  5
265DE
  8
01
 10
1595.189811249348
 20
-1307.892319912481
 30
0.0000000000060347
 11
1595.08981008595
 21
-1308.392319912481
 31
0.0000000000060347
  0
LINE
  5
265DF
  8
01
 10
1598.389811249348
 20
-1307.892319912481
 30
0.0000000000060347
 11
1598.28981008595
 21
-1308.392319912481
 31
0.0000000000060347
  0
LINE
  5
265E0
  8
01
 10
1597.689803105564
 20
-1311.392319912481
 30
0.0000000000060347
 11
1597.589801942166
 21
-1311.892319912481
 31
0.0000000000060347
  0
LINE
  5
265E1
  8
01
 10
1596.789811249348
 20
-1307.892319912481
 30
0.0000000000060347
 11
1596.68981008595
 21
-1308.392319912481
 31
0.0000000000060347
  0
LINE
  5
265E2
  8
01
 10
1597.589801942166
 20
-1311.892319912481
 30
0.0000000000060347
 11
1596.789811249348
 21
-1307.892319912481
 31
0.0000000000060347
  0
LINE
  5
265E3
  8
01
 10
1596.089803105564
 20
-1311.392319912481
 30
0.0000000000060347
 11
1595.989801942166
 21
-1311.892319912481
 31
0.0000000000060347
  0
LINE
  5
265E4
  8
01
 10
1599.989811249352
 20
-1307.892319912481
 30
0.0000000000060347
 11
1599.889810085954
 21
-1308.392319912481
 31
0.0000000000060347
  0
LINE
  5
265E5
  8
01
 10
1599.289803105564
 20
-1311.392319912481
 30
0.0000000000060347
 11
1599.189801942166
 21
-1311.892319912481
 31
0.0000000000060347
  0
LINE
  5
265E6
  8
01
 10
1602.789797288351
 20
-1313.892366448379
 30
0.0000000000060347
 11
1602.78981590271
 21
-1305.892366448379
 31
0.0000000000060347
  0
LINE
  5
265E7
  8
01
 10
1594.489803105559
 20
-1311.392319912481
 30
0.0000000000060347
 11
1594.389801942162
 21
-1311.892319912481
 31
0.0000000000060347
  0
LINE
  5
265E8
  8
01
 10
1592.889803105555
 20
-1311.392319912481
 30
0.0000000000060347
 11
1592.789801942157
 21
-1311.892319912481
 31
0.0000000000060347
  0
LINE
  5
265E9
  8
01
 10
1593.589811249343
 20
-1307.892319912481
 30
0.0000000000060347
 11
1593.489810085946
 21
-1308.392319912481
 31
0.0000000000060347
  0
LINE
  5
265EA
  8
01
 10
1589.689803105555
 20
-1311.392319912481
 30
0.0000000000060347
 11
1589.589801942157
 21
-1311.892319912481
 31
0.0000000000060347
  0
LINE
  5
265EB
  8
01
 10
1591.189801942157
 20
-1311.892319912481
 30
0.0000000000060347
 11
1590.389811249339
 21
-1307.892319912481
 31
0.0000000000060347
  0
LINE
  5
265EC
  8
01
 10
1590.389811249339
 20
-1307.892319912481
 30
0.0000000000060347
 11
1590.289810085941
 21
-1308.392319912481
 31
0.0000000000060347
  0
LINE
  5
265ED
  8
01
 10
1591.289803105555
 20
-1311.392319912481
 30
0.0000000000060347
 11
1591.189801942157
 21
-1311.892319912481
 31
0.0000000000060347
  0
LINE
  5
265EE
  8
01
 10
1591.989811249339
 20
-1307.892319912481
 30
0.0000000000060347
 11
1591.889810085941
 21
-1308.392319912481
 31
0.0000000000060347
  0
LINE
  5
265EF
  8
01
 10
1587.189811249335
 20
-1307.892319912481
 30
0.0000000000060347
 11
1587.089810085937
 21
-1308.392319912481
 31
0.0000000000060347
  0
LINE
  5
265F0
  8
01
 10
1588.789811249339
 20
-1307.892319912481
 30
0.0000000000060347
 11
1588.689810085941
 21
-1308.392319912481
 31
0.0000000000060347
  0
LINE
  5
265F1
  8
01
 10
1588.089803105555
 20
-1311.392319912481
 30
0.0000000000060347
 11
1587.989801942157
 21
-1311.892319912481
 31
0.0000000000060347
  0
LINE
  5
265F2
  8
01
 10
1587.989801942157
 20
-1311.892319912481
 30
0.0000000000060347
 11
1587.189811249335
 21
-1307.892319912481
 31
0.0000000000060347
  0
LINE
  5
265F3
  8
01
 10
1589.589801942157
 20
-1311.892319912481
 30
0.0000000000060347
 11
1588.789811249339
 21
-1307.892319912481
 31
0.0000000000060347
  0
LINE
  5
265F4
  8
01
 10
1592.789801942157
 20
-1311.892319912481
 30
0.0000000000060347
 11
1591.989811249339
 21
-1307.892319912481
 31
0.0000000000060347
  0
LINE
  5
265F5
  8
01
 10
1594.389801942162
 20
-1311.892319912481
 30
0.0000000000060347
 11
1593.589811249343
 21
-1307.892319912481
 31
0.0000000000060347
  0
LINE
  5
265F7
  8
1CENTER
 10
1615.03982937336
 20
-1339.218245819416
 30
0.0
 11
1615.03982937336
 21
-1319.341674806271
 31
0.0
  0
LINE
  5
265F8
  8
1HATCH
 10
1616.68982937336
 20
-1338.192365452982
 30
0.0
 11
1616.68982937336
 21
-1323.192365452982
 31
0.0
  0
LINE
  5
265F9
  8
1HATCH
 10
1613.38982937336
 20
-1338.192365452982
 30
0.0
 11
1613.38982937336
 21
-1323.192365452982
 31
0.0
  0
LINE
  5
265FA
  8
1HATCH
 10
1617.03982937336
 20
-1337.842365452982
 30
0.0
 11
1613.03982937336
 21
-1337.842365452982
 31
0.0
  0
LINE
  5
265FB
  8
01
 10
1617.03982937336
 20
-1323.192365452982
 30
0.0
 11
1613.03982937336
 21
-1323.192365452982
 31
0.0
  0
LINE
  5
265FD
  8
1CENTER
 10
1630.039829969406
 20
-1339.218245819416
 30
0.0
 11
1630.039829969406
 21
-1319.341674806271
 31
0.0
  0
LINE
  5
265FE
  8
1HATCH
 10
1631.689829969406
 20
-1338.192365452982
 30
0.0
 11
1631.689829969406
 21
-1323.192365452982
 31
0.0
  0
LINE
  5
265FF
  8
1HATCH
 10
1628.389829969406
 20
-1338.192365452982
 30
0.0
 11
1628.389829969406
 21
-1323.192365452982
 31
0.0
  0
LINE
  5
26600
  8
1HATCH
 10
1632.039829969406
 20
-1337.842365452982
 30
0.0
 11
1628.039829969406
 21
-1337.842365452982
 31
0.0
  0
LINE
  5
26601
  8
01
 10
1632.039829969406
 20
-1323.192365452982
 30
0.0
 11
1628.039829969406
 21
-1323.192365452982
 31
0.0
  0
LINE
  5
26603
  8
1CENTER
 10
1566.635310404893
 20
-1483.500000671484
 30
0.0
 11
1604.468443452268
 21
-1483.500000671484
 31
0.0
  0
LINE
  5
26604
  8
01
 10
1575.289803105554
 20
-1484.999954135586
 30
0.0
 11
1575.189801942157
 21
-1485.499954135586
 31
0.0
  0
LINE
  5
26605
  8
01
 10
1575.189801942157
 20
-1485.499954135586
 30
0.0
 11
1574.389811249335
 21
-1481.499954135586
 31
0.0
  0
LINE
  5
26606
  8
01
 10
1574.389811249335
 20
-1481.499954135586
 30
0.0
 11
1574.289810085937
 21
-1481.999954135586
 31
0.0
  0
LINE
  5
26607
  8
01
 10
1576.889803105554
 20
-1484.999954135586
 30
0.0
 11
1576.789801942157
 21
-1485.499954135586
 31
0.0
  0
LINE
  5
26608
  8
01
 10
1575.989811249334
 20
-1481.499954135586
 30
0.0
 11
1575.889810085937
 21
-1481.999954135586
 31
0.0
  0
LINE
  5
26609
  8
01
 10
1576.789801942157
 20
-1485.499954135586
 30
0.0
 11
1575.989811249334
 21
-1481.499954135586
 31
0.0
  0
LINE
  5
2660A
  8
01
 10
1578.489803105554
 20
-1484.999954135586
 30
0.0
 11
1578.389801942157
 21
-1485.499954135586
 31
0.0
  0
LINE
  5
2660B
  8
01
 10
1578.389801942157
 20
-1485.499954135586
 30
0.0
 11
1577.589811249335
 21
-1481.499954135586
 31
0.0
  0
LINE
  5
2660C
  8
01
 10
1577.589811249335
 20
-1481.499954135586
 30
0.0
 11
1577.489810085938
 21
-1481.999954135586
 31
0.0
  0
LINE
  5
2660D
  8
01
 10
1586.489803105554
 20
-1484.999954135586
 30
0.0
 11
1586.389801942157
 21
-1485.499954135586
 31
0.0
  0
LINE
  5
2660E
  8
01
 10
1585.589811249335
 20
-1481.499954135586
 30
0.0
 11
1585.489810085938
 21
-1481.999954135586
 31
0.0
  0
LINE
  5
2660F
  8
01
 10
1583.989811249334
 20
-1481.499954135586
 30
0.0
 11
1583.889810085937
 21
-1481.999954135586
 31
0.0
  0
LINE
  5
26610
  8
01
 10
1584.889803105554
 20
-1484.999954135586
 30
0.0
 11
1584.789801942157
 21
-1485.499954135586
 31
0.0
  0
LINE
  5
26611
  8
01
 10
1583.289803105554
 20
-1484.999954135586
 30
0.0
 11
1583.189801942157
 21
-1485.499954135586
 31
0.0
  0
LINE
  5
26612
  8
01
 10
1584.789801942157
 20
-1485.499954135586
 30
0.0
 11
1583.989811249334
 21
-1481.499954135586
 31
0.0
  0
LINE
  5
26613
  8
01
 10
1586.389801942157
 20
-1485.499954135586
 30
0.0
 11
1585.589811249335
 21
-1481.499954135586
 31
0.0
  0
LINE
  5
26614
  8
01
 10
1581.689803105554
 20
-1484.999954135586
 30
0.0
 11
1581.589801942157
 21
-1485.499954135586
 31
0.0
  0
LINE
  5
26615
  8
01
 10
1573.489803105554
 20
-1484.999954135586
 30
0.0
 11
1573.389801942157
 21
-1485.499954135586
 31
0.0
  0
LINE
  5
26616
  8
01
 10
1573.389801942157
 20
-1485.499954135586
 30
0.0
 11
1572.589810722532
 21
-1481.72636118779
 31
0.0
  0
LINE
  5
26617
  8
01
 10
1572.589810722532
 20
-1481.72636118779
 30
0.0
 11
1572.460540024902
 21
-1482.262954923061
 31
0.0
  0
LINE
  5
26618
  8
01
 10
1580.789811249335
 20
-1481.499954135586
 30
0.0
 11
1580.689810085938
 21
-1481.999954135586
 31
0.0
  0
LINE
  5
26619
  8
01
 10
1579.189811249335
 20
-1481.499954135586
 30
0.0
 11
1579.089810085937
 21
-1481.999954135586
 31
0.0
  0
LINE
  5
2661A
  8
01
 10
1580.089803105554
 20
-1484.999954135586
 30
0.0
 11
1579.989801942157
 21
-1485.499954135586
 31
0.0
  0
LINE
  5
2661B
  8
01
 10
1579.989801942157
 20
-1485.499954135586
 30
0.0
 11
1579.189811249335
 21
-1481.499954135586
 31
0.0
  0
LINE
  5
2661C
  8
01
 10
1581.589801942157
 20
-1485.499954135586
 30
0.0
 11
1580.789811249335
 21
-1481.499954135586
 31
0.0
  0
LINE
  5
2661D
  8
01
 10
1571.789802995767
 20
-1485.047137993527
 30
0.0
 11
1570.989809668926
 21
-1482.179175292196
 31
0.0
  0
LINE
  5
2661E
  8
01
 10
1570.189804049372
 20
-1484.594324485479
 30
0.0
 11
1569.389808615321
 21
-1482.631989396603
 31
0.0
  0
LINE
  5
2661F
  8
01
 10
1570.989809668926
 20
-1482.179175292196
 30
0.0
 11
1570.807045526298
 21
-1482.730924756
 31
0.0
  0
LINE
  5
26620
  8
01
 10
1570.341239845812
 20
-1484.137152644847
 30
0.0
 11
1570.189804049372
 21
-1484.594324485479
 31
0.0
  0
LINE
  5
26621
  8
01
 10
1569.389808615321
 20
-1482.631989396603
 30
0.0
 11
1569.078038759068
 21
-1483.220265971646
 31
0.0
  0
LINE
  5
26622
  8
01
 10
1571.902572508117
 20
-1484.579039538377
 30
0.0
 11
1571.789802995767
 21
-1485.047137993527
 31
0.0
  0
LINE
  5
26623
  8
01
 10
1582.389811249335
 20
-1481.499954135586
 30
0.0
 11
1582.289810085937
 21
-1481.999954135586
 31
0.0
  0
LINE
  5
26624
  8
01
 10
1583.189801942157
 20
-1485.499954135586
 30
0.0
 11
1582.389811249335
 21
-1481.499954135586
 31
0.0
  0
LINE
  5
26625
  8
01
 10
1600.089810085954
 20
-1481.999954135586
 30
0.0
 11
1599.989811249352
 21
-1481.499954135586
 31
0.0
  0
LINE
  5
26626
  8
01
 10
1599.189801942166
 20
-1485.499954135586
 30
0.0
 11
1598.389811249348
 21
-1481.499954135586
 31
0.0
  0
LINE
  5
26627
  8
01
 10
1595.989801942166
 20
-1485.499954135586
 30
0.0
 11
1595.189811249348
 21
-1481.499954135586
 31
0.0
  0
LINE
  5
26628
  8
01
 10
1595.189811249348
 20
-1481.499954135586
 30
0.0
 11
1595.08981008595
 21
-1481.999954135586
 31
0.0
  0
LINE
  5
26629
  8
01
 10
1598.389811249348
 20
-1481.499954135586
 30
0.0
 11
1598.28981008595
 21
-1481.999954135586
 31
0.0
  0
LINE
  5
2662A
  8
01
 10
1597.689803105564
 20
-1484.999954135586
 30
0.0
 11
1597.589801942166
 21
-1485.499954135586
 31
0.0
  0
LINE
  5
2662B
  8
01
 10
1596.789811249348
 20
-1481.499954135586
 30
0.0
 11
1596.68981008595
 21
-1481.999954135586
 31
0.0
  0
LINE
  5
2662C
  8
01
 10
1597.589801942166
 20
-1485.499954135586
 30
0.0
 11
1596.789811249348
 21
-1481.499954135586
 31
0.0
  0
LINE
  5
2662D
  8
01
 10
1596.089803105564
 20
-1484.999954135586
 30
0.0
 11
1595.989801942166
 21
-1485.499954135586
 31
0.0
  0
LINE
  5
2662E
  8
01
 10
1599.989811249352
 20
-1481.499954135586
 30
0.0
 11
1599.889810085954
 21
-1481.999954135586
 31
0.0
  0
LINE
  5
2662F
  8
01
 10
1599.289803105564
 20
-1484.999954135586
 30
0.0
 11
1599.189801942166
 21
-1485.499954135586
 31
0.0
  0
LINE
  5
26630
  8
01
 10
1602.789797288351
 20
-1487.500000671484
 30
0.0
 11
1602.78981590271
 21
-1479.500000671484
 31
0.0
  0
LINE
  5
26631
  8
01
 10
1594.489803105559
 20
-1484.999954135586
 30
0.0
 11
1594.389801942162
 21
-1485.499954135586
 31
0.0
  0
LINE
  5
26632
  8
01
 10
1592.889803105555
 20
-1484.999954135586
 30
0.0
 11
1592.789801942157
 21
-1485.499954135586
 31
0.0
  0
LINE
  5
26633
  8
01
 10
1593.589811249343
 20
-1481.499954135586
 30
0.0
 11
1593.489810085946
 21
-1481.999954135586
 31
0.0
  0
LINE
  5
26634
  8
01
 10
1589.689803105555
 20
-1484.999954135586
 30
0.0
 11
1589.589801942157
 21
-1485.499954135586
 31
0.0
  0
LINE
  5
26635
  8
01
 10
1591.189801942157
 20
-1485.499954135586
 30
0.0
 11
1590.389811249339
 21
-1481.499954135586
 31
0.0
  0
LINE
  5
26636
  8
01
 10
1590.389811249339
 20
-1481.499954135586
 30
0.0
 11
1590.289810085941
 21
-1481.999954135586
 31
0.0
  0
LINE
  5
26637
  8
01
 10
1591.289803105555
 20
-1484.999954135586
 30
0.0
 11
1591.189801942157
 21
-1485.499954135586
 31
0.0
  0
LINE
  5
26638
  8
01
 10
1591.989811249339
 20
-1481.499954135586
 30
0.0
 11
1591.889810085941
 21
-1481.999954135586
 31
0.0
  0
LINE
  5
26639
  8
01
 10
1587.189811249335
 20
-1481.499954135586
 30
0.0
 11
1587.089810085937
 21
-1481.999954135586
 31
0.0
  0
LINE
  5
2663A
  8
01
 10
1588.789811249339
 20
-1481.499954135586
 30
0.0
 11
1588.689810085941
 21
-1481.999954135586
 31
0.0
  0
LINE
  5
2663B
  8
01
 10
1588.089803105555
 20
-1484.999954135586
 30
0.0
 11
1587.989801942157
 21
-1485.499954135586
 31
0.0
  0
LINE
  5
2663C
  8
01
 10
1587.989801942157
 20
-1485.499954135586
 30
0.0
 11
1587.189811249335
 21
-1481.499954135586
 31
0.0
  0
LINE
  5
2663D
  8
01
 10
1589.589801942157
 20
-1485.499954135586
 30
0.0
 11
1588.789811249339
 21
-1481.499954135586
 31
0.0
  0
LINE
  5
2663E
  8
01
 10
1592.789801942157
 20
-1485.499954135586
 30
0.0
 11
1591.989811249339
 21
-1481.499954135586
 31
0.0
  0
LINE
  5
2663F
  8
01
 10
1594.389801942162
 20
-1485.499954135586
 30
0.0
 11
1593.589811249343
 21
-1481.499954135586
 31
0.0
  0
LINE
  5
26640
  8
01
 10
2998.999977191854
 20
-718.2821690644313
 30
0.0000000000060347
 11
2998.999977191854
 21
-745.1821341625551
 31
0.0000000000060347
  0
LINE
  5
26641
  8
01
 10
2998.999977191854
 20
-745.1821341625551
 30
0.0000000000060347
 11
2996.499930655956
 21
-747.6821632472272
 31
0.0000000000060347
  0
LINE
  5
26642
  8
01
 10
2996.499930655956
 20
-747.6821632472272
 30
0.0000000000060347
 11
2996.499930655956
 21
-747.9821632472283
 31
0.0000000000060347
  0
LINE
  5
26643
  8
01
 10
2996.499930655956
 20
-747.9821632472283
 30
0.0000000000060347
 11
3004.499930655956
 21
-747.9821818615874
 31
0.0000000000060347
  0
LINE
  5
26644
  8
01
 10
3004.499930655956
 20
-747.9821818615874
 30
0.0000000000060347
 11
3004.499930655956
 21
-747.6821818615863
 31
0.0000000000060347
  0
LINE
  5
26645
  8
01
 10
3004.499930655956
 20
-747.6821818615863
 30
0.0000000000060347
 11
3001.999977191854
 21
-745.1821993129204
 31
0.0000000000060347
  0
LINE
  5
26646
  8
01
 10
3001.999977191854
 20
-745.1821993129204
 30
0.0000000000060347
 11
3001.999977191854
 21
-718.2821760448156
 31
0.0000000000060347
  0
LINE
  5
26647
  8
01
 10
3001.999977191854
 20
-718.2821760448156
 30
0.0000000000060347
 11
3000.499977191854
 21
-712.9821725545703
 31
0.0000000000060347
  0
LINE
  5
26648
  8
01
 10
3000.499977191854
 20
-712.9821725545703
 30
0.0000000000060347
 11
2998.999977191854
 21
-718.2821690644313
 31
0.0000000000060347
  0
LINE
  5
26649
  8
01
 10
3038.999977191854
 20
-718.2821690644313
 30
0.0000000000060347
 11
3038.999977191854
 21
-745.1821341625551
 31
0.0000000000060347
  0
LINE
  5
2664A
  8
01
 10
3038.999977191854
 20
-745.1821341625551
 30
0.0000000000060347
 11
3036.499930655956
 21
-747.6821632472272
 31
0.0000000000060347
  0
LINE
  5
2664B
  8
01
 10
3036.499930655956
 20
-747.6821632472272
 30
0.0000000000060347
 11
3036.499930655956
 21
-747.9821632472283
 31
0.0000000000060347
  0
LINE
  5
2664C
  8
01
 10
3036.499930655956
 20
-747.9821632472283
 30
0.0000000000060347
 11
3044.499930655956
 21
-747.9821818615874
 31
0.0000000000060347
  0
LINE
  5
2664D
  8
01
 10
3044.499930655956
 20
-747.9821818615874
 30
0.0000000000060347
 11
3044.499930655956
 21
-747.6821818615863
 31
0.0000000000060347
  0
LINE
  5
2664E
  8
01
 10
3044.499930655956
 20
-747.6821818615863
 30
0.0000000000060347
 11
3041.999977191854
 21
-745.1821993129204
 31
0.0000000000060347
  0
LINE
  5
2664F
  8
01
 10
3041.999977191854
 20
-745.1821993129204
 30
0.0000000000060347
 11
3041.999977191854
 21
-718.2821760448156
 31
0.0000000000060347
  0
LINE
  5
26650
  8
01
 10
3041.999977191854
 20
-718.2821760448156
 30
0.0000000000060347
 11
3040.499977191854
 21
-712.9821725545703
 31
0.0000000000060347
  0
LINE
  5
26651
  8
01
 10
3040.499977191854
 20
-712.9821725545703
 30
0.0000000000060347
 11
3038.999977191854
 21
-718.2821690644313
 31
0.0000000000060347
  0
LINE
  5
26652
  8
01
 10
3013.799865335226
 20
-761.9321953322362
 30
0.0
 11
3028.449865335226
 21
-761.9321953322362
 31
0.0
  0
LINE
  5
26653
  8
01
 10
3028.449865335226
 20
-761.9321953322362
 30
0.0
 11
3028.799865335226
 21
-761.5821953322362
 31
0.0
  0
LINE
  5
26654
  8
01
 10
3028.799865335226
 20
-761.5821953322362
 30
0.0
 11
3028.799865335226
 21
-758.2821953322364
 31
0.0
  0
LINE
  5
26655
  8
01
 10
3028.799865335226
 20
-758.2821953322364
 30
0.0
 11
3028.449865335226
 21
-757.9321953322362
 31
0.0
  0
LINE
  5
26656
  8
01
 10
3028.449865335226
 20
-757.9321953322362
 30
0.0
 11
3013.799865335226
 21
-757.9321953322362
 31
0.0
  0
LINE
  5
26657
  8
01
 10
3013.799865335226
 20
-757.9321953322362
 30
0.0
 11
3013.799865335226
 21
-756.4321953322362
 31
0.0
  0
LINE
  5
26658
  8
01
 10
3013.799865335226
 20
-756.4321953322362
 30
0.0
 11
3013.199865335226
 21
-756.4321953322362
 31
0.0
  0
ARC
  5
26659
  8
01
 10
3013.199865335226
 20
-758.4321953322362
 30
0.0
 40
2.0
 50
90.0
 51
180.0
  0
LINE
  5
2665A
  8
01
 10
3011.199865335226
 20
-758.4321953322362
 30
0.0
 11
3011.199865335226
 21
-761.4321953322362
 31
0.0
  0
ARC
  5
2665B
  8
01
 10
3013.199865335226
 20
-761.4321953322362
 30
0.0
 40
2.0
 50
180.0
 51
270.0
  0
LINE
  5
2665C
  8
01
 10
3013.199865335226
 20
-763.4321953322362
 30
0.0
 11
3013.799865335226
 21
-763.4321953322362
 31
0.0
  0
LINE
  5
2665D
  8
01
 10
3013.799865335226
 20
-763.4321953322362
 30
0.0
 11
3013.799865335226
 21
-761.9321953322362
 31
0.0
  0
LINE
  5
2665E
  8
01
 10
3013.799865335226
 20
-776.9321959282827
 30
0.0
 11
3028.449865335226
 21
-776.9321959282827
 31
0.0
  0
LINE
  5
2665F
  8
01
 10
3028.449865335226
 20
-776.9321959282827
 30
0.0
 11
3028.799865335226
 21
-776.5821959282827
 31
0.0
  0
LINE
  5
26660
  8
01
 10
3028.799865335226
 20
-776.5821959282827
 30
0.0
 11
3028.799865335226
 21
-773.2821959282828
 31
0.0
  0
LINE
  5
26661
  8
01
 10
3028.799865335226
 20
-773.2821959282828
 30
0.0
 11
3028.449865335226
 21
-772.9321959282827
 31
0.0
  0
LINE
  5
26662
  8
01
 10
3028.449865335226
 20
-772.9321959282827
 30
0.0
 11
3013.799865335226
 21
-772.9321959282827
 31
0.0
  0
LINE
  5
26663
  8
01
 10
3013.799865335226
 20
-772.9321959282827
 30
0.0
 11
3013.799865335226
 21
-771.4321959282827
 31
0.0
  0
LINE
  5
26664
  8
01
 10
3013.799865335226
 20
-771.4321959282827
 30
0.0
 11
3013.199865335226
 21
-771.4321959282827
 31
0.0
  0
ARC
  5
26665
  8
01
 10
3013.199865335226
 20
-773.4321959282827
 30
0.0
 40
2.0
 50
90.0
 51
180.0
  0
LINE
  5
26666
  8
01
 10
3011.199865335226
 20
-773.4321959282827
 30
0.0
 11
3011.199865335226
 21
-776.4321959282827
 31
0.0
  0
ARC
  5
26667
  8
01
 10
3013.199865335226
 20
-776.4321959282827
 30
0.0
 40
2.0
 50
180.0
 51
270.0
  0
LINE
  5
26668
  8
01
 10
3013.199865335226
 20
-778.4321959282827
 30
0.0
 11
3013.799865335226
 21
-778.4321959282827
 31
0.0
  0
LINE
  5
26669
  8
01
 10
3013.799865335226
 20
-778.4321959282827
 30
0.0
 11
3013.799865335226
 21
-776.9321959282827
 31
0.0
  0
LINE
  5
2666A
  8
01
 10
3137.131881153765
 20
-718.2821690644314
 30
0.0
 11
3137.131881153765
 21
-745.1821341625553
 31
0.0
  0
LINE
  5
2666B
  8
01
 10
3137.131881153765
 20
-745.1821341625553
 30
0.0
 11
3134.631834617867
 21
-747.6821632472274
 31
0.0
  0
LINE
  5
2666C
  8
01
 10
3134.631834617867
 20
-747.6821632472274
 30
0.0
 11
3134.631834617867
 21
-747.9821632472283
 31
0.0
  0
LINE
  5
2666D
  8
01
 10
3134.631834617867
 20
-747.9821632472283
 30
0.0
 11
3142.631834617867
 21
-747.9821818615876
 31
0.0
  0
LINE
  5
2666E
  8
01
 10
3142.631834617867
 20
-747.9821818615876
 30
0.0
 11
3142.631834617867
 21
-747.6821818615865
 31
0.0
  0
LINE
  5
2666F
  8
01
 10
3142.631834617867
 20
-747.6821818615865
 30
0.0
 11
3140.131881153765
 21
-745.1821993129205
 31
0.0
  0
LINE
  5
26670
  8
01
 10
3140.131881153765
 20
-745.1821993129205
 30
0.0
 11
3140.131881153765
 21
-718.2821760448157
 31
0.0
  0
LINE
  5
26671
  8
01
 10
3140.131881153765
 20
-718.2821760448157
 30
0.0
 11
3138.631881153765
 21
-712.9821725545704
 31
0.0
  0
LINE
  5
26672
  8
01
 10
3138.631881153765
 20
-712.9821725545704
 30
0.0
 11
3137.131881153765
 21
-718.2821690644314
 31
0.0
  0
LINE
  5
26673
  8
01
 10
1573.389803105555
 20
-1351.392319912481
 30
0.0000000000060347
 11
1600.289768203679
 21
-1351.392319912481
 31
0.0000000000060347
  0
LINE
  5
26674
  8
01
 10
1600.289768203679
 20
-1351.392319912481
 30
0.0000000000060347
 11
1602.789797288351
 21
-1353.892366448379
 31
0.0000000000060347
  0
LINE
  5
26675
  8
01
 10
1602.789797288351
 20
-1353.892366448379
 30
0.0000000000060347
 11
1603.089797288352
 21
-1353.892366448379
 31
0.0000000000060347
  0
LINE
  5
26676
  8
01
 10
1603.089797288352
 20
-1353.892366448379
 30
0.0000000000060347
 11
1603.089815902711
 21
-1345.892366448379
 31
0.0000000000060347
  0
LINE
  5
26677
  8
01
 10
1603.089815902711
 20
-1345.892366448379
 30
0.0000000000060347
 11
1602.78981590271
 21
-1345.892366448379
 31
0.0000000000060347
  0
LINE
  5
26678
  8
01
 10
1602.78981590271
 20
-1345.892366448379
 30
0.0000000000060347
 11
1600.289833354044
 21
-1348.392319912481
 31
0.0000000000060347
  0
LINE
  5
26679
  8
01
 10
1600.289833354044
 20
-1348.392319912481
 30
0.0000000000060347
 11
1573.389810085939
 21
-1348.392319912481
 31
0.0000000000060347
  0
LINE
  5
2667A
  8
01
 10
1573.389810085939
 20
-1348.392319912481
 30
0.0000000000060347
 11
1568.089806595694
 21
-1349.892319912481
 31
0.0000000000060347
  0
LINE
  5
2667B
  8
01
 10
1568.089806595694
 20
-1349.892319912481
 30
0.0000000000060347
 11
1573.389803105555
 21
-1351.392319912481
 31
0.0000000000060347
  0
LINE
  5
2667C
  8
01
 10
1573.389803105555
 20
-1311.392319912481
 30
0.0000000000060347
 11
1600.289768203679
 21
-1311.392319912481
 31
0.0000000000060347
  0
LINE
  5
2667D
  8
01
 10
1600.289768203679
 20
-1311.392319912481
 30
0.0000000000060347
 11
1602.789797288351
 21
-1313.892366448379
 31
0.0000000000060347
  0
LINE
  5
2667E
  8
01
 10
1602.789797288351
 20
-1313.892366448379
 30
0.0000000000060347
 11
1603.089797288352
 21
-1313.892366448379
 31
0.0000000000060347
  0
LINE
  5
2667F
  8
01
 10
1603.089797288352
 20
-1313.892366448379
 30
0.0000000000060347
 11
1603.089815902711
 21
-1305.892366448379
 31
0.0000000000060347
  0
LINE
  5
26680
  8
01
 10
1603.089815902711
 20
-1305.892366448379
 30
0.0000000000060347
 11
1602.78981590271
 21
-1305.892366448379
 31
0.0000000000060347
  0
LINE
  5
26681
  8
01
 10
1602.78981590271
 20
-1305.892366448379
 30
0.0000000000060347
 11
1600.289833354044
 21
-1308.392319912481
 31
0.0000000000060347
  0
LINE
  5
26682
  8
01
 10
1600.289833354044
 20
-1308.392319912481
 30
0.0000000000060347
 11
1573.389810085939
 21
-1308.392319912481
 31
0.0000000000060347
  0
LINE
  5
26683
  8
01
 10
1573.389810085939
 20
-1308.392319912481
 30
0.0000000000060347
 11
1568.089806595694
 21
-1309.892319912481
 31
0.0000000000060347
  0
LINE
  5
26684
  8
01
 10
1568.089806595694
 20
-1309.892319912481
 30
0.0000000000060347
 11
1573.389803105555
 21
-1311.392319912481
 31
0.0000000000060347
  0
LINE
  5
26685
  8
01
 10
1617.03982937336
 20
-1337.842365452982
 30
0.0
 11
1617.03982937336
 21
-1323.192365452982
 31
0.0
  0
LINE
  5
26686
  8
01
 10
1617.03982937336
 20
-1323.192365452982
 30
0.0
 11
1618.53982937336
 21
-1323.192365452982
 31
0.0
  0
LINE
  5
26687
  8
01
 10
1618.53982937336
 20
-1323.192365452982
 30
0.0
 11
1618.53982937336
 21
-1322.592365452982
 31
0.0
  0
ARC
  5
26688
  8
01
 10
1616.53982937336
 20
-1322.592365452982
 30
0.0
 40
2.0
 50
0.0000000000065138
 51
90.00000000000651
  0
LINE
  5
26689
  8
01
 10
1616.53982937336
 20
-1320.592365452982
 30
0.0
 11
1613.53982937336
 21
-1320.592365452982
 31
0.0
  0
ARC
  5
2668A
  8
01
 10
1613.53982937336
 20
-1322.592365452982
 30
0.0
 40
2.0
 50
90.0
 51
180.0
  0
LINE
  5
2668B
  8
01
 10
1611.53982937336
 20
-1322.592365452982
 30
0.0
 11
1611.53982937336
 21
-1323.192365452982
 31
0.0
  0
LINE
  5
2668C
  8
01
 10
1611.53982937336
 20
-1323.192365452982
 30
0.0
 11
1613.03982937336
 21
-1323.192365452982
 31
0.0
  0
LINE
  5
2668D
  8
01
 10
1613.03982937336
 20
-1323.192365452982
 30
0.0
 11
1613.03982937336
 21
-1337.842365452982
 31
0.0
  0
LINE
  5
2668E
  8
01
 10
1613.03982937336
 20
-1337.842365452982
 30
0.0
 11
1613.38982937336
 21
-1338.192365452982
 31
0.0
  0
LINE
  5
2668F
  8
01
 10
1613.38982937336
 20
-1338.192365452982
 30
0.0
 11
1616.68982937336
 21
-1338.192365452982
 31
0.0
  0
LINE
  5
26690
  8
01
 10
1616.68982937336
 20
-1338.192365452982
 30
0.0
 11
1617.03982937336
 21
-1337.842365452982
 31
0.0
  0
LINE
  5
26691
  8
01
 10
1632.039829969406
 20
-1337.842365452982
 30
0.0
 11
1632.039829969406
 21
-1323.192365452982
 31
0.0
  0
LINE
  5
26692
  8
01
 10
1632.039829969406
 20
-1323.192365452982
 30
0.0
 11
1633.539829969406
 21
-1323.192365452982
 31
0.0
  0
LINE
  5
26693
  8
01
 10
1633.539829969406
 20
-1323.192365452982
 30
0.0
 11
1633.539829969406
 21
-1322.592365452982
 31
0.0
  0
ARC
  5
26694
  8
01
 10
1631.539829969406
 20
-1322.592365452982
 30
0.0
 40
2.0
 50
0.0000000000065138
 51
90.00000000000651
  0
LINE
  5
26695
  8
01
 10
1631.539829969406
 20
-1320.592365452982
 30
0.0
 11
1628.539829969406
 21
-1320.592365452982
 31
0.0
  0
ARC
  5
26696
  8
01
 10
1628.539829969406
 20
-1322.592365452982
 30
0.0
 40
2.0
 50
90.0
 51
180.0
  0
LINE
  5
26697
  8
01
 10
1626.539829969406
 20
-1322.592365452982
 30
0.0
 11
1626.539829969406
 21
-1323.192365452982
 31
0.0
  0
LINE
  5
26698
  8
01
 10
1626.539829969406
 20
-1323.192365452982
 30
0.0
 11
1628.039829969406
 21
-1323.192365452982
 31
0.0
  0
LINE
  5
26699
  8
01
 10
1628.039829969406
 20
-1323.192365452982
 30
0.0
 11
1628.039829969406
 21
-1337.842365452982
 31
0.0
  0
LINE
  5
2669A
  8
01
 10
1628.039829969406
 20
-1337.842365452982
 30
0.0
 11
1628.389829969406
 21
-1338.192365452982
 31
0.0
  0
LINE
  5
2669B
  8
01
 10
1628.389829969406
 20
-1338.192365452982
 30
0.0
 11
1631.689829969406
 21
-1338.192365452982
 31
0.0
  0
LINE
  5
2669C
  8
01
 10
1631.689829969406
 20
-1338.192365452982
 30
0.0
 11
1632.039829969406
 21
-1337.842365452982
 31
0.0
  0
LINE
  5
2669D
  8
01
 10
1573.389803105555
 20
-1484.999954135586
 30
0.0
 11
1600.289768203679
 21
-1484.999954135586
 31
0.0
  0
LINE
  5
2669E
  8
01
 10
1600.289768203679
 20
-1484.999954135586
 30
0.0
 11
1602.789797288351
 21
-1487.500000671484
 31
0.0
  0
LINE
  5
2669F
  8
01
 10
1602.789797288351
 20
-1487.500000671484
 30
0.0
 11
1603.089797288352
 21
-1487.500000671484
 31
0.0
  0
LINE
  5
266A0
  8
01
 10
1603.089797288352
 20
-1487.500000671484
 30
0.0
 11
1603.089815902711
 21
-1479.500000671484
 31
0.0
  0
LINE
  5
266A1
  8
01
 10
1603.089815902711
 20
-1479.500000671484
 30
0.0
 11
1602.78981590271
 21
-1479.500000671484
 31
0.0
  0
LINE
  5
266A2
  8
01
 10
1602.78981590271
 20
-1479.500000671484
 30
0.0
 11
1600.289833354044
 21
-1481.999954135586
 31
0.0
  0
LINE
  5
266A3
  8
01
 10
1600.289833354044
 20
-1481.999954135586
 30
0.0
 11
1573.389810085939
 21
-1481.999954135586
 31
0.0
  0
LINE
  5
266A4
  8
01
 10
1573.389810085939
 20
-1481.999954135586
 30
0.0
 11
1568.089806595694
 21
-1483.499954135586
 31
0.0
  0
LINE
  5
266A5
  8
01
 10
1568.089806595694
 20
-1483.499954135586
 30
0.0
 11
1573.389803105555
 21
-1484.999954135586
 31
0.0
  0
LINE
  5
266A7
  8
1DIM
  6
BYBLOCK
 10
2971.011026441189
 20
-1264.381641746148
 30
0.0
 11
2786.744359774522
 21
-1264.381641746148
 31
0.0
  0
LINE
  5
266A9
  8
1DIM
  6
BYBLOCK
 10
3007.259620359039
 20
-1306.880980850189
 30
0.0
 11
2971.011026441189
 21
-1264.381641746148
 31
0.0
  0
LINE
  5
266AB
  8
1DIM
  6
BYBLOCK
 10
2970.923586820013
 20
-1094.718381474525
 30
0.0
 11
2871.123586820012
 21
-1094.718381474525
 31
0.0
  0
LINE
  5
266AD
  8
1DIM
  6
BYBLOCK
 10
3018.276716890311
 20
-1149.314521048167
 30
0.0
 11
2970.923586820013
 21
-1094.718381474525
 31
0.0
  0
LINE
  5
266AF
  8
1DIM
  6
BYBLOCK
 10
2954.715486360774
 20
-1151.826911144517
 30
0.0
 11
2857.248819694107
 21
-1151.826911144517
 31
0.0
  0
LINE
  5
266B1
  8
1DIM
  6
BYBLOCK
 10
3002.068616431072
 20
-1206.423050718159
 30
0.0
 11
2954.715486360774
 21
-1151.826911144517
 31
0.0
  0
LINE
  5
266B3
  8
1DIM
  6
BYBLOCK
 10
2968.537285771792
 20
-788.1581709387827
 30
0.0
 11
2840.270619105126
 21
-788.1581709387827
 31
0.0
  0
LINE
  5
266B5
  8
1DIM
  6
BYBLOCK
 10
2994.880135995731
 20
-754.9435692667089
 30
0.0
 11
2968.537285771792
 21
-788.1581709387827
 31
0.0
  0
LINE
  5
266B7
  8
1DIM
  6
BYBLOCK
 10
2765.409587817803
 20
-1264.031641746148
 30
0.0
 11
2665.609587817803
 21
-1264.031641746148
 31
0.0
  0
LINE
  5
266B9
  8
1DIM
  6
BYBLOCK
 10
2819.696718947348
 20
-1325.628905164034
 30
0.0
 11
2765.409587817803
 21
-1264.031641746148
 31
0.0
  0
LINE
  5
266BB
  8
1DIM
  6
BYBLOCK
 10
2647.591175870356
 20
-1264.2132297987
 30
0.0
 11
2550.124509203689
 21
-1264.2132297987
 31
0.0
  0
LINE
  5
266BD
  8
1DIM
  6
BYBLOCK
 10
2688.904941849423
 20
-1310.899089574882
 30
0.0
 11
2647.591175870356
 21
-1264.2132297987
 31
0.0
  0
LINE
  5
266BE
  8
1DIM
 10
2937.062758231411
 20
-1344.392364200539
 30
0.0
 11
2933.062758231411
 21
-1344.392364200539
 31
0.0
1001
ACAD
1000
DSTYLE
1002
{
1070
    40
1040
4.0
1002
}
  0
LINE
  5
266BF
  8
1DIM
 10
2937.062758231411
 20
-1315.392365035004
 30
0.0
 11
2933.062758231411
 21
-1315.392365035004
 31
0.0
1001
ACAD
1000
DSTYLE
1002
{
1070
    40
1040
4.0
1002
}
  0
LINE
  5
266C0
  8
1DIM
 10
2937.062758231411
 20
-1344.392364200539
 30
0.0
 11
2937.062758231411
 21
-1389.692364617772
 31
0.0
1001
ACAD
1000
DSTYLE
1002
{
1070
    40
1040
4.0
1002
}
  0
LINE
  5
266C1
  8
1DIM
 10
2937.062758231411
 20
-1336.392364200539
 30
0.0
 11
2937.062758231411
 21
-1323.392365035004
 31
0.0
1001
ACAD
1000
DSTYLE
1002
{
1070
    40
1040
4.0
1002
}
  0
LINE
  5
266C5
  8
1DIM
 10
2989.499932527542
 20
-744.9321818615863
 30
0.0
 11
2989.499932527542
 21
-677.1180011728277
 31
0.0
1001
ACAD
1000
DSTYLE
1002
{
1070
    40
1040
4.0
1002
}
  0
LINE
  5
266C6
  8
1DIM
 10
3050.999945402145
 20
-744.9321818615863
 30
0.0
 11
3050.999945402145
 21
-677.1180011728277
 31
0.0
1001
ACAD
1000
DSTYLE
1002
{
1070
    40
1040
4.0
1002
}
  0
LINE
  5
266C7
  8
1DIM
 10
2997.499932527542
 20
-681.1180011728277
 30
0.0
 11
3042.999945402145
 21
-681.1180011728277
 31
0.0
1001
ACAD
1000
DSTYLE
1002
{
1070
    40
1040
4.0
1002
}
  0
LINE
  5
266CB
  8
1DIM1
 10
3000.499930655956
 20
-711.5276763637698
 30
0.0
 11
3000.499930655956
 21
-657.0276763637698
 31
0.0
1001
ACAD
1000
DSTYLE
1002
{
1070
    70
1070
     0
1070
    69
1070
     0
1070
   271
1070
     0
1070
    40
1040
10.0
1002
}
  0
LINE
  5
266CC
  8
1DIM1
 10
1600.03981590271
 20
-1148.892365590072
 30
0.0
 11
1600.03981590271
 21
-657.0276763637698
 31
0.0
1001
ACAD
1000
DSTYLE
1002
{
1070
    70
1070
     0
1070
    69
1070
     0
1070
   271
1070
     0
1070
    40
1040
10.0
1002
}
  0
LINE
  5
266CD
  8
1DIM1
 10
2980.499930655956
 20
-667.0276763637698
 30
0.0
 11
1620.03981590271
 21
-667.0276763637698
 31
0.0
1001
ACAD
1000
DSTYLE
1002
{
1070
    70
1070
     0
1070
    69
1070
     0
1070
   271
1070
     0
1070
    40
1040
10.0
1002
}
  0
LINE
  5
266D1
  8
1DIM1
 10
1600.03981590271
 20
-1148.892365590072
 30
0.0
 11
1600.03981590271
 21
-522.3400919875633
 31
0.0
1001
ACAD
1000
DSTYLE
1002
{
1070
   271
1070
     0
1070
    40
1040
10.0
1002
}
  0
LINE
  5
266D2
  8
1DIM1
 10
3050.999945402145
 20
-744.9321818615863
 30
0.0
 11
3050.999945402145
 21
-522.3400919875633
 31
0.0
1001
ACAD
1000
DSTYLE
1002
{
1070
   271
1070
     0
1070
    40
1040
10.0
1002
}
  0
LINE
  5
266D3
  8
1DIM1
 10
1620.03981590271
 20
-532.3400919875633
 30
0.0
 11
3030.999945402145
 21
-532.3400919875633
 31
0.0
1001
ACAD
1000
DSTYLE
1002
{
1070
   271
1070
     0
1070
    40
1040
10.0
1002
}
  0
LINE
  5
266D7
  8
1DIM
 10
3122.13183528935
 20
-744.9321818615863
 30
0.0
 11
3122.13183528935
 21
-692.9321818615863
 31
0.0
1001
ACAD
1000
DSTYLE
1002
{
1070
    40
1040
4.0
1002
}
  0
LINE
  5
266D8
  8
1DIM
 10
3155.131833946383
 20
-744.9321818615863
 30
0.0
 11
3155.131833946383
 21
-692.9321818615863
 31
0.0
1001
ACAD
1000
DSTYLE
1002
{
1070
    40
1040
4.0
1002
}
  0
LINE
  5
266D9
  8
1DIM
 10
3130.13183528935
 20
-696.9321818615863
 30
0.0
 11
3147.131833946383
 21
-696.9321818615863
 31
0.0
1001
ACAD
1000
DSTYLE
1002
{
1070
    40
1040
4.0
1002
}
  0
LINE
  5
266DD
  8
1DIM1
 10
2988.999946415424
 20
-744.9321818615863
 30
0.0
 11
1442.549913835526
 21
-744.9321818615862
 31
0.0
1001
ACAD
1000
DSTYLE
1002
{
1070
   271
1070
     0
1070
    40
1040
10.0
1002
}
  0
LINE
  5
266DE
  8
1DIM1
 10
1600.03981590271
 20
-1360.892364111132
 30
0.0
 11
1442.549913835526
 21
-1360.892364111132
 31
0.0
1001
ACAD
1000
DSTYLE
1002
{
1070
   271
1070
     0
1070
    40
1040
10.0
1002
}
  0
LINE
  5
266DF
  8
1DIM1
 10
1452.549913835526
 20
-764.9321818615862
 30
0.0
 11
1452.549913835526
 21
-1340.892364111132
 31
0.0
1001
ACAD
1000
DSTYLE
1002
{
1070
   271
1070
     0
1070
    40
1040
10.0
1002
}
  0
LINE
  5
266E3
  8
1DIM
 10
2964.649890470504
 20
-1476.499999591895
 30
0.0
 11
2960.649890470504
 21
-1476.499999591895
 31
0.0
1001
ACAD
1000
DSTYLE
1002
{
1070
    40
1040
4.0
1002
}
  0
LINE
  5
266E4
  8
1DIM
 10
2964.649890470504
 20
-1490.499999591895
 30
0.0
 11
2960.649890470504
 21
-1490.499999591895
 31
0.0
1001
ACAD
1000
DSTYLE
1002
{
1070
    40
1040
4.0
1002
}
  0
LINE
  5
266E5
  8
1DIM
 10
2964.649890470504
 20
-1476.499999591895
 30
0.0
 11
2964.649890470504
 21
-1433.566666258562
 31
0.0
1001
ACAD
1000
DSTYLE
1002
{
1070
    40
1040
4.0
1002
}
  0
LINE
  5
266E6
  8
1DIM
 10
2964.649890470504
 20
-1476.499999591895
 30
0.0
 11
2964.649890470504
 21
-1490.499999591895
 31
0.0
1001
ACAD
1000
DSTYLE
1002
{
1070
    40
1040
4.0
1002
}
  0
LINE
  5
266E7
  8
1DIM
 10
2964.649890470504
 20
-1468.499999591895
 30
0.0
 11
2964.649890470504
 21
-1460.499999591895
 31
0.0
1001
ACAD
1000
DSTYLE
1002
{
1070
    40
1040
4.0
1002
}
  0
LINE
  5
266E8
  8
1DIM
 10
2964.649890470504
 20
-1498.499999591895
 30
0.0
 11
2964.649890470504
 21
-1506.499999591895
 31
0.0
1001
ACAD
1000
DSTYLE
1002
{
1070
    40
1040
4.0
1002
}
  0
LINE
  5
266EC
  8
1DIM
 10
3000.499889040591
 20
-714.9026460125033
 30
0.0
 11
3000.499889040591
 21
-703.3403183258929
 31
0.0
1001
ACAD
1000
DSTYLE
1002
{
1070
    40
1040
4.0
1002
}
  0
LINE
  5
266ED
  8
1DIM
 10
3040.499889040591
 20
-714.9026460125033
 30
0.0
 11
3040.499889040591
 21
-703.3403183258929
 31
0.0
1001
ACAD
1000
DSTYLE
1002
{
1070
    40
1040
4.0
1002
}
  0
LINE
  5
266EE
  8
1DIM
 10
3008.499889040591
 20
-707.3403183258929
 30
0.0
 11
3032.499889040591
 21
-707.3403183258929
 31
0.0
1001
ACAD
1000
DSTYLE
1002
{
1070
    40
1040
4.0
1002
}
  0
LINE
  5
266F2
  8
1DIM
 10
3135.256833686544
 20
-1309.89226167459
 30
0.0
 11
3092.443882782644
 21
-1309.89226167459
 31
0.0
1001
ACAD
1000
DSTYLE
1002
{
1070
    40
1040
4.0
1002
}
  0
LINE
  5
266F3
  8
1DIM
 10
3135.256833686544
 20
-1349.89226167459
 30
0.0
 11
3092.443882782644
 21
-1349.89226167459
 31
0.0
1001
ACAD
1000
DSTYLE
1002
{
1070
    40
1040
4.0
1002
}
  0
LINE
  5
266F4
  8
1DIM
 10
3096.443882782644
 20
-1317.89226167459
 30
0.0
 11
3096.443882782644
 21
-1341.89226167459
 31
0.0
1001
ACAD
1000
DSTYLE
1002
{
1070
    40
1040
4.0
1002
}
  0
LINE
  5
266F8
  8
1DIM
 10
3135.256833686544
 20
-1309.89226167459
 30
0.0
 11
3092.443882782644
 21
-1309.89226167459
 31
0.0
1001
ACAD
1000
DSTYLE
1002
{
1070
    40
1040
4.0
1002
}
  0
LINE
  5
266F9
  8
1DIM
 10
3135.256833686544
 20
-1349.89226167459
 30
0.0
 11
3092.443882782644
 21
-1349.89226167459
 31
0.0
1001
ACAD
1000
DSTYLE
1002
{
1070
    40
1040
4.0
1002
}
  0
LINE
  5
266FA
  8
1DIM
 10
3096.443882782644
 20
-1317.89226167459
 30
0.0
 11
3096.443882782644
 21
-1341.89226167459
 31
0.0
1001
ACAD
1000
DSTYLE
1002
{
1070
    40
1040
4.0
1002
}
  0
LINE
  5
266FE
  8
1DIM1
 10
2988.999946415424
 20
-744.9321818615863
 30
0.0
 11
1529.549913835526
 21
-744.9321818615862
 31
0.0
1001
ACAD
1000
DSTYLE
1002
{
1070
   271
1070
     0
1070
    40
1040
10.0
1002
}
  0
LINE
  5
266FF
  8
1DIM1
 10
1566.635310404893
 20
-1309.892366448379
 30
0.0
 11
1529.549913835526
 21
-1309.892366448379
 31
0.0
1001
ACAD
1000
DSTYLE
1002
{
1070
   271
1070
     0
1070
    40
1040
10.0
1002
}
  0
LINE
  5
26700
  8
1DIM1
 10
1539.549913835526
 20
-764.9321818615862
 30
0.0
 11
1539.549913835526
 21
-1289.892366448379
 31
0.0
1001
ACAD
1000
DSTYLE
1002
{
1070
   271
1070
     0
1070
    40
1040
10.0
1002
}
  0
LINE
  5
26704
  8
1DIM
 10
3050.999945402145
 20
-744.9321818615863
 30
0.0
 11
3077.746069362704
 21
-744.9321818615863
 31
0.0
1001
ACAD
1000
DSTYLE
1002
{
1070
    40
1040
4.0
1002
}
  0
LINE
  5
26705
  8
1DIM
 10
3029.82574570166
 20
-759.9321953322362
 30
0.0
 11
3077.746069362704
 21
-759.9321953322362
 31
0.0
1001
ACAD
1000
DSTYLE
1002
{
1070
    40
1040
4.0
1002
}
  0
LINE
  5
26706
  8
1DIM
 10
3073.746069362704
 20
-744.9321818615863
 30
0.0
 11
3073.746069362704
 21
-702.665515194919
 31
0.0
1001
ACAD
1000
DSTYLE
1002
{
1070
    40
1040
4.0
1002
}
  0
LINE
  5
26707
  8
1DIM
 10
3073.746069362704
 20
-744.9321818615863
 30
0.0
 11
3073.746069362704
 21
-759.9321953322362
 31
0.0
1001
ACAD
1000
DSTYLE
1002
{
1070
    40
1040
4.0
1002
}
  0
LINE
  5
26708
  8
1DIM
 10
3073.746069362704
 20
-736.9321818615863
 30
0.0
 11
3073.746069362704
 21
-728.9321818615863
 31
0.0
1001
ACAD
1000
DSTYLE
1002
{
1070
    40
1040
4.0
1002
}
  0
LINE
  5
26709
  8
1DIM
 10
3073.746069362704
 20
-767.9321953322362
 30
0.0
 11
3073.746069362704
 21
-775.9321953322362
 31
0.0
1001
ACAD
1000
DSTYLE
1002
{
1070
    40
1040
4.0
1002
}
  0
LINE
  5
2670D
  8
1DIM
 10
3029.82574570166
 20
-759.9321953322362
 30
0.0
 11
3077.746069362704
 21
-759.9321953322362
 31
0.0
1001
ACAD
1000
DSTYLE
1002
{
1070
    40
1040
4.0
1002
}
  0
LINE
  5
2670E
  8
1DIM
 10
3029.82574570166
 20
-774.9321959282827
 30
0.0
 11
3077.746069362704
 21
-774.9321959282827
 31
0.0
1001
ACAD
1000
DSTYLE
1002
{
1070
    40
1040
4.0
1002
}
  0
LINE
  5
2670F
  8
1DIM
 10
3073.746069362704
 20
-782.9321959282827
 30
0.0
 11
3073.746069362704
 21
-832.532195928283
 31
0.0
1001
ACAD
1000
DSTYLE
1002
{
1070
    40
1040
4.0
1002
}
  0
LINE
  5
26710
  8
1DIM
 10
3073.746069362704
 20
-759.9321953322362
 30
0.0
 11
3073.746069362704
 21
-774.9321959282827
 31
0.0
1001
ACAD
1000
DSTYLE
1002
{
1070
    40
1040
4.0
1002
}
  0
LINE
  5
26711
  8
1DIM
 10
3073.746069362704
 20
-751.9321953322362
 30
0.0
 11
3073.746069362704
 21
-743.9321953322362
 31
0.0
1001
ACAD
1000
DSTYLE
1002
{
1070
    40
1040
4.0
1002
}
  0
LINE
  5
26715
  8
1DIM1
 10
3034.999946504831
 20
-1343.392365899271
 30
0.0
 11
3034.999946504831
 21
-1431.02767488483
 31
0.0
1001
ACAD
1000
DSTYLE
1002
{
1070
    70
1070
     0
1070
    69
1070
     0
1070
   271
1070
     0
1070
    40
1040
10.0
1002
}
  0
LINE
  5
26716
  8
1DIM1
 10
1600.03981590271
 20
-1360.892364111132
 30
0.0
 11
1600.03981590271
 21
-1431.02767488483
 31
0.0
1001
ACAD
1000
DSTYLE
1002
{
1070
    70
1070
     0
1070
    69
1070
     0
1070
   271
1070
     0
1070
    40
1040
10.0
1002
}
  0
LINE
  5
26717
  8
1DIM1
 10
3014.999946504831
 20
-1421.02767488483
 30
0.0
 11
1620.03981590271
 21
-1421.02767488483
 31
0.0
1001
ACAD
1000
DSTYLE
1002
{
1070
    70
1070
     0
1070
    69
1070
     0
1070
   271
1070
     0
1070
    40
1040
10.0
1002
}
  0
LINE
  5
2671B
  8
1DIM1
 10
3050.999945402145
 20
-744.9321818615863
 30
0.0
 11
3104.549913835526
 21
-744.9321818615863
 31
0.0
1001
ACAD
1000
DSTYLE
1002
{
1070
   271
1070
     0
1070
    40
1040
10.0
1002
}
  0
LINE
  5
2671C
  8
1DIM1
 10
3033.499947190285
 20
-1344.892365213818
 30
0.0
 11
3104.549913835526
 21
-1344.892365213818
 31
0.0
1001
ACAD
1000
DSTYLE
1002
{
1070
   271
1070
     0
1070
    40
1040
10.0
1002
}
  0
LINE
  5
2671D
  8
1DIM1
 10
3094.549913835526
 20
-764.9321818615863
 30
0.0
 11
3094.549913835526
 21
-1324.892365213818
 31
0.0
1001
ACAD
1000
DSTYLE
1002
{
1070
   271
1070
     0
1070
    40
1040
10.0
1002
}
  0
LINE
  5
26721
  8
1DIM1
 10
3020.499864459038
 20
-665.531514928239
 30
0.0
 11
3020.499864459038
 21
-586.1308479948915
 31
0.0
1001
ACAD
1000
DSTYLE
1002
{
1070
    70
1070
     0
1070
    69
1070
     0
1070
   271
1070
     0
1070
    40
1040
10.0
1002
}
  0
LINE
  5
26722
  8
1DIM1
 10
1600.03981590271
 20
-902.960020976921
 30
0.0
 11
1600.03981590271
 21
-586.1308479948915
 31
0.0
1001
ACAD
1000
DSTYLE
1002
{
1070
    70
1070
     0
1070
    69
1070
     0
1070
   271
1070
     0
1070
    40
1040
10.0
1002
}
  0
LINE
  5
26723
  8
1DIM1
 10
3000.499864459038
 20
-596.1308479948915
 30
0.0
 11
1620.03981590271
 21
-596.1308479948915
 31
0.0
1001
ACAD
1000
DSTYLE
1002
{
1070
    70
1070
     0
1070
    69
1070
     0
1070
   271
1070
     0
1070
    40
1040
10.0
1002
}
  0
LINE
  5
26728
  8
1DIM1
  6
BYBLOCK
 10
1544.336648637367
 20
-1433.464029440901
 30
0.0
 11
1458.086648637367
 21
-1433.464029440901
 31
0.0
  0
LINE
  5
2672A
  8
1DIM1
  6
BYBLOCK
 10
1585.156704894546
 20
-1405.697155108521
 30
0.0
 11
1544.336648637367
 21
-1433.464029440901
 31
0.0
  0
LINE
  5
2672C
  8
1DIM1
  6
BYBLOCK
 10
1584.173817211452
 20
-694.5316863066914
 30
0.0
 11
1462.223817211452
 21
-694.5316863066914
 31
0.0
  0
LINE
  5
2672E
  8
1DIM1
  6
BYBLOCK
 10
1639.403467354885
 20
-734.067968132509
 30
0.0
 11
1584.173817211452
 21
-694.5316863066914
 31
0.0
  0
TEXT
  5
2672F
  8
1DIM
  6
CONTINUOUS
 10
2785.811026441189
 20
-1261.581641746148
 30
0.0
 40
14.0
  1
材質：亜鉛ダイキャスト
  0
LINE
  5
26730
  8
0
  6
BYBLOCK
 10
3008.482821376607
 20
-1305.837686580196
 30
0.0
 11
3011.153247617225
 21
-1311.446029237042
 31
0.0
  0
LINE
  5
26731
  8
0
  6
BYBLOCK
 10
3011.153247617225
 20
-1311.446029237042
 30
0.0
 11
3006.036419341471
 21
-1307.924275120181
 31
0.0
  0
LINE
  5
26732
  8
0
  6
BYBLOCK
 10
3011.153247617225
 20
-1311.446029237042
 30
0.0
 11
3007.259620359039
 21
-1306.880980850189
 31
0.0
  0
TEXT
  5
26733
  8
1DIM
  6
CONTINUOUS
 10
2870.190253486679
 20
-1091.918381474525
 30
0.0
 40
14.0
  1
材質：アルミ
  0
LINE
  5
26734
  8
0
  6
BYBLOCK
 10
3019.491232876489
 20
-1148.261129106629
 30
0.0
 11
3022.208029172084
 21
-1153.847156456314
 31
0.0
  0
LINE
  5
26735
  8
0
  6
BYBLOCK
 10
3022.208029172084
 20
-1153.847156456314
 30
0.0
 11
3017.062200904133
 21
-1150.367912989705
 31
0.0
  0
LINE
  5
26736
  8
0
  6
BYBLOCK
 10
3022.208029172084
 20
-1153.847156456314
 30
0.0
 11
3018.276716890311
 21
-1149.314521048167
 31
0.0
  0
TEXT
  5
26737
  8
1DIM
  6
CONTINUOUS
 10
2856.315486360774
 20
-1149.026911144517
 30
0.0
 40
14.0
  1
材質：PVC
  0
LINE
  5
26738
  8
0
  6
BYBLOCK
 10
3003.283132417251
 20
-1205.369658776621
 30
0.0
 11
3005.999928712845
 21
-1210.955686126305
 31
0.0
  0
LINE
  5
26739
  8
0
  6
BYBLOCK
 10
3005.999928712845
 20
-1210.955686126305
 30
0.0
 11
3000.854100444894
 21
-1207.476442659697
 31
0.0
  0
LINE
  5
2673A
  8
0
  6
BYBLOCK
 10
3005.999928712845
 20
-1210.955686126305
 30
0.0
 11
3002.068616431072
 21
-1206.423050718159
 31
0.0
  0
TEXT
  5
2673B
  8
1DIM
  6
CONTINUOUS
 10
2839.337285771792
 20
-785.3581709387828
 30
0.0
 40
14.0
  1
材質：ABS樹脂
  0
LINE
  5
2673C
  8
0
  6
BYBLOCK
 10
2996.139757065715
 20
-755.9425879968786
 30
0.0
 11
2998.608524688265
 21
-750.242599392589
 31
0.0
210
0.0
220
0.0
230
-1.0
  0
LINE
  5
2673D
  8
0
  6
BYBLOCK
 10
2998.608524688265
 20
-750.242599392589
 30
0.0
 11
2993.620514925746
 21
-753.9445505365392
 31
0.0
210
0.0
220
0.0
230
-1.0
  0
LINE
  5
2673E
  8
0
  6
BYBLOCK
 10
2998.608524688265
 20
-750.242599392589
 30
0.0
 11
2994.880135995731
 21
-754.9435692667089
 31
0.0
210
0.0
220
0.0
230
-1.0
  0
TEXT
  5
2673F
  8
1DIM
  6
CONTINUOUS
 10
2664.676254484469
 20
-1261.231641746148
 30
0.0
 40
14.0
  1
材質：アルミ
  0
LINE
  5
26740
  8
0
  6
BYBLOCK
 10
2820.902845258885
 20
-1324.565917401265
 30
0.0
 11
2823.663843321818
 21
-1330.130229879879
 31
0.0
  0
LINE
  5
26741
  8
0
  6
BYBLOCK
 10
2823.663843321818
 20
-1330.130229879879
 30
0.0
 11
2818.49059263581
 21
-1326.691892926802
 31
0.0
  0
LINE
  5
26742
  8
0
  6
BYBLOCK
 10
2823.663843321818
 20
-1330.130229879879
 30
0.0
 11
2819.696718947348
 21
-1325.628905164034
 31
0.0
  0
TEXT
  5
26743
  8
1DIM
  6
CONTINUOUS
 10
2549.191175870355
 20
-1261.413229798701
 30
0.0
 40
14.0
  1
材質：PVC
  0
LINE
  5
26744
  8
0
  6
BYBLOCK
 10
2690.10891136941
 20
-1309.833659587448
 30
0.0
 11
2692.88118073051
 21
-1315.392365035004
 31
0.0
  0
LINE
  5
26745
  8
0
  6
BYBLOCK
 10
2692.88118073051
 20
-1315.392365035004
 30
0.0
 11
2687.700972329437
 21
-1311.964519562315
 31
0.0
  0
LINE
  5
26746
  8
0
  6
BYBLOCK
 10
2692.88118073051
 20
-1315.392365035004
 30
0.0
 11
2688.904941849423
 21
-1310.899089574882
 31
0.0
  0
LINE
  5
26747
  8
0
  6
BYBLOCK
 10
2939.206351751411
 20
-1336.392364200539
 30
0.0
 11
2937.062758231411
 21
-1344.392364200539
 31
0.0
  0
LINE
  5
26748
  8
0
  6
BYBLOCK
 10
2937.062758231411
 20
-1344.392364200539
 30
0.0
 11
2934.919164711411
 21
-1336.392364200539
 31
0.0
  0
LINE
  5
26749
  8
0
  6
BYBLOCK
 10
2937.062758231411
 20
-1344.392364200539
 30
0.0
 11
2937.062758231411
 21
-1336.392364200539
 31
0.0
  0
LINE
  5
2674A
  8
0
  6
BYBLOCK
 10
2934.919164711411
 20
-1323.392365035004
 30
0.0
 11
2937.062758231411
 21
-1315.392365035004
 31
0.0
  0
LINE
  5
2674B
  8
0
  6
BYBLOCK
 10
2937.062758231411
 20
-1315.392365035004
 30
0.0
 11
2939.206351751411
 21
-1323.392365035004
 31
0.0
  0
LINE
  5
2674C
  8
0
  6
BYBLOCK
 10
2937.062758231411
 20
-1315.392365035004
 30
0.0
 11
2937.062758231411
 21
-1323.392365035004
 31
0.0
  0
TEXT
  5
2674D
  8
1DIM
  6
CONTINUOUS
 10
2934.262758231411
 20
-1387.562272025179
 30
0.0
 40
14.0
  1
29
 50
90.0
1001
ACAD
1000
DSTYLE
1002
{
1070
    40
1040
4.0
1002
}
  0
LINE
  5
2674E
  8
0
  6
BYBLOCK
 10
2997.499932527542
 20
-683.2615946928277
 30
0.0
 11
2989.499932527542
 21
-681.1180011728277
 31
0.0
  0
LINE
  5
2674F
  8
0
  6
BYBLOCK
 10
2989.499932527542
 20
-681.1180011728277
 30
0.0
 11
2997.499932527542
 21
-678.9744076528277
 31
0.0
  0
LINE
  5
26750
  8
0
  6
BYBLOCK
 10
2989.499932527542
 20
-681.1180011728277
 30
0.0
 11
2997.499932527542
 21
-681.1180011728277
 31
0.0
  0
LINE
  5
26751
  8
0
  6
BYBLOCK
 10
3042.999945402145
 20
-678.9744076528277
 30
0.0
 11
3050.999945402145
 21
-681.1180011728277
 31
0.0
  0
LINE
  5
26752
  8
0
  6
BYBLOCK
 10
3050.999945402145
 20
-681.1180011728277
 30
0.0
 11
3042.999945402145
 21
-683.2615946928277
 31
0.0
  0
LINE
  5
26753
  8
0
  6
BYBLOCK
 10
3050.999945402145
 20
-681.1180011728277
 30
0.0
 11
3042.999945402145
 21
-681.1180011728277
 31
0.0
  0
TEXT
  5
26754
  8
1DIM
  6
CONTINUOUS
 10
3001.534661187066
 20
-678.3180011728277
 30
0.0
 40
14.0
  1
61.5
1001
ACAD
1000
DSTYLE
1002
{
1070
    40
1040
4.0
1002
}
  0
LINE
  5
26755
  8
0
  6
BYBLOCK
 10
2980.499930655956
 20
-661.6686925637698
 30
0.0
 11
3000.499930655956
 21
-667.0276763637698
 31
0.0
  0
LINE
  5
26756
  8
0
  6
BYBLOCK
 10
3000.499930655956
 20
-667.0276763637698
 30
0.0
 11
2980.499930655956
 21
-672.3866601637699
 31
0.0
  0
LINE
  5
26757
  8
0
  6
BYBLOCK
 10
3000.499930655956
 20
-667.0276763637698
 30
0.0
 11
2980.499930655956
 21
-667.0276763637698
 31
0.0
  0
LINE
  5
26758
  8
0
  6
BYBLOCK
 10
1620.03981590271
 20
-672.3866601637699
 30
0.0
 11
1600.03981590271
 21
-667.0276763637698
 31
0.0
  0
LINE
  5
26759
  8
0
  6
BYBLOCK
 10
1600.03981590271
 20
-667.0276763637698
 30
0.0
 11
1620.03981590271
 21
-661.6686925637698
 31
0.0
  0
LINE
  5
2675A
  8
0
  6
BYBLOCK
 10
1600.03981590271
 20
-667.0276763637698
 30
0.0
 11
1620.03981590271
 21
-667.0276763637698
 31
0.0
  0
TEXT
  5
2675B
  8
1DIM1
  6
CONTINUOUS
 10
2247.040706612667
 20
-660.0276763637698
 30
0.0
 40
35.0
  1
1400
1001
ACAD
1000
DSTYLE
1002
{
1070
    70
1070
     0
1070
    69
1070
     0
1070
   271
1070
     0
1070
    40
1040
10.0
1002
}
  0
LINE
  5
2675C
  8
0
  6
BYBLOCK
 10
1620.03981590271
 20
-537.6990757875633
 30
0.0
 11
1600.03981590271
 21
-532.3400919875633
 31
0.0
  0
LINE
  5
2675D
  8
0
  6
BYBLOCK
 10
1600.03981590271
 20
-532.3400919875633
 30
0.0
 11
1620.03981590271
 21
-526.9811081875632
 31
0.0
  0
LINE
  5
2675E
  8
0
  6
BYBLOCK
 10
1600.03981590271
 20
-532.3400919875633
 30
0.0
 11
1620.03981590271
 21
-532.3400919875633
 31
0.0
  0
LINE
  5
2675F
  8
0
  6
BYBLOCK
 10
3030.999945402145
 20
-526.9811081875632
 30
0.0
 11
3050.999945402145
 21
-532.3400919875633
 31
0.0
  0
LINE
  5
26760
  8
0
  6
BYBLOCK
 10
3050.999945402145
 20
-532.3400919875633
 30
0.0
 11
3030.999945402145
 21
-537.6990757875633
 31
0.0
  0
LINE
  5
26761
  8
0
  6
BYBLOCK
 10
3050.999945402145
 20
-532.3400919875633
 30
0.0
 11
3030.999945402145
 21
-532.3400919875633
 31
0.0
  0
TEXT
  5
26762
  8
1DIM1
  6
CONTINUOUS
 10
2242.87841392888
 20
-525.3400919875633
 30
0.0
 40
35.0
  1
1451
1001
ACAD
1000
DSTYLE
1002
{
1070
   271
1070
     0
1070
    40
1040
10.0
1002
}
  0
LINE
  5
26763
  8
0
  6
BYBLOCK
 10
3130.13183528935
 20
-699.0757753815863
 30
0.0
 11
3122.13183528935
 21
-696.9321818615863
 31
0.0
  0
LINE
  5
26764
  8
0
  6
BYBLOCK
 10
3122.13183528935
 20
-696.9321818615863
 30
0.0
 11
3130.13183528935
 21
-694.7885883415863
 31
0.0
  0
LINE
  5
26765
  8
0
  6
BYBLOCK
 10
3122.13183528935
 20
-696.9321818615863
 30
0.0
 11
3130.13183528935
 21
-696.9321818615863
 31
0.0
  0
LINE
  5
26766
  8
0
  6
BYBLOCK
 10
3147.131833946383
 20
-694.7885883415863
 30
0.0
 11
3155.131833946383
 21
-696.9321818615863
 31
0.0
  0
LINE
  5
26767
  8
0
  6
BYBLOCK
 10
3155.131833946383
 20
-696.9321818615863
 30
0.0
 11
3147.131833946383
 21
-699.0757753815863
 31
0.0
  0
LINE
  5
26768
  8
0
  6
BYBLOCK
 10
3155.131833946383
 20
-696.9321818615863
 30
0.0
 11
3147.131833946383
 21
-696.9321818615863
 31
0.0
  0
TEXT
  5
26769
  8
1DIM
  6
CONTINUOUS
 10
3126.9651679512
 20
-694.1321818615863
 30
0.0
 40
14.0
  1
33
1001
ACAD
1000
DSTYLE
1002
{
1070
    40
1040
4.0
1002
}
  0
LINE
  5
2676A
  8
0
  6
BYBLOCK
 10
1447.190930035526
 20
-764.9321818615862
 30
0.0
 11
1452.549913835526
 21
-744.9321818615862
 31
0.0
  0
LINE
  5
2676B
  8
0
  6
BYBLOCK
 10
1452.549913835526
 20
-744.9321818615862
 30
0.0
 11
1457.908897635526
 21
-764.9321818615862
 31
0.0
  0
LINE
  5
2676C
  8
0
  6
BYBLOCK
 10
1452.549913835526
 20
-744.9321818615862
 30
0.0
 11
1452.549913835526
 21
-764.9321818615862
 31
0.0
  0
LINE
  5
2676D
  8
0
  6
BYBLOCK
 10
1457.908897635526
 20
-1340.892364111132
 30
0.0
 11
1452.549913835526
 21
-1360.892364111132
 31
0.0
  0
LINE
  5
2676E
  8
0
  6
BYBLOCK
 10
1452.549913835526
 20
-1360.892364111132
 30
0.0
 11
1447.190930035526
 21
-1340.892364111132
 31
0.0
  0
LINE
  5
2676F
  8
0
  6
BYBLOCK
 10
1452.549913835526
 20
-1360.892364111132
 30
0.0
 11
1452.549913835526
 21
-1340.892364111132
 31
0.0
  0
TEXT
  5
26770
  8
1DIM1
  6
CONTINUOUS
 10
1445.549913835526
 20
-1093.86713409747
 30
0.0
 40
35.0
  1
616
 50
90.0
1001
ACAD
1000
DSTYLE
1002
{
1070
   271
1070
     0
1070
    40
1040
10.0
1002
}
  0
LINE
  5
26771
  8
0
  6
BYBLOCK
 10
2966.793483990505
 20
-1468.499999591895
 30
0.0
 11
2964.649890470504
 21
-1476.499999591895
 31
0.0
  0
LINE
  5
26772
  8
0
  6
BYBLOCK
 10
2964.649890470504
 20
-1476.499999591895
 30
0.0
 11
2962.506296950504
 21
-1468.499999591895
 31
0.0
  0
LINE
  5
26773
  8
0
  6
BYBLOCK
 10
2964.649890470504
 20
-1476.499999591895
 30
0.0
 11
2964.649890470504
 21
-1468.499999591895
 31
0.0
  0
LINE
  5
26774
  8
0
  6
BYBLOCK
 10
2962.506296950504
 20
-1498.499999591895
 30
0.0
 11
2964.649890470504
 21
-1490.499999591895
 31
0.0
  0
LINE
  5
26775
  8
0
  6
BYBLOCK
 10
2964.649890470504
 20
-1490.499999591895
 30
0.0
 11
2966.793483990505
 21
-1498.499999591895
 31
0.0
  0
LINE
  5
26776
  8
0
  6
BYBLOCK
 10
2964.649890470504
 20
-1490.499999591895
 30
0.0
 11
2964.649890470504
 21
-1498.499999591895
 31
0.0
  0
TEXT
  5
26777
  8
1DIM
  6
CONTINUOUS
 10
2961.849890470504
 20
-1456.366666258562
 30
0.0
 40
14.0
  1
14
 50
90.0
1001
ACAD
1000
DSTYLE
1002
{
1070
    40
1040
4.0
1002
}
  0
LINE
  5
26778
  8
0
  6
BYBLOCK
 10
3008.499889040591
 20
-709.4839118458929
 30
0.0
 11
3000.499889040591
 21
-707.3403183258929
 31
0.0
  0
LINE
  5
26779
  8
0
  6
BYBLOCK
 10
3000.499889040591
 20
-707.3403183258929
 30
0.0
 11
3008.499889040591
 21
-705.1967248058929
 31
0.0
  0
LINE
  5
2677A
  8
0
  6
BYBLOCK
 10
3000.499889040591
 20
-707.3403183258929
 30
0.0
 11
3008.499889040591
 21
-707.3403183258929
 31
0.0
  0
LINE
  5
2677B
  8
0
  6
BYBLOCK
 10
3032.499889040591
 20
-705.1967248058929
 30
0.0
 11
3040.499889040591
 21
-707.3403183258929
 31
0.0
  0
LINE
  5
2677C
  8
0
  6
BYBLOCK
 10
3040.499889040591
 20
-707.3403183258929
 30
0.0
 11
3032.499889040591
 21
-709.4839118458929
 31
0.0
  0
LINE
  5
2677D
  8
0
  6
BYBLOCK
 10
3040.499889040591
 20
-707.3403183258929
 30
0.0
 11
3032.499889040591
 21
-707.3403183258929
 31
0.0
  0
TEXT
  5
2677E
  8
1DIM
  6
CONTINUOUS
 10
3002.708222373924
 20
-704.5403183258929
 30
0.0
 40
14.0
  1
P40
1001
ACAD
1000
DSTYLE
1002
{
1070
    40
1040
4.0
1002
}
  0
LINE
  5
2677F
  8
0
  6
BYBLOCK
 10
3094.300289262644
 20
-1317.89226167459
 30
0.0
 11
3096.443882782644
 21
-1309.89226167459
 31
0.0
  0
LINE
  5
26780
  8
0
  6
BYBLOCK
 10
3096.443882782644
 20
-1309.89226167459
 30
0.0
 11
3098.587476302644
 21
-1317.89226167459
 31
0.0
  0
LINE
  5
26781
  8
0
  6
BYBLOCK
 10
3096.443882782644
 20
-1309.89226167459
 30
0.0
 11
3096.443882782644
 21
-1317.89226167459
 31
0.0
  0
LINE
  5
26782
  8
0
  6
BYBLOCK
 10
3098.587476302644
 20
-1341.89226167459
 30
0.0
 11
3096.443882782644
 21
-1349.89226167459
 31
0.0
  0
LINE
  5
26783
  8
0
  6
BYBLOCK
 10
3096.443882782644
 20
-1349.89226167459
 30
0.0
 11
3094.300289262644
 21
-1341.89226167459
 31
0.0
  0
LINE
  5
26784
  8
0
  6
BYBLOCK
 10
3096.443882782644
 20
-1349.89226167459
 30
0.0
 11
3096.443882782644
 21
-1341.89226167459
 31
0.0
  0
TEXT
  5
26785
  8
1DIM
  6
CONTINUOUS
 10
3093.643882782644
 20
-1347.683928341256
 30
0.0
 40
14.0
  1
P40
 50
90.0
1001
ACAD
1000
DSTYLE
1002
{
1070
    40
1040
4.0
1002
}
  0
LINE
  5
26786
  8
0
  6
BYBLOCK
 10
3094.300289262644
 20
-1317.89226167459
 30
0.0
 11
3096.443882782644
 21
-1309.89226167459
 31
0.0
  0
LINE
  5
26787
  8
0
  6
BYBLOCK
 10
3096.443882782644
 20
-1309.89226167459
 30
0.0
 11
3098.587476302644
 21
-1317.89226167459
 31
0.0
  0
LINE
  5
26788
  8
0
  6
BYBLOCK
 10
3096.443882782644
 20
-1309.89226167459
 30
0.0
 11
3096.443882782644
 21
-1317.89226167459
 31
0.0
  0
LINE
  5
26789
  8
0
  6
BYBLOCK
 10
3098.587476302644
 20
-1341.89226167459
 30
0.0
 11
3096.443882782644
 21
-1349.89226167459
 31
0.0
  0
LINE
  5
2678A
  8
0
  6
BYBLOCK
 10
3096.443882782644
 20
-1349.89226167459
 30
0.0
 11
3094.300289262644
 21
-1341.89226167459
 31
0.0
  0
LINE
  5
2678B
  8
0
  6
BYBLOCK
 10
3096.443882782644
 20
-1349.89226167459
 30
0.0
 11
3096.443882782644
 21
-1341.89226167459
 31
0.0
  0
TEXT
  5
2678C
  8
1DIM
  6
CONTINUOUS
 10
3093.643882782644
 20
-1347.683928341256
 30
0.0
 40
14.0
  1
P40
 50
90.0
1001
ACAD
1000
DSTYLE
1002
{
1070
    40
1040
4.0
1002
}
  0
LINE
  5
2678D
  8
0
  6
BYBLOCK
 10
1534.190930035526
 20
-764.9321818615862
 30
0.0
 11
1539.549913835526
 21
-744.9321818615862
 31
0.0
  0
LINE
  5
2678E
  8
0
  6
BYBLOCK
 10
1539.549913835526
 20
-744.9321818615862
 30
0.0
 11
1544.908897635526
 21
-764.9321818615862
 31
0.0
  0
LINE
  5
2678F
  8
0
  6
BYBLOCK
 10
1539.549913835526
 20
-744.9321818615862
 30
0.0
 11
1539.549913835526
 21
-764.9321818615862
 31
0.0
  0
LINE
  5
26790
  8
0
  6
BYBLOCK
 10
1544.908897635526
 20
-1289.892366448379
 30
0.0
 11
1539.549913835526
 21
-1309.892366448379
 31
0.0
  0
LINE
  5
26791
  8
0
  6
BYBLOCK
 10
1539.549913835526
 20
-1309.892366448379
 30
0.0
 11
1534.190930035526
 21
-1289.892366448379
 31
0.0
  0
LINE
  5
26792
  8
0
  6
BYBLOCK
 10
1539.549913835526
 20
-1309.892366448379
 30
0.0
 11
1539.549913835526
 21
-1289.892366448379
 31
0.0
  0
TEXT
  5
26793
  8
1DIM1
  6
CONTINUOUS
 10
1532.549913835526
 20
-1074.321996377205
 30
0.0
 40
35.0
  1
565
 50
90.0
1001
ACAD
1000
DSTYLE
1002
{
1070
   271
1070
     0
1070
    40
1040
10.0
1002
}
  0
LINE
  5
26794
  8
0
  6
BYBLOCK
 10
3075.889662882704
 20
-736.9321818615863
 30
0.0
 11
3073.746069362704
 21
-744.9321818615863
 31
0.0
  0
LINE
  5
26795
  8
0
  6
BYBLOCK
 10
3073.746069362704
 20
-744.9321818615863
 30
0.0
 11
3071.602475842703
 21
-736.9321818615863
 31
0.0
  0
LINE
  5
26796
  8
0
  6
BYBLOCK
 10
3073.746069362704
 20
-744.9321818615863
 30
0.0
 11
3073.746069362704
 21
-736.9321818615863
 31
0.0
  0
LINE
  5
26797
  8
0
  6
BYBLOCK
 10
3071.602475842703
 20
-767.9321953322362
 30
0.0
 11
3073.746069362704
 21
-759.9321953322362
 31
0.0
  0
LINE
  5
26798
  8
0
  6
BYBLOCK
 10
3073.746069362704
 20
-759.9321953322362
 30
0.0
 11
3075.889662882704
 21
-767.9321953322362
 31
0.0
  0
LINE
  5
26799
  8
0
  6
BYBLOCK
 10
3073.746069362704
 20
-759.9321953322362
 30
0.0
 11
3073.746069362704
 21
-767.9321953322362
 31
0.0
  0
TEXT
  5
2679A
  8
1DIM
  6
CONTINUOUS
 10
3070.946069362703
 20
-725.1321818615861
 30
0.0
 40
14.0
  1
15
 50
90.0
1001
ACAD
1000
DSTYLE
1002
{
1070
    40
1040
4.0
1002
}
  0
LINE
  5
2679B
  8
0
  6
BYBLOCK
 10
3075.889662882704
 20
-751.9321953322362
 30
0.0
 11
3073.746069362704
 21
-759.9321953322362
 31
0.0
  0
LINE
  5
2679C
  8
0
  6
BYBLOCK
 10
3073.746069362704
 20
-759.9321953322362
 30
0.0
 11
3071.602475842703
 21
-751.9321953322362
 31
0.0
  0
LINE
  5
2679D
  8
0
  6
BYBLOCK
 10
3073.746069362704
 20
-759.9321953322362
 30
0.0
 11
3073.746069362704
 21
-751.9321953322362
 31
0.0
  0
LINE
  5
2679E
  8
0
  6
BYBLOCK
 10
3071.602475842703
 20
-782.9321959282827
 30
0.0
 11
3073.746069362704
 21
-774.9321959282827
 31
0.0
  0
LINE
  5
2679F
  8
0
  6
BYBLOCK
 10
3073.746069362704
 20
-774.9321959282827
 30
0.0
 11
3075.889662882704
 21
-782.9321959282827
 31
0.0
  0
LINE
  5
267A0
  8
0
  6
BYBLOCK
 10
3073.746069362704
 20
-774.9321959282827
 30
0.0
 11
3073.746069362704
 21
-782.9321959282827
 31
0.0
  0
TEXT
  5
267A1
  8
1DIM
  6
CONTINUOUS
 10
3070.946069362703
 20
-828.0655292616161
 30
0.0
 40
14.0
  1
P15
 50
90.0
1001
ACAD
1000
DSTYLE
1002
{
1070
    40
1040
4.0
1002
}
  0
LINE
  5
267A2
  8
0
  6
BYBLOCK
 10
3014.999946504831
 20
-1415.66869108483
 30
0.0
 11
3034.999946504831
 21
-1421.02767488483
 31
0.0
  0
LINE
  5
267A3
  8
0
  6
BYBLOCK
 10
3034.999946504831
 20
-1421.02767488483
 30
0.0
 11
3014.999946504831
 21
-1426.38665868483
 31
0.0
  0
LINE
  5
267A4
  8
0
  6
BYBLOCK
 10
3034.999946504831
 20
-1421.02767488483
 30
0.0
 11
3014.999946504831
 21
-1421.02767488483
 31
0.0
  0
LINE
  5
267A5
  8
0
  6
BYBLOCK
 10
1620.03981590271
 20
-1426.38665868483
 30
0.0
 11
1600.03981590271
 21
-1421.02767488483
 31
0.0
  0
LINE
  5
267A6
  8
0
  6
BYBLOCK
 10
1600.03981590271
 20
-1421.02767488483
 30
0.0
 11
1620.03981590271
 21
-1415.66869108483
 31
0.0
  0
LINE
  5
267A7
  8
0
  6
BYBLOCK
 10
1600.03981590271
 20
-1421.02767488483
 30
0.0
 11
1620.03981590271
 21
-1421.02767488483
 31
0.0
  0
TEXT
  5
267A8
  8
1DIM1
  6
CONTINUOUS
 10
2259.186547870437
 20
-1414.027674884829
 30
0.0
 40
35.0
  1
1435
1001
ACAD
1000
DSTYLE
1002
{
1070
    70
1070
     0
1070
    69
1070
     0
1070
   271
1070
     0
1070
    40
1040
10.0
1002
}
  0
LINE
  5
267A9
  8
0
  6
BYBLOCK
 10
3089.190930035526
 20
-764.9321818615863
 30
0.0
 11
3094.549913835526
 21
-744.9321818615863
 31
0.0
  0
LINE
  5
267AA
  8
0
  6
BYBLOCK
 10
3094.549913835526
 20
-744.9321818615863
 30
0.0
 11
3099.908897635526
 21
-764.9321818615863
 31
0.0
  0
LINE
  5
267AB
  8
0
  6
BYBLOCK
 10
3094.549913835526
 20
-744.9321818615863
 30
0.0
 11
3094.549913835526
 21
-764.9321818615863
 31
0.0
  0
LINE
  5
267AC
  8
0
  6
BYBLOCK
 10
3099.908897635526
 20
-1324.892365213818
 30
0.0
 11
3094.549913835526
 21
-1344.892365213818
 31
0.0
  0
LINE
  5
267AD
  8
0
  6
BYBLOCK
 10
3094.549913835526
 20
-1344.892365213818
 30
0.0
 11
3089.190930035526
 21
-1324.892365213818
 31
0.0
  0
LINE
  5
267AE
  8
0
  6
BYBLOCK
 10
3094.549913835526
 20
-1344.892365213818
 30
0.0
 11
3094.549913835526
 21
-1324.892365213818
 31
0.0
  0
TEXT
  5
267AF
  8
1DIM1
  6
CONTINUOUS
 10
3087.549913835526
 20
-1086.596301315481
 30
0.0
 40
35.0
  1
600
 50
90.0
1001
ACAD
1000
DSTYLE
1002
{
1070
   271
1070
     0
1070
    40
1040
10.0
1002
}
  0
LINE
  5
267B0
  8
0
  6
BYBLOCK
 10
3000.499864459038
 20
-590.7718641948915
 30
0.0
 11
3020.499864459038
 21
-596.1308479948915
 31
0.0
  0
LINE
  5
267B1
  8
0
  6
BYBLOCK
 10
3020.499864459038
 20
-596.1308479948915
 30
0.0
 11
3000.499864459038
 21
-601.4898317948915
 31
0.0
  0
LINE
  5
267B2
  8
0
  6
BYBLOCK
 10
3020.499864459038
 20
-596.1308479948915
 30
0.0
 11
3000.499864459038
 21
-596.1308479948915
 31
0.0
  0
LINE
  5
267B3
  8
0
  6
BYBLOCK
 10
1620.03981590271
 20
-601.4898317948915
 30
0.0
 11
1600.03981590271
 21
-596.1308479948915
 31
0.0
  0
LINE
  5
267B4
  8
0
  6
BYBLOCK
 10
1600.03981590271
 20
-596.1308479948915
 30
0.0
 11
1620.03981590271
 21
-590.7718641948915
 31
0.0
  0
LINE
  5
267B5
  8
0
  6
BYBLOCK
 10
1600.03981590271
 20
-596.1308479948915
 30
0.0
 11
1620.03981590271
 21
-596.1308479948915
 31
0.0
  0
TEXT
  5
267B6
  8
1DIM1
  6
CONTINUOUS
 10
2244.124039946
 20
-589.1308479948915
 30
0.0
 40
35.0
  1
1420
1001
ACAD
1000
DSTYLE
1002
{
1070
    70
1070
     0
1070
    69
1070
     0
1070
   271
1070
     0
1070
    40
1040
10.0
1002
}
  0
TEXT
  5
267B7
  8
1DIM1
  6
CONTINUOUS
 10
1458.086648637367
 20
-1427.164029440901
 30
0.0
 40
31.5
  1
壁面
  0
LINE
  5
267B8
  8
0
  6
BYBLOCK
 10
1582.444018648733
 20
-1401.709237569203
 30
0.0
 11
1600.03981590271
 21
-1395.573272122302
 31
0.0
  0
LINE
  5
267B9
  8
0
  6
BYBLOCK
 10
1600.03981590271
 20
-1395.573272122302
 30
0.0
 11
1587.869391140358
 21
-1409.685072647839
 31
0.0
  0
LINE
  5
267BA
  8
0
  6
BYBLOCK
 10
1600.03981590271
 20
-1395.573272122302
 30
0.0
 11
1585.156704894546
 21
-1405.697155108521
 31
0.0
  0
TEXT
  5
267BB
  8
1DIM1
  6
CONTINUOUS
 10
1460.123817211452
 20
-688.2316863066915
 30
0.0
 40
31.5
  1
天井面
  0
LINE
  5
267BC
  8
0
  6
BYBLOCK
 10
1642.21089597753
 20
-730.1461703945615
 30
0.0
 11
1654.03981590271
 21
-744.5454344859063
 31
0.0
  0
LINE
  5
267BD
  8
0
  6
BYBLOCK
 10
1654.03981590271
 20
-744.5454344859063
 30
0.0
 11
1636.59603873224
 21
-737.9897658704565
 31
0.0
  0
LINE
  5
267BE
  8
0
  6
BYBLOCK
 10
1654.03981590271
 20
-744.5454344859063
 30
0.0
 11
1639.403467354885
 21
-734.067968132509
 31
0.0
  0
VIEWPORT
  5
57
 67
     1
  8
0
 10
0.0
 20
0.0
 30
0.0
 40
462.7993079584775
 41
296.9999999999999
 68
     1
 69
     1
1001
ACAD
1000
MVIEW
1002
{
1070
    16
1010
0.0
1020
0.0
1030
0.0
1010
0.0
1020
0.0
1030
1.0
1040
0.0
1040
296.9999999999999
1040
-4.171999999925333
1040
12.83903210976956
1040
50.0
1040
0.0
1040
0.0
1070
    16
1070
    20
1070
     0
1070
     1
1070
     0
1070
     0
1070
     0
1070
     0
1040
0.0
1040
0.0
1040
0.0
1040
10.0
1040
10.0
1040
10.0
1040
10.0
1070
     0
1002
{
1002
}
1002
}
  0
ENDSEC
  0
EOF
