  0
SECTION
  2
HEADER
  9
$ACADVER
  1
AC1009
  9
$DWGCODEPAGE
  3
ansi_932
  9
$INSBASE
 10
0.0
 20
0.0
 30
0.0
  9
$EXTMIN
 10
5.549968230724517
 20
-567.5812038912445
 30
0.0
  9
$EXTMAX
 10
3205.967227855249
 20
278.7944185784979
 30
0.0000000000060347
  9
$LIMMIN
 10
0.0
 20
0.0
  9
$LIMMAX
 10
420.0
 20
297.0
  9
$ORTHOMODE
 70
     0
  9
$REGENMODE
 70
     1
  9
$FILLMODE
 70
     1
  9
$QTEXTMODE
 70
     0
  9
$MIRRTEXT
 70
     0
  9
$DRAGMODE
 70
     2
  9
$LTSCALE
 40
0.5
  9
$OSMODE
 70
  2175
  9
$ATTMODE
 70
     1
  9
$TEXTSIZE
 40
4.0
  9
$TRACEWID
 40
1.0
  9
$TEXTSTYLE
  7
STANDARD
  9
$CLAYER
  8
1TEXT
  9
$CELTYPE
  6
BYLAYER
  9
$CECOLOR
 62
   256
  9
$DIMSCALE
 40
1.0
  9
$DIMASZ
 40
2.0
  9
$DIMEXO
 40
0.0
  9
$DIMDLI
 40
7.0
  9
$DIMRND
 40
0.0
  9
$DIMDLE
 40
0.0
  9
$DIMEXE
 40
1.0
  9
$DIMTP
 40
0.0
  9
$DIMTM
 40
0.0
  9
$DIMTXT
 40
3.5
  9
$DIMCEN
 40
0.0
  9
$DIMTSZ
 40
0.0
  9
$DIMTOL
 70
     0
  9
$DIMLIM
 70
     0
  9
$DIMTIH
 70
     0
  9
$DIMTOH
 70
     0
  9
$DIMSE1
 70
     0
  9
$DIMSE2
 70
     0
  9
$DIMTAD
 70
     1
  9
$DIMZIN
 70
     8
  9
$DIMBLK
  1

  9
$DIMASO
 70
     1
  9
$DIMSHO
 70
     1
  9
$DIMPOST
  1
 
  9
$DIMAPOST
  1

  9
$DIMALT
 70
     0
  9
$DIMALTD
 70
     2
  9
$DIMALTF
 40
25.4
  9
$DIMLFAC
 40
1.0
  9
$DIMTOFL
 70
     1
  9
$DIMTVP
 40
0.0
  9
$DIMTIX
 70
     0
  9
$DIMSOXD
 70
     0
  9
$DIMSAH
 70
     1
  9
$DIMBLK1
  1
OPEN30
  9
$DIMBLK2
  1
OPEN30
  9
$DIMSTYLE
  2
NEWX10
  9
$DIMCLRD
 70
     0
  9
$DIMCLRE
 70
     0
  9
$DIMCLRT
 70
   201
  9
$DIMTFAC
 40
0.7
  9
$DIMGAP
 40
0.7
  9
$LUNITS
 70
     2
  9
$LUPREC
 70
     4
  9
$SKETCHINC
 40
1.0
  9
$FILLETRAD
 40
0.0
  9
$AUNITS
 70
     0
  9
$AUPREC
 70
     2
  9
$MENU
  1
acad
  9
$ELEVATION
 40
0.0
  9
$PELEVATION
 40
0.0
  9
$THICKNESS
 40
0.0
  9
$LIMCHECK
 70
     0
  9
$CHAMFERA
 40
1.0
  9
$CHAMFERB
 40
1.0
  9
$SKPOLY
 70
     0
  9
$TDCREATE
 40
2453033.732663484
  9
$TDUPDATE
 40
2460586.379379329
  9
$TDINDWG
 40
5.7682377315
  9
$TDUSRTIMER
 40
5.7682377431
  9
$USRTIMER
 70
     1
  9
$ANGBASE
 50
0.0
  9
$ANGDIR
 70
     0
  9
$PDMODE
 70
     0
  9
$PDSIZE
 40
0.0
  9
$PLINEWID
 40
0.0
  9
$COORDS
 70
     2
  9
$SPLFRAME
 70
     0
  9
$SPLINETYPE
 70
     6
  9
$SPLINESEGS
 70
     8
  9
$ATTDIA
 70
     0
  9
$ATTREQ
 70
     1
  9
$HANDLING
 70
     1
  9
$HANDSEED
  5
26860
  9
$SURFTAB1
 70
     6
  9
$SURFTAB2
 70
     6
  9
$SURFTYPE
 70
     6
  9
$SURFU
 70
     6
  9
$SURFV
 70
     6
  9
$UCSNAME
  2

  9
$UCSORG
 10
0.0
 20
0.0
 30
0.0
  9
$UCSXDIR
 10
1.0
 20
0.0
 30
0.0
  9
$UCSYDIR
 10
0.0
 20
1.0
 30
0.0
  9
$PUCSNAME
  2

  9
$PUCSORG
 10
0.0
 20
0.0
 30
0.0
  9
$PUCSXDIR
 10
1.0
 20
0.0
 30
0.0
  9
$PUCSYDIR
 10
0.0
 20
1.0
 30
0.0
  9
$USERI1
 70
     0
  9
$USERI2
 70
     0
  9
$USERI3
 70
     0
  9
$USERI4
 70
     0
  9
$USERI5
 70
     0
  9
$USERR1
 40
0.0
  9
$USERR2
 40
0.0
  9
$USERR3
 40
0.0
  9
$USERR4
 40
0.0
  9
$USERR5
 40
0.0
  9
$WORLDVIEW
 70
     1
  9
$SHADEDGE
 70
     3
  9
$SHADEDIF
 70
    70
  9
$TILEMODE
 70
     1
  9
$MAXACTVP
 70
    48
  9
$PLIMCHECK
 70
     0
  9
$PEXTMIN
 10
1.000000000000000E+20
 20
1.000000000000000E+20
 30
1.000000000000000E+20
  9
$PEXTMAX
 10
-1.000000000000000E+20
 20
-1.000000000000000E+20
 30
-1.000000000000000E+20
  9
$PLIMMIN
 10
0.0
 20
0.0
  9
$PLIMMAX
 10
420.0
 20
297.0
  9
$UNITMODE
 70
     0
  9
$VISRETAIN
 70
     1
  9
$PLINEGEN
 70
     0
  9
$PSLTSCALE
 70
     1
  0
ENDSEC
  0
SECTION
  2
TABLES
  0
TABLE
  2
VPORT
 70
     1
  0
VPORT
  2
*ACTIVE
 70
     0
 10
0.0
 20
0.0
 11
1.0
 21
1.0
 12
1605.758598042987
 22
-144.3933926563733
 13
0.0
 23
0.0
 14
10.0
 24
10.0
 15
10.0
 25
10.0
 16
0.0
 26
0.0
 36
1.0
 17
0.0
 27
0.0
 37
0.0
 40
1874.901129062537
 41
1.83275663206459
 42
50.0
 43
0.0
 44
0.0
 50
0.0
 51
0.0
 71
    16
 72
    20
 73
     1
 74
     1
 75
     0
 76
     0
 77
     0
 78
     0
  0
ENDTAB
  0
TABLE
  2
LTYPE
 70
    19
  0
LTYPE
  2
CONTINUOUS
 70
     0
  3
Solid line
 72
    65
 73
     0
 40
0.0
  0
LTYPE
  2
CENTER2
 70
     0
  3
Center (.5x) ___ _ ___ _ ___ _ ___ _ ___ _ ___
 72
    65
 73
     4
 40
28.575
 49
19.05
 49
-3.175
 49
3.175
 49
-3.175
  0
LTYPE
  2
PHANTOM2
 70
     0
  3
Phantom (0.5x) ___ _ _ ___ _ _ ___ _ _ ___ _ _
 72
    65
 73
     6
 40
31.75
 49
15.875
 49
-3.175
 49
3.175
 49
-3.175
 49
3.175
 49
-3.175
  0
ENDTAB
  0
TABLE
  2
LAYER
 70
    45
  0
LAYER
  2
0
 70
     0
 62
     7
  6
CONTINUOUS
  0
LAYER
  2
1CENTER
 70
     0
 62
     7
  6
CENTER2
  0
LAYER
  2
1TEXT
 70
     0
 62
     7
  6
CONTINUOUS
  0
LAYER
  2
1DIM
 70
     0
 62
     7
  6
CONTINUOUS
  0
LAYER
  2
01
 70
     0
 62
     1
  6
CONTINUOUS
  0
LAYER
  2
1DIM1
 70
     0
 62
     7
  6
CONTINUOUS
  0
LAYER
  2
1HATCH
 70
     0
 62
     7
  6
CONTINUOUS
  0
ENDTAB
  0
TABLE
  2
STYLE
 70
    28
  0
STYLE
  2
STANDARD
 70
     0
 40
0.0
 41
1.0
 50
0.0
 71
     0
 42
4.0
  3
txt.shx
  4
extfont.shx
  0
ENDTAB
  0
TABLE
  2
VIEW
 70
     0
  0
ENDTAB
  0
TABLE
  2
UCS
 70
     5
  0
UCS
  2
U
 70
     0
 10
0.0
 20
0.0
 30
0.0
 11
1.0
 21
0.0
 31
0.0
 12
0.0
 22
6.123233995736766E-17
 32
1.0
  0
UCS
  2
L
 70
     0
 10
0.0
 20
0.0
 30
0.0
 11
-1.836970198721030E-16
 21
-1.0
 31
6.123233995736766E-17
 12
0.0
 22
6.123233995736766E-17
 32
1.0
  0
UCS
  2
R
 70
     0
 10
0.0
 20
0.0
 30
0.0
 11
3.061616997868383E-16
 21
1.0
 31
-6.123233995736766E-17
 12
0.0
 22
6.123233995736766E-17
 32
1.0
  0
UCS
  2
ISOME
 70
     0
 10
0.0
 20
0.0
 30
0.0
 11
0.7071450863198264
 21
-0.7070684729403536
 31
-3.830824619471818E-5
 12
0.4082704059428736
 22
0.408270407740115
 32
0.8164744636514737
  0
UCS
  2
PERSPECTIVE
 70
     0
 10
0.0
 20
0.0
 30
0.0
 11
0.8191477691768962
 21
-0.5735823260466401
 31
-0.0004974931557765738
 12
0.1584844715982971
 22
0.2255020289861079
 32
0.961265575782966
  0
ENDTAB
  0
TABLE
  2
APPID
 70
    31
  0
APPID
  2
ACAD
 70
     0
  0
APPID
  2
DRAWINGVARIABLESXDATA
 70
     0
  0
APPID
  2
CONTENTTABDATA
 70
     0
  0
APPID
  2
CONTENTCURRENTTAB
 70
     0
  0
APPID
  2
CONTENTBLOCKDESCRIPTION
 70
     0
  0
APPID
  2
CONTENTBLOCKICON
 70
     0
  0
APPID
  2
CONTENTLONGBLOCKNAME
 70
     0
  0
APPID
  2
ACAD_PSEXT
 70
     0
  0
APPID
  2
ACAD_DSTYLE_DIMTEXT_FILL
 70
     0
  0
APPID
  2
ACAD_MLEADERVER
 70
     0
  0
APPID
  2
ACAD_DSTYLE_DIMRADIAL_EXTE
 70
     0
  0
APPID
  2
ACADANNOTATIVE
 70
     0
  0
APPID
  2
ACAD_EXEMPT_FROM_CAD_STAND
 70
     0
  0
APPID
  2
ACDBBLOCKREPETAG
 70
     0
  0
APPID
  2
ACAD_OBJECT_CHANGE_GUID
 70
     0
  0
APPID
  2
ACAD_NAV_VCDISPLAY
 70
     0
  0
APPID
  2
ACLAYERTOOLS
 70
     0
  0
APPID
  2
ACDBDYNAMICBLOCKGUID
 70
     0
  0
APPID
  2
ACDBDYNAMICBLOCKTRUENAME
 70
     0
  0
APPID
  2
ACDBBLOCKREPBTAG
 70
     0
  0
APPID
  2
ACAUTHENVIRON
 70
     0
  0
APPID
  2
ACADANNOPO
 70
     0
  0
APPID
  2
ACAECLAYERSTANDARD
 70
     0
  0
APPID
  2
ACAD_DSTYLE_DIMJOGGED_JOGA
 70
     0
  0
APPID
  2
ACAD_DSTYLE_DIM_LINETYPE
 70
     0
  0
APPID
  2
ACAD_DSTYLE_DIM_EXT1_LINET
 70
     0
  0
APPID
  2
ACAD_DSTYLE_DIM_EXT2_LINET
 70
     0
  0
APPID
  2
ACAD_DIMASSOC_CALC_DIMLFAC
 70
     0
  0
APPID
  2
ACAD_DIMASSOC_DIMLFAC
 70
     0
  0
APPID
  2
ACAD_DIMASSOC_OVERRIDDEN_D
 70
     0
  0
APPID
  2
ACADANNOTATIVEDECOMPOSITIO
 70
     0
  0
ENDTAB
  0
TABLE
  2
DIMSTYLE
 70
    11
  0
DIMSTYLE
  2
NEWX10
 70
     0
  3
 
  4

  5

  6
OPEN30
  7
OPEN30
 40
1.0
 41
2.0
 42
0.0
 43
7.0
 44
1.0
 45
0.0
 46
0.0
 47
0.0
 48
0.0
140
3.5
141
0.0
142
0.0
143
25.4
144
1.0
145
0.0
146
0.7
147
0.7
 71
     0
 72
     0
 73
     0
 74
     0
 75
     0
 76
     0
 77
     1
 78
     8
170
     0
171
     2
172
     1
173
     1
174
     0
175
     0
176
     0
177
     0
178
   201
  0
DIMSTYLE
  2
ISO-25
 70
     0
  3

  4

  5

  6

  7

 40
1.0
 41
20.0
 42
3.0
 43
3.75
 44
2.0
 45
0.0
 46
0.0
 47
0.0
 48
0.0
140
30.0
141
5.0
142
0.0
143
0.03937
144
1.0
145
0.0
146
1.0
147
8.0
 71
     0
 72
     0
 73
     0
 74
     0
 75
     0
 76
     0
 77
     1
 78
     8
170
     0
171
     3
172
     1
173
     0
174
     0
175
     0
176
     1
177
     1
178
     1
  0
ENDTAB
  0
ENDSEC
  0
SECTION
  2
BLOCKS
  0
BLOCK
  8
0
  2
$MODEL_SPACE
 70
     0
 10
0.0
 20
0.0
 30
0.0
  3
$MODEL_SPACE
  1

  0
ENDBLK
  5
1A
  8
0
  0
BLOCK
 67
     1
  8
0
  2
$PAPER_SPACE
 70
     0
 10
0.0
 20
0.0
 30
0.0
  3
$PAPER_SPACE
  1

  0
ENDBLK
  5
17
 67
     1
  8
0
  0
BLOCK
  8
0
  2
_OPEN30
 70
     0
 10
0.0
 20
0.0
 30
0.0
  3
_OPEN30
  1

  0
LINE
  5
44
  8
0
  6
BYBLOCK
 62
     0
 10
-1.0
 20
0.26794919
 30
0.0
 11
0.0
 21
0.0
 31
0.0
  0
LINE
  5
45
  8
0
  6
BYBLOCK
 62
     0
 10
0.0
 20
0.0
 30
0.0
 11
-1.0
 21
-0.26794919
 31
0.0
  0
LINE
  5
46
  8
0
  6
BYBLOCK
 62
     0
 10
0.0
 20
0.0
 30
0.0
 11
-1.0
 21
0.0
 31
0.0
  0
ENDBLK
  5
47
  8
0
  0
BLOCK
  8
0
  2
A3WAKUKAWAJUN2017_HYOUDAI_
 70
     0
 10
0.0
 20
0.0
 30
0.0
  3
A3WAKUKAWAJUN2017_HYOUDAI_
  1

  0
LINE
  5
20318
  8
0
 10
13.26299999998673
 20
-0.0001000000000317
 30
0.0
 11
9.236999999990758
 21
8.999899999990987
 31
0.0
1001
ACAD
1000
ASC_BOUNDS
1002
{
1070
    19
1005
20359
1002
}
  0
LINE
  5
20319
  8
0
 10
5.657999999994331
 20
0.9999999999989768
 30
0.0
 11
9.236999999990758
 21
8.999999999991019
 31
0.0
1001
ACAD
1000
ASC_BOUNDS
1002
{
1070
    19
1005
20359
1002
}
  0
LINE
  5
2031A
  8
0
 10
18.59199999998134
 20
-0.2368999999997641
 30
0.0
 11
16.46099999998353
 21
5.432899999994561
 31
0.0
1001
ACAD
1000
ASC_BOUNDS
1002
{
1070
    19
1005
2035A
1002
}
  0
LINE
  5
2031B
  8
0
 10
18.59199999998134
 20
-0.2368999999997641
 30
0.0
 11
22.38199999997767
 21
8.763099999991255
 31
0.0
1001
ACAD
1000
ASC_BOUNDS
1002
{
1070
    19
1005
2035A
1002
}
  0
LINE
  5
2031C
  8
0
 10
14.32899999998563
 20
-0.2368999999997641
 30
0.0
 11
16.46099999998353
 21
5.432899999994561
 31
0.0
1001
ACAD
1000
ASC_BOUNDS
1002
{
1070
    19
1005
2035A
1002
}
  0
LINE
  5
2031D
  8
0
 10
14.32899999998563
 20
-0.2368999999997641
 30
0.0
 11
10.53899999998941
 21
8.763099999991255
 31
0.0
1001
ACAD
1000
ASC_BOUNDS
1002
{
1070
    19
1005
2035A
1002
}
  0
LINE
  5
2031E
  8
0
 10
19.53899999998043
 20
-0.0001000000000317
 30
0.0
 11
23.56599999997638
 21
8.999899999990987
 31
0.0
1001
ACAD
1000
ASC_BOUNDS
1002
{
1070
    19
1005
2035B
1002
}
  0
LINE
  5
2031F
  8
0
 10
26.97358892824991
 20
1.383099999991202
 30
0.0
 11
23.56599999997638
 21
8.999899999990987
 31
0.0
1001
ACAD
1000
ASC_BOUNDS
1002
{
1070
    19
1005
2035B
1002
}
  0
LINE
  5
20320
  8
0
 10
5.657999999994331
 20
0.9999999999989768
 30
0.0
 11
3.181999999996833
 21
4.668599999995308
 31
0.0
1001
ACAD
1000
ASC_BOUNDS
1002
{
1070
    19
1005
20359
1002
}
  0
LINE
  5
20321
  8
0
 10
4.617999999995391
 20
-0.0001000000000317
 30
0.0
 11
1.420999999998571
 21
4.736799999995242
 31
0.0
1001
ACAD
1000
ASC_BOUNDS
1002
{
1070
    19
1005
20359
1002
}
  0
LINE
  5
20322
  8
0
 10
1.420999999998571
 20
8.763099999991255
 30
0.0
 11
1.420999999998571
 21
0.0
 31
0.0
1001
ACAD
1000
ASC_BOUNDS
1002
{
1070
    19
1005
2035E
1002
}
  0
LINE
  5
20323
  8
0
 10
0.0
 20
8.763099999991255
 30
0.0
 11
0.0
 21
0.0
 31
0.0
1001
ACAD
1000
ASC_BOUNDS
1002
{
1070
    19
1005
2035E
1002
}
  0
LINE
  5
20324
  8
0
 10
6.766999999993232
 20
-0.0001000000000317
 30
0.0
 11
7.826999999992154
 21
2.368399999997621
 31
0.0
1001
ACAD
1000
ASC_BOUNDS
1002
{
1070
    19
1005
20359
1002
}
  0
LINE
  5
20325
  8
0
 10
0.0
 20
0.0
 30
0.0
 11
1.420999999998571
 21
0.0
 31
0.0
1001
ACAD
1000
ASC_BOUNDS
1002
{
1070
    19
1005
2035E
1002
}
  0
LINE
  5
20326
  8
0
 10
4.617999999995391
 20
0.0
 30
0.0
 11
6.766999999993232
 21
0.0
 31
0.0
1001
ACAD
1000
ASC_BOUNDS
1002
{
1070
    19
1005
20359
1002
}
  0
LINE
  5
20327
  8
0
 10
11.70599999998831
 20
-0.0001000000000317
 30
0.0
 11
10.64699999998936
 21
2.368399999997621
 31
0.0
1001
ACAD
1000
ASC_BOUNDS
1002
{
1070
    19
1005
20359
1002
}
  0
LINE
  5
20328
  8
0
 10
7.826999999992154
 20
2.368399999997621
 30
0.0
 11
10.64699999998936
 21
2.368399999997621
 31
0.0
1001
ACAD
1000
ASC_BOUNDS
1002
{
1070
    19
1005
20359
1002
}
  0
LINE
  5
20329
  8
0
 10
11.70599999998831
 20
0.0
 30
0.0
 11
13.26299999998673
 21
0.0
 31
0.0
1001
ACAD
1000
ASC_BOUNDS
1002
{
1070
    19
1005
20359
1002
}
  0
LINE
  5
2032A
  8
0
 10
22.15599999997789
 20
2.368399999997621
 30
0.0
 11
24.97599999997499
 21
2.368399999997621
 31
0.0
1001
ACAD
1000
ASC_BOUNDS
1002
{
1070
    19
1005
2035B
1002
}
  0
LINE
  5
2032B
  8
0
 10
19.53899999998043
 20
0.0
 30
0.0
 11
21.09599999997886
 21
0.0
 31
0.0
1001
ACAD
1000
ASC_BOUNDS
1002
{
1070
    19
1005
2035B
1002
}
  0
LINE
  5
2032C
  8
0
 10
21.09599999997886
 20
-0.0001000000000317
 30
0.0
 11
22.15599999997789
 21
2.368399999997621
 31
0.0
1001
ACAD
1000
ASC_BOUNDS
1002
{
1070
    19
1005
2035B
1002
}
  0
LINE
  5
2032D
  8
0
 10
26.02015566812236
 20
0.0330999999912365
 30
0.0
 11
24.97599999997499
 21
2.368399999997621
 31
0.0
1001
ACAD
1000
ASC_BOUNDS
1002
{
1070
    19
1005
2035B
1002
}
  0
LINE
  5
2032E
  8
0
 10
14.32399999998563
 20
3.315799999996671
 30
0.0
 11
16.46099999998353
 21
8.999899999990987
 31
0.0
1001
ACAD
1000
ASC_BOUNDS
1002
{
1070
    19
1005
2035A
1002
}
  0
LINE
  5
2032F
  8
0
 10
6.432999999993513
 20
8.763099999991255
 30
0.0
 11
3.181999999996833
 21
4.668599999995308
 31
0.0
1001
ACAD
1000
ASC_BOUNDS
1002
{
1070
    19
1005
20359
1002
}
  0
LINE
  5
20330
  8
0
 10
4.617999999995391
 20
8.763099999991255
 30
0.0
 11
1.420999999998571
 21
4.736799999995242
 31
0.0
1001
ACAD
1000
ASC_BOUNDS
1002
{
1070
    19
1005
20359
1002
}
  0
LINE
  5
20331
  8
0
 10
0.0
 20
8.763099999991255
 30
0.0
 11
1.420999999998571
 21
8.763099999991255
 31
0.0
1001
ACAD
1000
ASC_BOUNDS
1002
{
1070
    19
1005
2035E
1002
}
  0
LINE
  5
20332
  8
0
 10
4.617999999995391
 20
8.763099999991255
 30
0.0
 11
6.432999999993513
 21
8.763099999991255
 31
0.0
1001
ACAD
1000
ASC_BOUNDS
1002
{
1070
    19
1005
20359
1002
}
  0
LINE
  5
20333
  8
0
 10
14.32399999998563
 20
3.315799999996671
 30
0.0
 11
12.02999999998792
 21
8.763099999991255
 31
0.0
1001
ACAD
1000
ASC_BOUNDS
1002
{
1070
    19
1005
2035A
1002
}
  0
LINE
  5
20334
  8
0
 10
10.06399999998996
 20
3.670999999996297
 30
0.0
 11
9.236999999990758
 21
5.5200999999945
 31
0.0
1001
ACAD
1000
ASC_BOUNDS
1002
{
1070
    19
1005
20359
1002
}
  0
LINE
  5
20335
  8
0
 10
8.409999999991555
 20
3.670999999996297
 30
0.0
 11
9.236999999990758
 21
5.5200999999945
 31
0.0
1001
ACAD
1000
ASC_BOUNDS
1002
{
1070
    19
1005
20359
1002
}
  0
LINE
  5
20336
  8
0
 10
8.409999999991555
 20
3.670999999996297
 30
0.0
 11
10.06399999998996
 21
3.670999999996297
 31
0.0
1001
ACAD
1000
ASC_BOUNDS
1002
{
1070
    19
1005
20359
1002
}
  0
LINE
  5
20337
  8
0
 10
10.53899999998941
 20
8.763099999991255
 30
0.0
 11
12.02999999998792
 21
8.763099999991255
 31
0.0
1001
ACAD
1000
ASC_BOUNDS
1002
{
1070
    19
1005
2035A
1002
}
  0
LINE
  5
20338
  8
0
 10
22.7389999999773
 20
3.670999999996297
 30
0.0
 11
23.56599999997638
 21
5.5200999999945
 31
0.0
1001
ACAD
1000
ASC_BOUNDS
1002
{
1070
    19
1005
2035B
1002
}
  0
LINE
  5
20339
  8
0
 10
22.7389999999773
 20
3.670999999996297
 30
0.0
 11
24.39299999997559
 21
3.670999999996297
 31
0.0
1001
ACAD
1000
ASC_BOUNDS
1002
{
1070
    19
1005
2035B
1002
}
  0
LINE
  5
2033A
  8
0
 10
18.59799999998143
 20
3.315799999996671
 30
0.0
 11
20.89099999997916
 21
8.763099999991255
 31
0.0
1001
ACAD
1000
ASC_BOUNDS
1002
{
1070
    19
1005
2035A
1002
}
  0
LINE
  5
2033B
  8
0
 10
18.59799999998143
 20
3.315799999996671
 30
0.0
 11
16.46099999998353
 21
8.999899999990987
 31
0.0
1001
ACAD
1000
ASC_BOUNDS
1002
{
1070
    19
1005
2035A
1002
}
  0
LINE
  5
2033C
  8
0
 10
20.89099999997916
 20
8.763099999991255
 30
0.0
 11
22.38199999997767
 21
8.763099999991255
 31
0.0
1001
ACAD
1000
ASC_BOUNDS
1002
{
1070
    19
1005
2035A
1002
}
  0
LINE
  5
2033D
  8
0
 10
24.39299999997559
 20
3.670999999996297
 30
0.0
 11
23.56599999997638
 21
5.5200999999945
 31
0.0
1001
ACAD
1000
ASC_BOUNDS
1002
{
1070
    19
1005
2035B
1002
}
  0
LINE
  5
2033E
  8
0
 10
44.99999999995498
 20
-0.2368999999997641
 30
0.0
 11
40.02599999995994
 21
5.341799999994635
 31
0.0
1001
ACAD
1000
ASC_BOUNDS
1002
{
1070
    19
1005
2035D
1002
}
  0
LINE
  5
2033F
  8
0
 10
40.02599999995994
 20
5.341799999994635
 30
0.0
 11
40.02599999995994
 21
0.0
 31
0.0
1001
ACAD
1000
ASC_BOUNDS
1002
{
1070
    19
1005
2035D
1002
}
  0
LINE
  5
20340
  8
0
 10
38.60499999996136
 20
8.999999999991019
 30
0.0
 11
38.60499999996136
 21
0.0
 31
0.0
1001
ACAD
1000
ASC_BOUNDS
1002
{
1070
    19
1005
2035D
1002
}
  0
LINE
  5
20341
  8
0
 10
44.99999999995498
 20
8.763099999991255
 30
0.0
 11
44.99999999995498
 21
-0.2368999999997641
 31
0.0
1001
ACAD
1000
ASC_BOUNDS
1002
{
1070
    19
1005
2035D
1002
}
  0
LINE
  5
20342
  8
0
 10
38.60499999996136
 20
0.0
 30
0.0
 11
40.02599999995994
 21
0.0
 31
0.0
1001
ACAD
1000
ASC_BOUNDS
1002
{
1070
    19
1005
2035D
1002
}
  0
LINE
  5
20343
  8
0
 10
43.57899999995641
 20
3.421199999996588
 30
0.0
 11
38.60499999996136
 21
8.999899999990987
 31
0.0
1001
ACAD
1000
ASC_BOUNDS
1002
{
1070
    19
1005
2035D
1002
}
  0
LINE
  5
20344
  8
0
 10
43.57899999995641
 20
8.763099999991255
 30
0.0
 11
43.57899999995641
 21
3.421199999996588
 31
0.0
1001
ACAD
1000
ASC_BOUNDS
1002
{
1070
    19
1005
2035D
1002
}
  0
LINE
  5
20345
  8
0
 10
43.57899999995641
 20
8.763099999991255
 30
0.0
 11
44.99999999995498
 21
8.763099999991255
 31
0.0
1001
ACAD
1000
ASC_BOUNDS
1002
{
1070
    19
1005
2035D
1002
}
  0
LINE
  5
20346
  8
0
 10
37.67199999996831
 20
8.763099999991255
 30
0.0
 11
36.23199999996837
 21
8.763099999991255
 31
0.0
  0
LINE
  5
20347
  8
0
 10
31.64199999996833
 20
8.763099999991255
 30
0.0
 11
31.64199999996833
 21
2.481619422925121
 31
0.0
  0
LINE
  5
20348
  8
0
 10
37.67199999996831
 20
8.763099999991255
 30
0.0
 11
37.67199999996831
 21
2.481619422925121
 31
0.0
  0
LINE
  5
20349
  8
0
 10
36.23199999996837
 20
8.763099999991255
 30
0.0
 11
36.23199999996837
 21
2.481619422925064
 31
0.0
  0
LINE
  5
2034A
  8
0
 10
33.08199999996839
 20
8.763099999991255
 30
0.0
 11
33.08199999996839
 21
2.481619422925121
 31
0.0
  0
ARC
  5
2034B
  8
0
 10
34.65699999996832
 20
3.183099999991214
 30
0.0
 40
3.420000000000007
 50
240.0000000000255
 51
299.9999999999766
  0
ARC
  5
2034C
  8
0
 10
34.65699999996832
 20
3.183099999991214
 30
0.0
 40
1.97999999999999
 50
240.000000000026
 51
299.9999999999703
  0
LINE
  5
2034D
  8
0
 10
33.08199999996828
 20
8.763099999991255
 30
0.0
 11
31.64199999996833
 21
8.763099999991255
 31
0.0
  0
ARC
  5
2034E
  8
0
 10
35.06199999996829
 20
2.481619422925064
 30
0.0
 40
1.17
 50
299.9999999999699
 51
0.0
  0
ARC
  5
2034F
  8
0
 10
34.25199999996835
 20
2.481619422925121
 30
0.0
 40
1.17
 50
180.0
 51
240.0000000000238
  0
ARC
  5
20350
  8
0
 10
35.06199999996841
 20
2.481619422925121
 30
0.0
 40
2.61
 50
299.9999999999756
 51
0.0
  0
ARC
  5
20351
  8
0
 10
34.25199999996835
 20
2.481619422925121
 30
0.0
 40
2.61
 50
180.0
 51
240.0000000000244
  0
LINE
  5
20352
  8
0
 10
29.30199999996933
 20
8.763099999991255
 30
0.0
 11
30.74199999996927
 21
8.763099999991255
 31
0.0
1001
ACAD
1000
ASC_BOUNDS
1002
{
1070
    19
1005
2035B
1002
}
  0
LINE
  5
20353
  8
0
 10
30.74199999996927
 20
8.763099999991255
 30
0.0
 11
30.74199999996927
 21
2.373099999991211
 31
0.0
1001
ACAD
1000
ASC_BOUNDS
1002
{
1070
    19
1005
2035B
1002
}
  0
LINE
  5
20354
  8
0
 10
26.02015566812236
 20
0.0330999999912365
 30
0.0
 11
28.40199999996923
 21
0.0330999999912365
 31
0.0
1001
ACAD
1000
ASC_BOUNDS
1002
{
1070
    19
1005
2035B
1002
}
  0
LINE
  5
20355
  8
0
 10
29.30199999996933
 20
8.763099999991255
 30
0.0
 11
29.30199999996933
 21
2.283099999991236
 31
0.0
1001
ACAD
1000
ASC_BOUNDS
1002
{
1070
    19
1005
2035B
1002
}
  0
LINE
  5
20356
  8
0
 10
26.97358892824991
 20
1.383099999991202
 30
0.0
 11
28.40199999996923
 21
1.383099999991202
 31
0.0
1001
ACAD
1000
ASC_BOUNDS
1002
{
1070
    19
1005
2035B
1002
}
  0
ARC
  5
20357
  8
0
 10
28.40199999996923
 20
2.283099999991236
 30
0.0
 40
0.9
 50
270.0
 51
0.0
1001
ACAD
1000
ASC_BOUNDS
1002
{
1070
    19
1005
2035B
1002
}
  0
ARC
  5
20358
  8
0
 10
28.40199999996923
 20
2.373099999991211
 30
0.0
 40
2.34
 50
270.0
 51
0.0
1001
ACAD
1000
ASC_BOUNDS
1002
{
1070
    19
1005
2035B
1002
}
  0
INSERT
  5
20359
  8
0
  2
*X288
 10
0.0
 20
0.0
 30
0.0
1001
ACAD
1000
HATCH
1002
{
1070
    19
1000
ANSI37
1040
0.15
1040
0.0
1000
ASC_BOUNDS
1070
     2
1070
     2
1070
    12
1005
20318
1005
20319
1005
20320
1005
2032F
1005
20332
1005
20330
1005
20321
1005
20326
1005
20324
1005
20328
1005
20327
1005
20329
1070
     2
1070
     3
1005
20334
1005
20336
1005
20335
1000
ASC_SEEDPOINT
1011
3.614004224891801
1021
2.996669441146025
1031
0.0
1021
2.996669441146025
1031
0.0
1000
R14_HATCH_DATA
1000
20359
1011
1.0
1021
0.0
1031
0.0
1021
0.0
1031
0.0
1011
0.0
1021
1.0
1031
0.0
1021
1.0
1031
0.0
1011
0.0
1021
0.0
1031
1.0
1021
0.0
1031
1.0
1040
0.0
1010
0.0
1020
0.0
1030
1.0
1000
ANSI37
1070
     0
1070
     1
1071
        2
1071
        7
1070
     0
1070
     1
1071
       17
1040
13.26299999998673
1040
-0.0001000000000317
1040
9.236999999990758
1040
8.999899999990987
1040
9.236999999990758
1040
8.999999999991019
1040
5.657999999994331
1040
0.9999999999989768
1040
3.181999999996833
1040
4.668599999995308
1040
6.432999999993513
1040
8.763099999991255
1040
4.617999999995391
1040
8.763099999991255
1040
1.420999999998571
1040
4.736799999995242
1040
4.617999999995391
1040
-0.0001000000000317
1040
4.617999999995391
1040
0.0
1040
6.766999999993232
1040
0.0
1040
6.766999999993232
1040
-0.0001000000000317
1040
7.826999999992154
1040
2.368399999997621
1040
10.64699999998936
1040
2.368399999997621
1040
11.70599999998831
1040
-0.0001000000000317
1040
11.70599999998831
1040
0.0
1040
13.26299999998673
1040
0.0
1071
       12
1005
20318
1005
20319
1005
20320
1005
2032F
1005
20332
1005
20330
1005
20321
1005
20326
1005
20324
1005
20328
1005
20327
1005
20329
1071
       22
1070
     0
1070
     1
1071
        3
1040
9.236999999990758
1040
5.5200999999945
1040
10.06399999998996
1040
3.670999999996297
1040
8.409999999991555
1040
3.670999999996297
1071
        3
1005
20334
1005
20336
1005
20335
1070
     0
1070
     1
1040
0.0
1040
0.15
1070
     0
1070
     2
1040
0.7853981633974483
1040
49.29960901727088
1040
-10.17736998311392
1040
-0.3367596045400932
1040
0.3367596045400932
1070
     0
1040
2.356194490192345
1040
49.29960901727088
1040
-10.17736998311392
1040
-0.3367596045400932
1040
-0.3367596045400932
1070
     0
1040
0.0110235143455945
1071
        2
1040
3.614004224891801
1040
2.996669441146025
1040
0.0
1040
3.614004224891801
1040
2.996669441146025
1040
0.0
1002
}
  0
INSERT
  5
2035A
  8
0
  2
*X289
 10
0.0
 20
0.0
 30
0.0
1001
ACAD
1000
HATCH
1002
{
1070
    19
1000
ANSI37
1040
0.15
1040
0.0
1000
ASC_BOUNDS
1070
     1
1070
     2
1070
    10
1005
2031A
1005
2031B
1005
2033C
1005
2033A
1005
2033B
1005
2032E
1005
20333
1005
20337
1005
2031D
1005
2031C
1000
ASC_SEEDPOINT
1011
14.73245321214324
1021
2.798246178283421
1031
0.0
1021
2.798246178283421
1031
0.0
1000
R14_HATCH_DATA
1000
2035A
1011
1.0
1021
0.0
1031
0.0
1021
0.0
1031
0.0
1011
0.0
1021
1.0
1031
0.0
1021
1.0
1031
0.0
1011
0.0
1021
0.0
1031
1.0
1021
0.0
1031
1.0
1040
0.0
1010
0.0
1020
0.0
1030
1.0
1000
ANSI37
1070
     0
1070
     1
1071
        1
1071
        7
1070
     0
1070
     1
1071
       10
1040
16.46099999998353
1040
5.432899999994561
1040
18.59199999998134
1040
-0.2368999999997641
1040
22.38199999997767
1040
8.763099999991255
1040
20.89099999997916
1040
8.763099999991255
1040
18.59799999998143
1040
3.315799999996671
1040
16.46099999998353
1040
8.999899999990987
1040
14.32399999998563
1040
3.315799999996671
1040
12.02999999998792
1040
8.763099999991255
1040
10.53899999998941
1040
8.763099999991255
1040
14.32899999998563
1040
-0.2368999999997641
1071
       10
1005
2031A
1005
2031B
1005
2033C
1005
2033A
1005
2033B
1005
2032E
1005
20333
1005
20337
1005
2031D
1005
2031C
1070
     0
1070
     1
1040
0.0
1040
0.15
1070
     0
1070
     2
1040
0.7853981633974483
1040
49.29960901727088
1040
-10.17736998311392
1040
-0.3367596045400932
1040
0.3367596045400932
1070
     0
1040
2.356194490192345
1040
49.29960901727088
1040
-10.17736998311392
1040
-0.3367596045400932
1040
-0.3367596045400932
1070
     0
1040
0.0110235143455945
1071
        1
1040
14.73245321214324
1040
2.798246178283421
1040
0.0
1002
}
  0
INSERT
  5
2035B
  8
0
  2
*X290
 10
0.0
 20
0.0
 30
0.0
1001
ACAD
1000
HATCH
1002
{
1070
    19
1000
ANSI37
1040
0.15
1040
0.0
1000
ASC_BOUNDS
1070
     2
1070
     2
1070
    13
1005
2031E
1005
2032B
1005
2032C
1005
2032A
1005
2032D
1005
20354
1005
20358
1005
20353
1005
20352
1005
20355
1005
20357
1005
20356
1005
2031F
1070
     2
1070
     3
1005
20338
1005
2033D
1005
20339
1000
ASC_SEEDPOINT
1011
21.97929957367762
1021
3.294304244259308
1031
0.0
1021
3.294304244259308
1031
0.0
1000
R14_HATCH_DATA
1000
2035B
1011
1.0
1021
0.0
1031
0.0
1021
0.0
1031
0.0
1011
0.0
1021
1.0
1031
0.0
1021
1.0
1031
0.0
1011
0.0
1021
0.0
1031
1.0
1021
0.0
1031
1.0
1040
0.0
1010
0.0
1020
0.0
1030
1.0
1000
ANSI37
1070
     0
1070
     1
1071
        2
1071
        7
1070
     1
1070
     1
1071
       15
1040
23.56599999997638
1040
8.999899999990987
1040
0.0
1040
19.53899999998043
1040
-0.0001000000000317
1040
0.0
1040
19.53899999998043
1040
0.0
1040
0.0
1040
21.09599999997886
1040
0.0
1040
0.0
1040
21.09599999997886
1040
-0.0001000000000317
1040
0.0
1040
22.15599999997789
1040
2.368399999997621
1040
0.0
1040
24.97599999997499
1040
2.368399999997621
1040
0.0
1040
26.02015566812236
1040
0.0330999999912365
1040
0.0
1040
28.40199999996923
1040
0.0330999999912365
1040
0.414213562373095
1040
30.74199999996923
1040
2.373099999991211
1040
0.0
1040
30.74199999996927
1040
8.763099999991255
1040
0.0
1040
29.30199999996933
1040
8.763099999991255
1040
0.0
1040
29.30199999996933
1040
2.283099999991236
1040
-0.414213562373095
1040
28.40199999996923
1040
1.383099999991237
1040
0.0
1040
26.97358892824991
1040
1.383099999991202
1040
0.0
1071
       13
1005
2031E
1005
2032B
1005
2032C
1005
2032A
1005
2032D
1005
20354
1005
20358
1005
20353
1005
20352
1005
20355
1005
20357
1005
20356
1005
2031F
1071
       22
1070
     0
1070
     1
1071
        3
1040
22.7389999999773
1040
3.670999999996297
1040
23.56599999997638
1040
5.5200999999945
1040
24.39299999997559
1040
3.670999999996297
1071
        3
1005
20338
1005
2033D
1005
20339
1070
     0
1070
     1
1040
0.0
1040
0.15
1070
     0
1070
     2
1040
0.7853981633974483
1040
49.29960901727088
1040
-10.17736998311392
1040
-0.3367596045400932
1040
0.3367596045400932
1070
     0
1040
2.356194490192345
1040
49.29960901727088
1040
-10.17736998311392
1040
-0.3367596045400932
1040
-0.3367596045400932
1070
     0
1040
0.0110235143455945
1071
        2
1040
21.97929957367762
1040
3.294304244259308
1040
0.0
1040
21.97929957367762
1040
3.294304244259308
1040
0.0
1002
}
  0
INSERT
  5
2035C
  8
0
  2
*X291
 10
0.0
 20
0.0
 30
0.0
1001
ACAD
1000
HATCH
1002
{
1070
    19
1000
ANSI37
1040
0.15
1040
0.0
1000
R14_HATCH_DATA
1000
2035C
1011
1.0
1021
0.0
1031
0.0
1021
0.0
1031
0.0
1011
0.0
1021
1.0
1031
0.0
1021
1.0
1031
0.0
1011
0.0
1021
0.0
1031
1.0
1021
0.0
1031
1.0
1040
0.0
1010
0.0
1020
0.0
1030
1.0
1000
ANSI37
1070
     0
1070
     1
1071
        1
1071
        7
1070
     1
1070
     1
1071
       12
1040
31.64199999996833
1040
2.481619422925121
1040
0.2679491924310942
1040
32.94699999997067
1040
0.2212931190493919
1040
0.2679491924301353
1040
36.36699999995983
1040
0.2212931190459813
1040
0.2679491924321411
1040
37.67199999996831
1040
2.481619422928361
1040
0.0
1040
37.67199999996831
1040
8.763099999991255
1040
0.0
1040
36.23199999996837
1040
8.763099999991255
1040
0.0
1040
36.23199999996837
1040
2.481619422925064
1040
-0.2679491924310291
1040
35.64699999996708
1040
1.468369700498386
1040
-0.267949192430519
1040
33.66699999997093
1040
1.468369700497703
1040
-0.267949192431809
1040
33.08199999996839
1040
2.481619422926997
1040
0.0
1040
33.08199999996839
1040
8.763099999991255
1040
0.0
1040
31.64199999996833
1040
8.763099999991255
1040
0.0
1071
        0
1070
     0
1070
     1
1040
0.0
1040
0.15
1070
     0
1070
     2
1040
0.7853981633974483
1040
49.29960901727088
1040
-10.17736998311392
1040
-0.3367596045400932
1040
0.3367596045400932
1070
     0
1040
2.356194490192345
1040
49.29960901727088
1040
-10.17736998311392
1040
-0.3367596045400932
1040
-0.3367596045400932
1070
     0
1040
0.0110235143455945
1071
        1
1040
32.30357378967278
1040
3.988785755459219
1040
0.0
1002
}
  0
INSERT
  5
2035D
  8
0
  2
*X292
 10
0.0
 20
0.0
 30
0.0
1001
ACAD
1000
HATCH
1002
{
1070
    19
1000
ANSI37
1040
0.15
1040
0.0
1000
ASC_BOUNDS
1070
     1
1070
     2
1070
     8
1005
2033E
1005
20341
1005
20345
1005
20344
1005
20343
1005
20340
1005
20342
1005
2033F
1000
ASC_SEEDPOINT
1011
39.74896370716704
1021
4.484843821435049
1031
0.0
1021
4.484843821435049
1031
0.0
1000
R14_HATCH_DATA
1000
2035D
1011
1.0
1021
0.0
1031
0.0
1021
0.0
1031
0.0
1011
0.0
1021
1.0
1031
0.0
1021
1.0
1031
0.0
1011
0.0
1021
0.0
1031
1.0
1021
0.0
1031
1.0
1040
0.0
1010
0.0
1020
0.0
1030
1.0
1000
ANSI37
1070
     0
1070
     1
1071
        1
1071
        7
1070
     0
1070
     1
1071
        9
1040
40.02599999995994
1040
5.341799999994635
1040
44.99999999995498
1040
-0.2368999999997641
1040
44.99999999995498
1040
8.763099999991255
1040
43.57899999995641
1040
8.763099999991255
1040
43.57899999995641
1040
3.421199999996588
1040
38.60499999996136
1040
8.999899999990987
1040
38.60499999996136
1040
8.999999999991019
1040
38.60499999996136
1040
0.0
1040
40.02599999995994
1040
0.0
1071
        8
1005
2033E
1005
20341
1005
20345
1005
20344
1005
20343
1005
20340
1005
20342
1005
2033F
1070
     0
1070
     1
1040
0.0
1040
0.15
1070
     0
1070
     2
1040
0.7853981633974483
1040
49.29960901727088
1040
-10.17736998311392
1040
-0.3367596045400932
1040
0.3367596045400932
1070
     0
1040
2.356194490192345
1040
49.29960901727088
1040
-10.17736998311392
1040
-0.3367596045400932
1040
-0.3367596045400932
1070
     0
1040
0.0110235143455945
1071
        1
1040
39.74896370716704
1040
4.484843821435049
1040
0.0
1002
}
  0
INSERT
  5
2035E
  8
0
  2
*X293
 10
0.0
 20
0.0
 30
0.0
1001
ACAD
1000
HATCH
1002
{
1070
    19
1000
ANSI37
1040
0.15
1040
0.0
1000
ASC_BOUNDS
1070
     1
1070
     2
1070
     4
1005
20322
1005
20331
1005
20323
1005
20325
1000
ASC_SEEDPOINT
1011
1.079051535452663
1021
4.148538732891836
1031
0.0
1021
4.148538732891836
1031
0.0
1000
R14_HATCH_DATA
1000
2035E
1011
1.0
1021
0.0
1031
0.0
1021
0.0
1031
0.0
1011
0.0
1021
1.0
1031
0.0
1021
1.0
1031
0.0
1011
0.0
1021
0.0
1031
1.0
1021
0.0
1031
1.0
1040
0.0
1010
0.0
1020
0.0
1030
1.0
1000
ANSI37
1070
     0
1070
     1
1071
        1
1071
        7
1070
     0
1070
     1
1071
        4
1040
1.420999999998571
1040
0.0
1040
1.420999999998571
1040
8.763099999991255
1040
0.0
1040
8.763099999991255
1040
0.0
1040
0.0
1071
        4
1005
20322
1005
20331
1005
20323
1005
20325
1070
     0
1070
     1
1040
0.0
1040
0.15
1070
     0
1070
     2
1040
0.7853981633974483
1040
49.29960901727088
1040
-10.17736998311392
1040
-0.3367596045400932
1040
0.3367596045400932
1070
     0
1040
2.356194490192345
1040
49.29960901727088
1040
-10.17736998311392
1040
-0.3367596045400932
1040
-0.3367596045400932
1070
     0
1040
0.0053004257112761
1071
        1
1040
1.079051535452663
1040
4.148538732891836
1040
0.0
1002
}
  0
ENDBLK
  5
20A16
  8
0
  0
BLOCK
  8
0
  2
*X288
 70
     1
 10
0.0
 20
0.0
 30
0.0
  3
*X288
  1

  0
LINE
  5
266C7
  8
0
  6
CONTINUOUS
 10
3.418023043697893
 20
7.251849696850613
 30
0.0
 11
4.929273346838536
 21
8.763099999991255
 31
0.0
  0
LINE
  5
266C8
  8
0
  6
CONTINUOUS
 10
1.483656411257782
 20
4.643963855330318
 30
0.0
 11
5.60279255591872
 21
8.763099999991255
 31
0.0
  0
LINE
  5
266C9
  8
0
  6
CONTINUOUS
 10
1.755053947328235
 20
4.241842182320584
 30
0.0
 11
6.276311764998907
 21
8.763099999991255
 31
0.0
  0
LINE
  5
266CA
  8
0
  6
CONTINUOUS
 10
2.026451483398688
 20
3.839720509310849
 30
0.0
 11
4.441040904851878
 21
6.254309930764039
 31
0.0
  0
LINE
  5
266CB
  8
0
  6
CONTINUOUS
 10
2.297849019469139
 20
3.437598836301114
 30
0.0
 11
3.321765168359338
 21
4.461514985191313
 31
0.0
  0
LINE
  5
266CC
  8
0
  6
CONTINUOUS
 10
2.569246555539591
 20
3.03547716329138
 30
0.0
 11
3.593163397972743
 21
4.059394005724531
 31
0.0
  0
LINE
  5
266CD
  8
0
  6
CONTINUOUS
 10
2.840644091610043
 20
2.633355490281646
 30
0.0
 11
3.864561627586149
 21
3.657273026257751
 31
0.0
  0
LINE
  5
266CE
  8
0
  6
CONTINUOUS
 10
3.112041627680496
 20
2.231233817271911
 30
0.0
 11
4.135959857199554
 21
3.25515204679097
 31
0.0
  0
LINE
  5
266CF
  8
0
  6
CONTINUOUS
 10
3.383439163750948
 20
1.829112144262177
 30
0.0
 11
4.40735808681296
 21
2.853031067324189
 31
0.0
  0
LINE
  5
266D0
  8
0
  6
CONTINUOUS
 10
3.654836699821399
 20
1.426990471252442
 30
0.0
 11
4.678756316426365
 21
2.450910087857407
 31
0.0
  0
LINE
  5
266D1
  8
0
  6
CONTINUOUS
 10
3.926234235891853
 20
1.024868798242709
 30
0.0
 11
4.95015454603977
 21
2.048789108390626
 31
0.0
  0
LINE
  5
266D2
  8
0
  6
CONTINUOUS
 10
4.197631771962304
 20
0.6227471252329737
 30
0.0
 11
5.221552775653176
 21
1.646668128923846
 31
0.0
  0
LINE
  5
266D3
  8
0
  6
CONTINUOUS
 10
8.715877546767851
 20
7.835069736359266
 30
0.0
 11
9.435953450375058
 21
8.555145639966472
 31
0.0
  0
LINE
  5
266D4
  8
0
  6
CONTINUOUS
 10
8.170620868422267
 20
6.616293848933497
 30
0.0
 11
9.644120833743461
 21
8.08979381425469
 31
0.0
  0
LINE
  5
266D5
  8
0
  6
CONTINUOUS
 10
7.625364190076684
 20
5.397517961507727
 30
0.0
 11
9.852288217111864
 21
7.624441988542907
 31
0.0
  0
LINE
  5
266D6
  8
0
  6
CONTINUOUS
 10
7.080107511731101
 20
4.178742074081957
 30
0.0
 11
10.06045560048027
 21
7.159090162831124
 31
0.0
  0
LINE
  5
266D7
  8
0
  6
CONTINUOUS
 10
6.534850833385518
 20
2.959966186656187
 30
0.0
 11
10.26862298384867
 21
6.693738337119342
 31
0.0
  0
LINE
  5
266D8
  8
0
  6
CONTINUOUS
 10
4.469029308032756
 20
0.2206254522232385
 30
0.0
 11
5.492951005266582
 21
1.244547149457064
 31
0.0
  0
LINE
  5
266D9
  8
0
  6
CONTINUOUS
 10
5.989594155039935
 20
1.741190299230417
 30
0.0
 11
8.806950407233131
 21
4.558546551423613
 31
0.0
  0
LINE
  5
266DA
  8
0
  6
CONTINUOUS
 10
9.401251593263643
 20
5.152847737454126
 30
0.0
 11
10.47679036721708
 21
6.228386511407559
 31
0.0
  0
LINE
  5
266DB
  8
0
  6
CONTINUOUS
 10
4.921837203428691
 20
-0.0000858614610131
 30
0.0
 11
8.592923064886001
 21
3.670999999996297
 31
0.0
  0
LINE
  5
266DC
  8
0
  6
CONTINUOUS
 10
9.609390446785305
 20
4.6874673818956
 30
0.0
 11
10.68495775058548
 21
5.763034685695775
 31
0.0
  0
LINE
  5
266DD
  8
0
  6
CONTINUOUS
 10
5.595387755019432
 20
-0.0000545189504582
 30
0.0
 11
7.716137258923768
 21
2.120694984953879
 31
0.0
  0
LINE
  5
266DE
  8
0
  6
CONTINUOUS
 10
6.268938306610172
 20
-0.000023176439905
 30
0.0
 11
7.170485805526503
 21
0.9015243224764267
 31
0.0
  0
LINE
  5
266DF
  8
0
  6
CONTINUOUS
 10
7.963842273967511
 20
2.368399999997621
 30
0.0
 11
9.266442273966188
 21
3.670999999996297
 31
0.0
  0
LINE
  5
266E0
  8
0
  6
CONTINUOUS
 10
8.637361483047696
 20
2.368399999997621
 30
0.0
 11
9.939961483046375
 21
3.670999999996297
 31
0.0
  0
LINE
  5
266E1
  8
0
  6
CONTINUOUS
 10
9.817529300306965
 20
4.222087026337075
 30
0.0
 11
10.89312513395388
 21
5.297682859983993
 31
0.0
  0
LINE
  5
266E2
  8
0
  6
CONTINUOUS
 10
10.02566815382863
 20
3.756706670778549
 30
0.0
 11
11.10129251732229
 21
4.832331034272211
 31
0.0
  0
LINE
  5
266E3
  8
0
  6
CONTINUOUS
 10
9.310880692127883
 20
2.368399999997621
 30
0.0
 11
11.30945990069069
 21
4.366979208560428
 31
0.0
  0
LINE
  5
266E4
  8
0
  6
CONTINUOUS
 10
9.98439990120807
 20
2.36839999999762
 30
0.0
 11
11.5176272840591
 21
3.901627382848645
 31
0.0
  0
LINE
  5
266E5
  8
0
  6
CONTINUOUS
 10
10.65037369446246
 20
2.36085458417182
 30
0.0
 11
11.7257946674275
 21
3.436275557136862
 31
0.0
  0
LINE
  5
266E6
  8
0
  6
CONTINUOUS
 10
10.85847197087848
 20
1.895433651507656
 30
0.0
 11
11.9339620507959
 21
2.97092373142508
 31
0.0
  0
LINE
  5
266E7
  8
0
  6
CONTINUOUS
 10
11.0665702472945
 20
1.430012718843491
 30
0.0
 11
12.14212943416431
 21
2.505571905713296
 31
0.0
  0
LINE
  5
266E8
  8
0
  6
CONTINUOUS
 10
11.27466852371052
 20
0.9645917861793256
 30
0.0
 11
12.35029681753271
 21
2.040220080001513
 31
0.0
  0
LINE
  5
266E9
  8
0
  6
CONTINUOUS
 10
11.48276680012654
 20
0.4991708535151611
 30
0.0
 11
12.55846420090111
 21
1.57486825428973
 31
0.0
  0
LINE
  5
266EA
  8
0
  6
CONTINUOUS
 10
11.69086507654257
 20
0.0337499208509957
 30
0.0
 11
12.76663158426952
 21
1.109516428577947
 31
0.0
  0
LINE
  5
266EB
  8
0
  6
CONTINUOUS
 10
12.33057447873954
 20
-0.0000598860322123
 30
0.0
 11
12.97479896763792
 21
0.6441646028661663
 31
0.0
  0
LINE
  5
266EC
  8
0
  6
CONTINUOUS
 10
13.00413694809395
 20
-0.0000166257579952
 30
0.0
 11
13.18296635100632
 21
0.1788127771543824
 31
0.0
  0
LINE
  5
266ED
  8
0
  6
CONTINUOUS
 10
4.772852165289667
 20
-0.000092794222212
 30
0.0
 11
4.296495091028902
 21
0.4762642800385528
 31
0.0
  0
LINE
  5
266EE
  8
0
  6
CONTINUOUS
 10
5.446340034776103
 20
-0.0000614546284616
 30
0.0
 11
2.898195908335625
 21
2.548082671812017
 31
0.0
  0
LINE
  5
266EF
  8
0
  6
CONTINUOUS
 10
6.119827904262539
 20
-0.0000301150347113
 30
0.0
 11
1.499896725642348
 21
4.61990106358548
 31
0.0
  0
LINE
  5
266F0
  8
0
  6
CONTINUOUS
 10
6.775136745476159
 20
0.0181802528318542
 30
0.0
 11
5.699826040202669
 21
1.093490958105344
 31
0.0
  0
LINE
  5
266F1
  8
0
  6
CONTINUOUS
 10
6.983376846288489
 20
0.4834593610997118
 30
0.0
 11
5.908008617934405
 21
1.558827589453796
 31
0.0
  0
LINE
  5
266F2
  8
0
  6
CONTINUOUS
 10
5.377063484962296
 20
1.416253513345719
 30
0.0
 11
1.702276957014131
 21
5.091040041293883
 31
0.0
  0
LINE
  5
266F3
  8
0
  6
CONTINUOUS
 10
3.978745891735324
 20
3.488090315652877
 30
0.0
 11
2.000373521109399
 21
5.466462686278803
 31
0.0
  0
LINE
  5
266F4
  8
0
  6
CONTINUOUS
 10
7.191616947100819
 20
0.948738469367568
 30
0.0
 11
6.11619119566614
 21
2.024164220802247
 31
0.0
  0
LINE
  5
266F5
  8
0
  6
CONTINUOUS
 10
7.399857047913149
 20
1.414017577635424
 30
0.0
 11
6.324373773397875
 21
2.489500852150698
 31
0.0
  0
LINE
  5
266F6
  8
0
  6
CONTINUOUS
 10
7.608097148725479
 20
1.879296685903281
 30
0.0
 11
6.53255635112961
 21
2.95483748349915
 31
0.0
  0
LINE
  5
266F7
  8
0
  6
CONTINUOUS
 10
7.816337249537808
 20
2.344575794171138
 30
0.0
 11
6.740738928861345
 21
3.420174114847601
 31
0.0
  0
LINE
  5
266F8
  8
0
  6
CONTINUOUS
 10
3.310241080789734
 20
4.830114335678653
 30
0.0
 11
2.298470085204666
 21
5.84188533126372
 31
0.0
  0
LINE
  5
266F9
  8
0
  6
CONTINUOUS
 10
3.60832983563551
 20
5.205544789913063
 30
0.0
 11
2.596566649299935
 21
6.217307976248638
 31
0.0
  0
LINE
  5
266FA
  8
0
  6
CONTINUOUS
 10
3.906418590481286
 20
5.580975244147473
 30
0.0
 11
2.894663213395203
 21
6.592730621233557
 31
0.0
  0
LINE
  5
266FB
  8
0
  6
CONTINUOUS
 10
4.204507345327062
 20
5.956405698381884
 30
0.0
 11
3.192759777490472
 21
6.968153266218474
 31
0.0
  0
LINE
  5
266FC
  8
0
  6
CONTINUOUS
 10
8.466032252791512
 20
2.368399999997621
 30
0.0
 11
6.948921506593081
 21
3.885510746196053
 31
0.0
  0
LINE
  5
266FD
  8
0
  6
CONTINUOUS
 10
9.139551461871699
 20
2.36839999999762
 30
0.0
 11
7.157104084324816
 21
4.350847377544504
 31
0.0
  0
LINE
  5
266FE
  8
0
  6
CONTINUOUS
 10
4.502596100172839
 20
6.331836152616295
 30
0.0
 11
3.49085634158574
 21
7.343575911203393
 31
0.0
  0
LINE
  5
266FF
  8
0
  6
CONTINUOUS
 10
4.800684855018615
 20
6.707266606850705
 30
0.0
 11
3.788952905681008
 21
7.718998556188312
 31
0.0
  0
LINE
  5
26700
  8
0
  6
CONTINUOUS
 10
12.18154012887317
 20
-0.0000694579236642
 30
0.0
 11
11.32140332908496
 21
0.8600673418645499
 31
0.0
  0
LINE
  5
26701
  8
0
  6
CONTINUOUS
 10
12.85501608323566
 20
-0.0000262032059659
 30
0.0
 11
10.77672456435345
 21
2.078265315676246
 31
0.0
  0
LINE
  5
26702
  8
0
  6
CONTINUOUS
 10
9.813070670951886
 20
2.36839999999762
 30
0.0
 11
8.51047067095321
 21
3.670999999996297
 31
0.0
  0
LINE
  5
26703
  8
0
  6
CONTINUOUS
 10
10.48658988003207
 20
2.36839999999762
 30
0.0
 11
9.183989880033396
 21
3.670999999996297
 31
0.0
  0
LINE
  5
26704
  8
0
  6
CONTINUOUS
 10
8.441048632286794
 20
3.740422038662712
 30
0.0
 11
7.365286662056551
 21
4.816184008892956
 31
0.0
  0
LINE
  5
26705
  8
0
  6
CONTINUOUS
 10
8.649187485808454
 20
4.205802394221237
 30
0.0
 11
7.573469239788285
 21
5.281520640241407
 31
0.0
  0
LINE
  5
26706
  8
0
  6
CONTINUOUS
 10
5.098773609864391
 20
7.082697061085115
 30
0.0
 11
4.087049469776277
 21
8.09442120117323
 31
0.0
  0
LINE
  5
26707
  8
0
  6
CONTINUOUS
 10
5.396862364710167
 20
7.458127515319526
 30
0.0
 11
4.385146033871544
 21
8.469843846158149
 31
0.0
  0
LINE
  5
26708
  8
0
  6
CONTINUOUS
 10
13.04801363231285
 20
0.4804954567970334
 30
0.0
 11
9.85750908911358
 21
3.670999999996297
 31
0.0
  0
LINE
  5
26709
  8
0
  6
CONTINUOUS
 10
8.857326339330116
 20
4.671182749779763
 30
0.0
 11
7.781651817520021
 21
5.746857271589858
 31
0.0
  0
LINE
  5
2670A
  8
0
  6
CONTINUOUS
 10
5.694951119555943
 20
7.833557969553937
 30
0.0
 11
4.765409089118624
 21
8.763099999991255
 31
0.0
  0
LINE
  5
2670B
  8
0
  6
CONTINUOUS
 10
12.50286117236978
 20
1.699167125820288
 30
0.0
 11
9.68611877250287
 21
4.515909525687196
 31
0.0
  0
LINE
  5
2670C
  8
0
  6
CONTINUOUS
 10
9.065465192851777
 20
5.136563105338288
 30
0.0
 11
7.989834395251757
 21
6.21219390293831
 31
0.0
  0
LINE
  5
2670D
  8
0
  6
CONTINUOUS
 10
5.993039874401719
 20
8.208988423788346
 30
0.0
 11
5.43892829819881
 21
8.763099999991255
 31
0.0
  0
LINE
  5
2670E
  8
0
  6
CONTINUOUS
 10
11.95770871242671
 20
2.917838794843543
 30
0.0
 11
8.19801697298349
 21
6.677530534286761
 31
0.0
  0
LINE
  5
2670F
  8
0
  6
CONTINUOUS
 10
6.291128629247495
 20
8.584418878022756
 30
0.0
 11
6.112447507278997
 21
8.763099999991255
 31
0.0
  0
LINE
  5
26710
  8
0
  6
CONTINUOUS
 10
11.41255625248364
 20
4.136510463866797
 30
0.0
 11
8.406199550715227
 21
7.142867165635211
 31
0.0
  0
LINE
  5
26711
  8
0
  6
CONTINUOUS
 10
10.86740379254057
 20
5.355182132890051
 30
0.0
 11
8.614382128446962
 21
7.608203796983664
 31
0.0
  0
LINE
  5
26712
  8
0
  6
CONTINUOUS
 10
10.3222513325975
 20
6.573853801913305
 30
0.0
 11
8.822564706178696
 21
8.073540428332114
 31
0.0
  0
LINE
  5
26713
  8
0
  6
CONTINUOUS
 10
9.777098872654436
 20
7.792525470936562
 30
0.0
 11
9.030747283910433
 21
8.538877059680566
 31
0.0
  0
ENDBLK
  5
26855
  8
0
  0
BLOCK
  8
0
  2
*X289
 70
     1
 10
0.0
 20
0.0
 30
0.0
  3
*X289
  1

  0
LINE
  5
26715
  8
0
  6
CONTINUOUS
 10
10.67292308101235
 20
8.445076852443387
 30
0.0
 11
10.99094622856022
 21
8.763099999991255
 31
0.0
  0
LINE
  5
26716
  8
0
  6
CONTINUOUS
 10
10.87250383178748
 20
7.971138394138331
 30
0.0
 11
11.6644654376404
 21
8.763099999991255
 31
0.0
  0
LINE
  5
26717
  8
0
  6
CONTINUOUS
 10
11.07208458256261
 20
7.497199935833273
 30
0.0
 11
12.12126590876355
 21
8.546381262034211
 31
0.0
  0
LINE
  5
26718
  8
0
  6
CONTINUOUS
 10
11.27166533333774
 20
7.023261477528216
 30
0.0
 11
12.32085164573666
 21
8.072447789927136
 31
0.0
  0
LINE
  5
26719
  8
0
  6
CONTINUOUS
 10
11.47124608411287
 20
6.549323019223158
 30
0.0
 11
12.52043738270977
 21
7.59851431782006
 31
0.0
  0
LINE
  5
2671A
  8
0
  6
CONTINUOUS
 10
11.670826834888
 20
6.075384560918101
 30
0.0
 11
12.72002311968288
 21
7.124580845712984
 31
0.0
  0
LINE
  5
2671B
  8
0
  6
CONTINUOUS
 10
11.87040758566313
 20
5.601446102613043
 30
0.0
 11
12.91960885665599
 21
6.650647373605907
 31
0.0
  0
LINE
  5
2671C
  8
0
  6
CONTINUOUS
 10
12.06998833643825
 20
5.127507644307986
 30
0.0
 11
13.1191945936291
 21
6.176713901498832
 31
0.0
  0
LINE
  5
2671D
  8
0
  6
CONTINUOUS
 10
12.26956908721338
 20
4.65356918600293
 30
0.0
 11
13.31878033060221
 21
5.702780429391757
 31
0.0
  0
LINE
  5
2671E
  8
0
  6
CONTINUOUS
 10
12.46914983798851
 20
4.179630727697873
 30
0.0
 11
13.51836606757532
 21
5.228846957284683
 31
0.0
  0
LINE
  5
2671F
  8
0
  6
CONTINUOUS
 10
12.66873058876364
 20
3.705692269392816
 30
0.0
 11
13.71795180454843
 21
4.754913485177607
 31
0.0
  0
LINE
  5
26720
  8
0
  6
CONTINUOUS
 10
12.86831133953877
 20
3.231753811087759
 30
0.0
 11
13.91753754152154
 21
4.280980013070531
 31
0.0
  0
LINE
  5
26721
  8
0
  6
CONTINUOUS
 10
13.0678920903139
 20
2.757815352782702
 30
0.0
 11
14.11712327849465
 21
3.807046540963456
 31
0.0
  0
LINE
  5
26722
  8
0
  6
CONTINUOUS
 10
13.26747284108903
 20
2.283876894477644
 30
0.0
 11
14.31670901546777
 21
3.333113068856379
 31
0.0
  0
LINE
  5
26723
  8
0
  6
CONTINUOUS
 10
16.36767838827179
 20
8.751678487061342
 30
0.0
 11
16.50332410898388
 21
8.887324207773432
 31
0.0
  0
LINE
  5
26724
  8
0
  6
CONTINUOUS
 10
15.96190732182191
 20
7.67238821153127
 30
0.0
 11
16.68735328004734
 21
8.397834169756699
 31
0.0
  0
LINE
  5
26725
  8
0
  6
CONTINUOUS
 10
15.55613625537202
 20
6.593097936001196
 30
0.0
 11
16.87138245111079
 21
7.908344131739965
 31
0.0
  0
LINE
  5
26726
  8
0
  6
CONTINUOUS
 10
15.15036518892213
 20
5.513807660471122
 30
0.0
 11
17.05541162217424
 21
7.418854093723231
 31
0.0
  0
LINE
  5
26727
  8
0
  6
CONTINUOUS
 10
14.74459412247225
 20
4.434517384941048
 30
0.0
 11
17.2394407932377
 21
6.929364055706499
 31
0.0
  0
LINE
  5
26728
  8
0
  6
CONTINUOUS
 10
14.33882305602236
 20
3.355227109410975
 30
0.0
 11
17.42346996430115
 21
6.439874017689766
 31
0.0
  0
LINE
  5
26729
  8
0
  6
CONTINUOUS
 10
13.46705359186416
 20
1.809938436172586
 30
0.0
 11
16.0819338255367
 21
4.424818669845129
 31
0.0
  0
LINE
  5
2672A
  8
0
  6
CONTINUOUS
 10
16.63283254238972
 20
4.975717386698149
 30
0.0
 11
17.60749913536461
 21
5.950383979673033
 31
0.0
  0
LINE
  5
2672B
  8
0
  6
CONTINUOUS
 10
13.66663434263929
 20
1.335999977867529
 30
0.0
 11
15.67604797733754
 21
3.345413612565779
 31
0.0
  0
LINE
  5
2672C
  8
0
  6
CONTINUOUS
 10
13.86621509341442
 20
0.8620615195624723
 30
0.0
 11
15.27016212913838
 21
2.26600855528643
 31
0.0
  0
LINE
  5
2672D
  8
0
  6
CONTINUOUS
 10
16.81682257348267
 20
4.486188208710908
 30
0.0
 11
17.79152830642806
 21
5.460893941656299
 31
0.0
  0
LINE
  5
2672E
  8
0
  6
CONTINUOUS
 10
17.00081260457561
 20
3.996659030723667
 30
0.0
 11
17.97555747749151
 21
4.971403903639565
 31
0.0
  0
LINE
  5
2672F
  8
0
  6
CONTINUOUS
 10
20.74362343514722
 20
8.412989070375462
 30
0.0
 11
21.09373436476302
 21
8.763099999991256
 31
0.0
  0
LINE
  5
26730
  8
0
  6
CONTINUOUS
 10
20.25401257174777
 20
7.249858997895826
 30
0.0
 11
21.7672535738432
 21
8.763099999991255
 31
0.0
  0
LINE
  5
26731
  8
0
  6
CONTINUOUS
 10
14.06579584418955
 20
0.3881230612574149
 30
0.0
 11
14.86427628093921
 21
1.186603498007082
 31
0.0
  0
LINE
  5
26732
  8
0
  6
CONTINUOUS
 10
14.26537659496467
 20
-0.0858153970476412
 30
0.0
 11
14.45839043274005
 21
0.1071984407277329
 31
0.0
  0
LINE
  5
26733
  8
0
  6
CONTINUOUS
 10
17.18480263566856
 20
3.507129852736426
 30
0.0
 11
18.15958664855496
 21
4.481913865622833
 31
0.0
  0
LINE
  5
26734
  8
0
  6
CONTINUOUS
 10
17.3687926667615
 20
3.017600674749186
 30
0.0
 11
18.34361581961842
 21
3.9924238276061
 31
0.0
  0
LINE
  5
26735
  8
0
  6
CONTINUOUS
 10
19.76440170834832
 20
6.086728925416191
 30
0.0
 11
22.33924590259489
 21
8.661573119662755
 31
0.0
  0
LINE
  5
26736
  8
0
  6
CONTINUOUS
 10
19.27479084494887
 20
4.923598852936555
 30
0.0
 11
21.84929622842713
 21
7.498104236414807
 31
0.0
  0
LINE
  5
26737
  8
0
  6
CONTINUOUS
 10
17.55278269785445
 20
2.528071496761945
 30
0.0
 11
18.52764499068187
 21
3.502933789589366
 31
0.0
  0
LINE
  5
26738
  8
0
  6
CONTINUOUS
 10
18.78517998154942
 20
3.760468780456919
 30
0.0
 11
21.35934655425936
 21
6.33463535316686
 31
0.0
  0
LINE
  5
26739
  8
0
  6
CONTINUOUS
 10
17.73677272894739
 20
2.038542318774704
 30
0.0
 11
20.8693968800916
 21
5.171166469918914
 31
0.0
  0
LINE
  5
2673A
  8
0
  6
CONTINUOUS
 10
17.92076276004034
 20
1.549013140787464
 30
0.0
 11
20.37944720592384
 21
4.007697586670968
 31
0.0
  0
LINE
  5
2673B
  8
0
  6
CONTINUOUS
 10
18.10475279113329
 20
1.059483962800223
 30
0.0
 11
19.88949753175608
 21
2.84422870342302
 31
0.0
  0
LINE
  5
2673C
  8
0
  6
CONTINUOUS
 10
18.28874282222623
 20
0.5699547848129822
 30
0.0
 11
19.39954785758832
 21
1.680759820175074
 31
0.0
  0
LINE
  5
2673D
  8
0
  6
CONTINUOUS
 10
18.47273285331918
 20
0.0804256068257416
 30
0.0
 11
18.90959818342056
 21
0.517290936927127
 31
0.0
  0
LINE
  5
2673E
  8
0
  6
CONTINUOUS
 10
14.3590401358224
 20
-0.1570118376323384
 30
0.0
 11
14.24903296539946
 21
-0.0470046672093929
 31
0.0
  0
LINE
  5
2673F
  8
0
  6
CONTINUOUS
 10
14.54309291258661
 20
0.332454594683643
 30
0.0
 11
13.75908329123172
 21
1.116464216038529
 31
0.0
  0
LINE
  5
26740
  8
0
  6
CONTINUOUS
 10
14.72714568935081
 20
0.8219210269996244
 30
0.0
 11
13.26913361706399
 21
2.27993309928645
 31
0.0
  0
LINE
  5
26741
  8
0
  6
CONTINUOUS
 10
14.91119846611502
 20
1.311387459315606
 30
0.0
 11
12.77918394289625
 21
3.443401982534371
 31
0.0
  0
LINE
  5
26742
  8
0
  6
CONTINUOUS
 10
15.09525124287922
 20
1.800853891631587
 30
0.0
 11
12.28923426872852
 21
4.606870865782293
 31
0.0
  0
LINE
  5
26743
  8
0
  6
CONTINUOUS
 10
15.27930401964343
 20
2.290320323947569
 30
0.0
 11
11.79928459456078
 21
5.770339749030213
 31
0.0
  0
LINE
  5
26744
  8
0
  6
CONTINUOUS
 10
15.46335679640763
 20
2.77978675626355
 30
0.0
 11
14.48885470994921
 21
3.754288842721972
 31
0.0
  0
LINE
  5
26745
  8
0
  6
CONTINUOUS
 10
13.88507249233704
 20
4.358071060334137
 30
0.0
 11
11.30933492039305
 21
6.933808632278135
 31
0.0
  0
LINE
  5
26746
  8
0
  6
CONTINUOUS
 10
18.75840522805855
 20
0.1582575336928151
 30
0.0
 11
18.25383727664818
 21
0.6628254851031863
 31
0.0
  0
LINE
  5
26747
  8
0
  6
CONTINUOUS
 10
15.64740957317184
 20
3.269253188579531
 30
0.0
 11
14.67288388101266
 21
4.243778880738705
 31
0.0
  0
LINE
  5
26748
  8
0
  6
CONTINUOUS
 10
13.39509276772158
 20
5.521569994029786
 30
0.0
 11
10.81938524622531
 21
8.097277515526056
 31
0.0
  0
LINE
  5
26749
  8
0
  6
CONTINUOUS
 10
18.95798597883369
 20
0.6321959919978686
 30
0.0
 11
17.84825644852853
 21
1.741925522303024
 31
0.0
  0
LINE
  5
2674A
  8
0
  6
CONTINUOUS
 10
19.15756672960882
 20
1.106134450302922
 30
0.0
 11
17.44267562040888
 21
2.821025559502861
 31
0.0
  0
LINE
  5
2674B
  8
0
  6
CONTINUOUS
 10
15.83146234993604
 20
3.758719620895513
 30
0.0
 11
14.85691305207612
 21
4.733268918755439
 31
0.0
  0
LINE
  5
2674C
  8
0
  6
CONTINUOUS
 10
16.01551512670025
 20
4.248186053211494
 30
0.0
 11
15.04094222313957
 21
5.222758956772172
 31
0.0
  0
LINE
  5
2674D
  8
0
  6
CONTINUOUS
 10
12.90511304310612
 20
6.685068927725435
 30
0.0
 11
10.8270819708403
 21
8.763099999991255
 31
0.0
  0
LINE
  5
2674E
  8
0
  6
CONTINUOUS
 10
12.41513331849066
 20
7.848567861421083
 30
0.0
 11
11.50060117992049
 21
8.763099999991255
 31
0.0
  0
LINE
  5
2674F
  8
0
  6
CONTINUOUS
 10
19.35714748038395
 20
1.580072908607975
 30
0.0
 11
17.03709479228923
 21
3.900125596702697
 31
0.0
  0
LINE
  5
26750
  8
0
  6
CONTINUOUS
 10
19.55672823115909
 20
2.054011366913028
 30
0.0
 11
16.63151396416958
 21
4.979225633902534
 31
0.0
  0
LINE
  5
26751
  8
0
  6
CONTINUOUS
 10
16.19956790346445
 20
4.737652485527476
 30
0.0
 11
15.22497139420302
 21
5.712248994788904
 31
0.0
  0
LINE
  5
26752
  8
0
  6
CONTINUOUS
 10
16.38362068022866
 20
5.227118917843457
 30
0.0
 11
15.40900056526648
 21
6.201739032805637
 31
0.0
  0
LINE
  5
26753
  8
0
  6
CONTINUOUS
 10
19.75630898193422
 20
2.527949825218081
 30
0.0
 11
18.70774536448286
 21
3.576513442669441
 31
0.0
  0
LINE
  5
26754
  8
0
  6
CONTINUOUS
 10
19.95588973270936
 20
3.001888283523134
 30
0.0
 11
18.90726987211446
 21
4.050508144118028
 31
0.0
  0
LINE
  5
26755
  8
0
  6
CONTINUOUS
 10
20.15547048348449
 20
3.475826741828186
 30
0.0
 11
19.10679437974606
 21
4.524502845566614
 31
0.0
  0
LINE
  5
26756
  8
0
  6
CONTINUOUS
 10
20.35505123425962
 20
3.94976520013324
 30
0.0
 11
19.30631888737766
 21
4.998497547015201
 31
0.0
  0
LINE
  5
26757
  8
0
  6
CONTINUOUS
 10
20.55463198503475
 20
4.423703658438292
 30
0.0
 11
19.50584339500926
 21
5.472492248463787
 31
0.0
  0
LINE
  5
26758
  8
0
  6
CONTINUOUS
 10
18.37481191085755
 20
3.909446896294752
 30
0.0
 11
15.59302973632993
 21
6.691229070822371
 31
0.0
  0
LINE
  5
26759
  8
0
  6
CONTINUOUS
 10
17.96904084440766
 20
4.988737171824825
 30
0.0
 11
15.77705890739338
 21
7.180719108839104
 31
0.0
  0
LINE
  5
2675A
  8
0
  6
CONTINUOUS
 10
17.56326977795777
 20
6.068027447354899
 30
0.0
 11
15.96108807845684
 21
7.670209146855838
 31
0.0
  0
LINE
  5
2675B
  8
0
  6
CONTINUOUS
 10
17.15749871150789
 20
7.147317722884972
 30
0.0
 11
16.14511724952029
 21
8.15969918487257
 31
0.0
  0
LINE
  5
2675C
  8
0
  6
CONTINUOUS
 10
16.751727645058
 20
8.226607998415046
 30
0.0
 11
16.32914642058374
 21
8.649189222889303
 31
0.0
  0
LINE
  5
2675D
  8
0
  6
CONTINUOUS
 10
20.75421273580989
 20
4.897642116743345
 30
0.0
 11
19.70536790264086
 21
5.946486949912374
 31
0.0
  0
LINE
  5
2675E
  8
0
  6
CONTINUOUS
 10
20.95379348658502
 20
5.371580575048398
 30
0.0
 11
19.90489241027246
 21
6.42048165136096
 31
0.0
  0
LINE
  5
2675F
  8
0
  6
CONTINUOUS
 10
21.15337423736015
 20
5.845519033353452
 30
0.0
 11
20.10441691790406
 21
6.894476352809547
 31
0.0
  0
LINE
  5
26760
  8
0
  6
CONTINUOUS
 10
21.35295498813529
 20
6.319457491658505
 30
0.0
 11
20.30394142553566
 21
7.368471054258134
 31
0.0
  0
LINE
  5
26761
  8
0
  6
CONTINUOUS
 10
21.55253573891042
 20
6.793395949963558
 30
0.0
 11
20.50346593316726
 21
7.842465755706721
 31
0.0
  0
LINE
  5
26762
  8
0
  6
CONTINUOUS
 10
21.75211648968556
 20
7.267334408268612
 30
0.0
 11
20.70299044079886
 21
8.316460457155308
 31
0.0
  0
LINE
  5
26763
  8
0
  6
CONTINUOUS
 10
21.95169724046069
 20
7.741272866573663
 30
0.0
 11
20.9298701070431
 21
8.763099999991256
 31
0.0
  0
LINE
  5
26764
  8
0
  6
CONTINUOUS
 10
22.15127799123582
 20
8.215211324878716
 30
0.0
 11
21.60338931612328
 21
8.763099999991256
 31
0.0
  0
LINE
  5
26765
  8
0
  6
CONTINUOUS
 10
22.35085874201096
 20
8.689149783183769
 30
0.0
 11
22.27690852520347
 21
8.763099999991255
 31
0.0
  0
ENDBLK
  5
26857
  8
0
  0
BLOCK
  8
0
  2
*X290
 70
     1
 10
0.0
 20
0.0
 30
0.0
  3
*X290
  1

  0
LINE
  5
26767
  8
0
  6
CONTINUOUS
 10
23.19462913593892
 20
8.169917934846424
 30
0.0
 11
23.70775465517246
 21
8.683043454079957
 31
0.0
  0
LINE
  5
26768
  8
0
  6
CONTINUOUS
 10
22.64923161835078
 20
6.951001208178088
 30
0.0
 11
23.9159364069932
 21
8.217705996820516
 31
0.0
  0
LINE
  5
26769
  8
0
  6
CONTINUOUS
 10
22.10383410076263
 20
5.732084481509751
 30
0.0
 11
24.12411815881395
 21
7.752368539561078
 31
0.0
  0
LINE
  5
2676A
  8
0
  6
CONTINUOUS
 10
21.55843658317447
 20
4.513167754841414
 30
0.0
 11
24.3322999106347
 21
7.287031082301639
 31
0.0
  0
LINE
  5
2676B
  8
0
  6
CONTINUOUS
 10
21.01303906558632
 20
3.294251028173077
 30
0.0
 11
24.54048166245544
 21
6.821693625042199
 31
0.0
  0
LINE
  5
2676C
  8
0
  6
CONTINUOUS
 10
20.46764154799817
 20
2.075334301504738
 30
0.0
 11
23.28571549467848
 21
4.89340824818505
 31
0.0
  0
LINE
  5
2676D
  8
0
  6
CONTINUOUS
 10
19.92224403041002
 20
0.8564175748364002
 30
0.0
 11
22.74075865492779
 21
3.674932199354171
 31
0.0
  0
LINE
  5
2676E
  8
0
  6
CONTINUOUS
 10
23.67305085490148
 20
5.280743608408048
 30
0.0
 11
24.74866341427619
 21
6.356356167782759
 31
0.0
  0
LINE
  5
2676F
  8
0
  6
CONTINUOUS
 10
23.88118970842314
 20
4.815363252849522
 30
0.0
 11
24.95684516609694
 21
5.89101871052332
 31
0.0
  0
LINE
  5
26770
  8
0
  6
CONTINUOUS
 10
19.73925852647308
 20
-0.0000871381807288
 30
0.0
 11
23.4103456646501
 21
3.670999999996297
 31
0.0
  0
LINE
  5
26771
  8
0
  6
CONTINUOUS
 10
24.0893285619448
 20
4.349982897290997
 30
0.0
 11
25.16502691791769
 21
5.42568125326388
 31
0.0
  0
LINE
  5
26772
  8
0
  6
CONTINUOUS
 10
20.41282099582748
 20
-0.0000438779065108
 30
0.0
 11
21.64944178675636
 21
1.236576913022366
 31
0.0
  0
LINE
  5
26773
  8
0
  6
CONTINUOUS
 10
22.78126487373161
 20
2.36839999999762
 30
0.0
 11
24.08386487373029
 21
3.670999999996297
 31
0.0
  0
LINE
  5
26774
  8
0
  6
CONTINUOUS
 10
24.29746741546646
 20
3.884602541732471
 30
0.0
 11
25.37320866973843
 21
4.960343796004441
 31
0.0
  0
LINE
  5
26775
  8
0
  6
CONTINUOUS
 10
21.08638346518189
 20
-0.0000006176322938
 30
0.0
 11
21.10379033335899
 21
0.0174062505448083
 31
0.0
  0
LINE
  5
26776
  8
0
  6
CONTINUOUS
 10
23.4547840828118
 20
2.36839999999762
 30
0.0
 11
25.58139042155918
 21
4.495006338745002
 31
0.0
  0
LINE
  5
26777
  8
0
  6
CONTINUOUS
 10
29.30199999996933
 20
8.215615917155148
 30
0.0
 11
29.84948408280543
 21
8.763099999991255
 31
0.0
  0
LINE
  5
26778
  8
0
  6
CONTINUOUS
 10
24.12830329189199
 20
2.36839999999762
 30
0.0
 11
25.78957217337993
 21
4.029668881485562
 31
0.0
  0
LINE
  5
26779
  8
0
  6
CONTINUOUS
 10
29.30199999996933
 20
7.54209670807496
 30
0.0
 11
30.52300329188562
 21
8.763099999991255
 31
0.0
  0
LINE
  5
2677A
  8
0
  6
CONTINUOUS
 10
24.80182250097217
 20
2.36839999999762
 30
0.0
 11
25.99775392520067
 21
3.564331424226122
 31
0.0
  0
LINE
  5
2677B
  8
0
  6
CONTINUOUS
 10
29.30199999996933
 20
6.868577498994774
 30
0.0
 11
30.74199999996926
 21
8.308577498994712
 31
0.0
  0
LINE
  5
2677C
  8
0
  6
CONTINUOUS
 10
25.13028238392013
 20
2.023340673865392
 30
0.0
 11
26.20593567702142
 21
3.098993966966683
 31
0.0
  0
LINE
  5
2677D
  8
0
  6
CONTINUOUS
 10
25.33838066033617
 20
1.557919741201244
 30
0.0
 11
26.41411742884217
 21
2.633656509707244
 31
0.0
  0
LINE
  5
2677E
  8
0
  6
CONTINUOUS
 10
25.54647893675221
 20
1.092498808537098
 30
0.0
 11
26.62229918066291
 21
2.168319052447804
 31
0.0
  0
LINE
  5
2677F
  8
0
  6
CONTINUOUS
 10
25.75457721316825
 20
0.62707787587295
 30
0.0
 11
26.83048093248366
 21
1.702981595188365
 31
0.0
  0
LINE
  5
26780
  8
0
  6
CONTINUOUS
 10
29.30199999996933
 20
6.195058289914587
 30
0.0
 11
30.74199999996926
 21
7.635058289914522
 31
0.0
  0
LINE
  5
26781
  8
0
  6
CONTINUOUS
 10
29.30199999996933
 20
5.521539080834401
 30
0.0
 11
30.74199999996926
 21
6.961539080834331
 31
0.0
  0
LINE
  5
26782
  8
0
  6
CONTINUOUS
 10
29.30199999996933
 20
4.848019871754214
 30
0.0
 11
30.74199999996925
 21
6.288019871754143
 31
0.0
  0
LINE
  5
26783
  8
0
  6
CONTINUOUS
 10
29.30199999996933
 20
4.174500662674028
 30
0.0
 11
30.74199999996925
 21
5.614500662673953
 31
0.0
  0
LINE
  5
26784
  8
0
  6
CONTINUOUS
 10
25.96267548958429
 20
0.1616569432088024
 30
0.0
 11
27.18411854636669
 21
1.383099999991207
 31
0.0
  0
LINE
  5
26785
  8
0
  6
CONTINUOUS
 10
29.30199999996933
 20
3.500981453593841
 30
0.0
 11
30.74199999996925
 21
4.940981453593762
 31
0.0
  0
LINE
  5
26786
  8
0
  6
CONTINUOUS
 10
26.50763775544691
 20
0.0330999999912356
 30
0.0
 11
27.85763775544689
 21
1.383099999991223
 31
0.0
  0
LINE
  5
26787
  8
0
  6
CONTINUOUS
 10
29.30199999996933
 20
2.827462244513656
 30
0.0
 11
30.74199999996925
 21
4.267462244513574
 31
0.0
  0
LINE
  5
26788
  8
0
  6
CONTINUOUS
 10
27.18115696452709
 20
0.0330999999912356
 30
0.0
 11
28.55073879889363
 21
1.402681834357775
 31
0.0
  0
LINE
  5
26789
  8
0
  6
CONTINUOUS
 10
29.28241816560272
 20
2.134361201066866
 30
0.0
 11
30.74199999996924
 21
3.593943035433383
 31
0.0
  0
LINE
  5
2678A
  8
0
  6
CONTINUOUS
 10
27.85467617360728
 20
0.0330999999912356
 30
0.0
 11
30.74199999996924
 21
2.920423826353195
 31
0.0
  0
LINE
  5
2678B
  8
0
  6
CONTINUOUS
 10
28.53897559587887
 20
0.0438802131826428
 30
0.0
 11
30.73121978677781
 21
2.236124404081585
 31
0.0
  0
LINE
  5
2678C
  8
0
  6
CONTINUOUS
 10
29.45140055588722
 20
0.2827859641107988
 30
0.0
 11
30.49231403584965
 21
1.323699444073236
 31
0.0
  0
LINE
  5
2678D
  8
0
  6
CONTINUOUS
 10
19.59027867740337
 20
-0.0000967065718083
 30
0.0
 11
19.55485265190471
 21
0.035329318926844
 31
0.0
  0
LINE
  5
2678E
  8
0
  6
CONTINUOUS
 10
20.26375463176586
 20
-0.0000534518541091
 30
0.0
 11
19.76305575737534
 21
0.5006454225364014
 31
0.0
  0
LINE
  5
2678F
  8
0
  6
CONTINUOUS
 10
20.93723058612834
 20
-0.0000101971364099
 30
0.0
 11
19.97125886284597
 21
0.965961526145958
 31
0.0
  0
LINE
  5
26790
  8
0
  6
CONTINUOUS
 10
21.25514828313686
 20
0.355591314935257
 30
0.0
 11
20.1794619683166
 21
1.431277629755512
 31
0.0
  0
LINE
  5
26791
  8
0
  6
CONTINUOUS
 10
21.46338838394921
 20
0.8208704232030986
 30
0.0
 11
20.38766507378723
 21
1.896593733365069
 31
0.0
  0
LINE
  5
26792
  8
0
  6
CONTINUOUS
 10
21.67162848476155
 20
1.28614953147094
 30
0.0
 11
20.59586817925786
 21
2.361909836974626
 31
0.0
  0
LINE
  5
26793
  8
0
  6
CONTINUOUS
 10
21.8798685855739
 20
1.751428639738782
 30
0.0
 11
20.80407128472849
 21
2.827225940584183
 31
0.0
  0
LINE
  5
26794
  8
0
  6
CONTINUOUS
 10
22.08810868638624
 20
2.216707748006623
 30
0.0
 11
21.01227439019912
 21
3.292542044193739
 31
0.0
  0
LINE
  5
26795
  8
0
  6
CONTINUOUS
 10
22.60993564347543
 20
2.36839999999762
 30
0.0
 11
21.22047749566975
 21
3.757858147803296
 31
0.0
  0
LINE
  5
26796
  8
0
  6
CONTINUOUS
 10
23.28345485255561
 20
2.36839999999762
 30
0.0
 11
21.42868060114038
 21
4.223174251412853
 31
0.0
  0
LINE
  5
26797
  8
0
  6
CONTINUOUS
 10
26.29227406164219
 20
0.0330999999912356
 30
0.0
 11
25.80009199592872
 21
0.5252820657046957
 31
0.0
  0
LINE
  5
26798
  8
0
  6
CONTINUOUS
 10
23.9569740616358
 20
2.36839999999762
 30
0.0
 11
21.63688370661101
 21
4.688490355022409
 31
0.0
  0
LINE
  5
26799
  8
0
  6
CONTINUOUS
 10
26.96579327072237
 20
0.0330999999912356
 30
0.0
 11
25.2554132311971
 21
1.743480039516508
 31
0.0
  0
LINE
  5
2679A
  8
0
  6
CONTINUOUS
 10
24.63049327071599
 20
2.36839999999762
 30
0.0
 11
23.32789327071731
 21
3.670999999996297
 31
0.0
  0
LINE
  5
2679B
  8
0
  6
CONTINUOUS
 10
22.92098674744635
 20
4.077906523267254
 30
0.0
 11
21.84508681208164
 21
5.153806458631966
 31
0.0
  0
LINE
  5
2679C
  8
0
  6
CONTINUOUS
 10
27.63931247980256
 20
0.0330999999912356
 30
0.0
 11
24.0014124797975
 21
3.670999999996297
 31
0.0
  0
LINE
  5
2679D
  8
0
  6
CONTINUOUS
 10
23.129125600968
 20
4.5432868788258
 30
0.0
 11
22.05328991755227
 21
5.619122562241522
 31
0.0
  0
LINE
  5
2679E
  8
0
  6
CONTINUOUS
 10
28.31283168888275
 20
0.0330999999912356
 30
0.0
 11
24.16488385994816
 21
4.181047828925828
 31
0.0
  0
LINE
  5
2679F
  8
0
  6
CONTINUOUS
 10
23.33726445448964
 20
5.008667234384345
 30
0.0
 11
22.2614930230229
 21
6.084438665851079
 31
0.0
  0
LINE
  5
267A0
  8
0
  6
CONTINUOUS
 10
28.92085740005492
 20
0.0985934978992438
 30
0.0
 11
27.63635089796295
 21
1.383099999991217
 31
0.0
  0
LINE
  5
267A1
  8
0
  6
CONTINUOUS
 10
26.43704649509776
 20
2.582404402856405
 30
0.0
 11
23.61992702019732
 21
5.399523877756844
 31
0.0
  0
LINE
  5
267A2
  8
0
  6
CONTINUOUS
 10
23.54540330801128
 20
5.47404758994289
 30
0.0
 11
22.46969612849353
 21
6.549754769460635
 31
0.0
  0
LINE
  5
267A3
  8
0
  6
CONTINUOUS
 10
29.42225615078443
 20
0.2707139562499279
 30
0.0
 11
28.30987010704312
 21
1.383099999991234
 31
0.0
  0
LINE
  5
267A4
  8
0
  6
CONTINUOUS
 10
25.89179548232307
 20
3.801174624711282
 30
0.0
 11
22.67789923396416
 21
7.015070873070191
 31
0.0
  0
LINE
  5
267A5
  8
0
  6
CONTINUOUS
 10
29.83624534690007
 20
0.5302439692144705
 30
0.0
 11
28.85811781497101
 21
1.508371501143527
 31
0.0
  0
LINE
  5
267A6
  8
0
  6
CONTINUOUS
 10
25.34654446954838
 20
5.01994484656616
 30
0.0
 11
22.88610233943479
 21
7.480386976679748
 31
0.0
  0
LINE
  5
267A7
  8
0
  6
CONTINUOUS
 10
30.17865975401872
 20
0.8613487711760022
 30
0.0
 11
29.18888744090175
 21
1.851121084292977
 31
0.0
  0
LINE
  5
267A8
  8
0
  6
CONTINUOUS
 10
24.80129345677369
 20
6.238715068421037
 30
0.0
 11
23.09430544490542
 21
7.945703080289305
 31
0.0
  0
LINE
  5
267A9
  8
0
  6
CONTINUOUS
 10
30.45496647202376
 20
1.258561262251155
 30
0.0
 11
29.30199999996933
 21
2.411527734305588
 31
0.0
  0
LINE
  5
267AA
  8
0
  6
CONTINUOUS
 10
24.256042443999
 20
7.457485290275915
 30
0.0
 11
23.30250855037605
 21
8.411019183898862
 31
0.0
  0
LINE
  5
267AB
  8
0
  6
CONTINUOUS
 10
30.64868582078271
 20
1.738361122572387
 30
0.0
 11
29.30199999996933
 21
3.085046943385775
 31
0.0
  0
LINE
  5
267AC
  8
0
  6
CONTINUOUS
 10
23.71079143122431
 20
8.676255512130794
 30
0.0
 11
23.51071165584668
 21
8.876335287508416
 31
0.0
  0
LINE
  5
267AD
  8
0
  6
CONTINUOUS
 10
30.73802122914428
 20
2.322544923291007
 30
0.0
 11
29.30199999996933
 21
3.758566152465961
 31
0.0
  0
LINE
  5
267AE
  8
0
  6
CONTINUOUS
 10
30.74199999996924
 20
2.992085361546236
 30
0.0
 11
29.30199999996933
 21
4.432085361546148
 31
0.0
  0
LINE
  5
267AF
  8
0
  6
CONTINUOUS
 10
30.74199999996924
 20
3.665604570626419
 30
0.0
 11
29.30199999996933
 21
5.105604570626333
 31
0.0
  0
LINE
  5
267B0
  8
0
  6
CONTINUOUS
 10
30.74199999996925
 20
4.339123779706602
 30
0.0
 11
29.30199999996933
 21
5.77912377970652
 31
0.0
  0
LINE
  5
267B1
  8
0
  6
CONTINUOUS
 10
30.74199999996925
 20
5.012642988786785
 30
0.0
 11
29.30199999996933
 21
6.452642988786707
 31
0.0
  0
LINE
  5
267B2
  8
0
  6
CONTINUOUS
 10
30.74199999996925
 20
5.68616219786697
 30
0.0
 11
29.30199999996933
 21
7.126162197866894
 31
0.0
  0
LINE
  5
267B3
  8
0
  6
CONTINUOUS
 10
30.74199999996925
 20
6.359681406947153
 30
0.0
 11
29.30199999996933
 21
7.799681406947081
 31
0.0
  0
LINE
  5
267B4
  8
0
  6
CONTINUOUS
 10
30.74199999996926
 20
7.033200616027337
 30
0.0
 11
29.30199999996933
 21
8.473200616027269
 31
0.0
  0
LINE
  5
267B5
  8
0
  6
CONTINUOUS
 10
30.74199999996926
 20
7.706719825107518
 30
0.0
 11
29.68561982508552
 21
8.763099999991255
 31
0.0
  0
LINE
  5
267B6
  8
0
  6
CONTINUOUS
 10
30.74199999996926
 20
8.380239034187703
 30
0.0
 11
30.35913903416571
 21
8.763099999991255
 31
0.0
  0
ENDBLK
  5
26859
  8
0
  0
BLOCK
  8
0
  2
*X291
 70
     1
 10
0.0
 20
0.0
 30
0.0
  3
*X291
  1

  0
LINE
  5
267B8
  8
0
  6
CONTINUOUS
 10
31.64199999996833
 20
8.535058289913598
 30
0.0
 11
31.87004171004599
 21
8.763099999991255
 31
0.0
  0
LINE
  5
267B9
  8
0
  6
CONTINUOUS
 10
31.64199999996833
 20
7.861539080833412
 30
0.0
 11
32.54356091912618
 21
8.763099999991255
 31
0.0
  0
LINE
  5
267BA
  8
0
  6
CONTINUOUS
 10
31.64199999996833
 20
7.188019871753226
 30
0.0
 11
33.08199999996839
 21
8.628019871753281
 31
0.0
  0
LINE
  5
267BB
  8
0
  6
CONTINUOUS
 10
31.64199999996833
 20
6.51450066267304
 30
0.0
 11
33.08199999996839
 21
7.954500662673095
 31
0.0
  0
LINE
  5
267BC
  8
0
  6
CONTINUOUS
 10
31.64199999996833
 20
5.840981453592853
 30
0.0
 11
33.08199999996839
 21
7.280981453592908
 31
0.0
  0
LINE
  5
267BD
  8
0
  6
CONTINUOUS
 10
31.64199999996833
 20
5.167462244512667
 30
0.0
 11
33.08199999996839
 21
6.607462244512721
 31
0.0
  0
LINE
  5
267BE
  8
0
  6
CONTINUOUS
 10
31.64199999996833
 20
4.493943035432481
 30
0.0
 11
33.08199999996839
 21
5.933943035432535
 31
0.0
  0
LINE
  5
267BF
  8
0
  6
CONTINUOUS
 10
31.64199999996833
 20
3.820423826352293
 30
0.0
 11
33.08199999996839
 21
5.260423826352348
 31
0.0
  0
LINE
  5
267C0
  8
0
  6
CONTINUOUS
 10
31.64199999996833
 20
3.146904617272106
 30
0.0
 11
33.08199999996839
 21
4.586904617272161
 31
0.0
  0
LINE
  5
267C1
  8
0
  6
CONTINUOUS
 10
36.23199999996837
 20
8.410423826352325
 30
0.0
 11
36.5846761736073
 21
8.763099999991255
 31
0.0
  0
LINE
  5
267C2
  8
0
  6
CONTINUOUS
 10
36.23199999996837
 20
7.73690461727214
 30
0.0
 11
37.25819538268748
 21
8.763099999991255
 31
0.0
  0
LINE
  5
267C3
  8
0
  6
CONTINUOUS
 10
31.64257403601376
 20
2.473959444237348
 30
0.0
 11
33.08199999996839
 21
3.913385408191974
 31
0.0
  0
LINE
  5
267C4
  8
0
  6
CONTINUOUS
 10
36.23199999996837
 20
7.063385408191953
 30
0.0
 11
37.67199999996831
 21
8.503385408191894
 31
0.0
  0
LINE
  5
267C5
  8
0
  6
CONTINUOUS
 10
31.72013636841932
 20
1.87800256756272
 30
0.0
 11
33.08199999996839
 21
3.239866199111788
 31
0.0
  0
LINE
  5
267C6
  8
0
  6
CONTINUOUS
 10
36.23199999996837
 20
6.389866199111767
 30
0.0
 11
37.67199999996831
 21
7.829866199111708
 31
0.0
  0
LINE
  5
267C7
  8
0
  6
CONTINUOUS
 10
31.89042734314753
 20
1.374774333210744
 30
0.0
 11
33.08199999996839
 21
2.566346990031601
 31
0.0
  0
LINE
  5
267C8
  8
0
  6
CONTINUOUS
 10
36.23199999996837
 20
5.71634699003158
 30
0.0
 11
37.67199999996831
 21
7.156346990031521
 31
0.0
  0
LINE
  5
267C9
  8
0
  6
CONTINUOUS
 10
32.14210568064475
 20
0.952933461627778
 30
0.0
 11
33.18745552475986
 21
1.998283305742888
 31
0.0
  0
LINE
  5
267CA
  8
0
  6
CONTINUOUS
 10
36.23199999996837
 20
5.042827780951393
 30
0.0
 11
37.67199999996831
 21
6.482827780951334
 31
0.0
  0
LINE
  5
267CB
  8
0
  6
CONTINUOUS
 10
32.45820639400955
 20
0.5955149659123915
 30
0.0
 11
33.47242681921943
 21
1.60973539112227
 31
0.0
  0
LINE
  5
267CC
  8
0
  6
CONTINUOUS
 10
36.23199999996837
 20
4.369308571871207
 30
0.0
 11
37.67199999996831
 21
5.809308571871147
 31
0.0
  0
LINE
  5
267CD
  8
0
  6
CONTINUOUS
 10
32.83432456621412
 20
0.2981139290367771
 30
0.0
 11
33.89722476612215
 21
1.361014128944803
 31
0.0
  0
LINE
  5
267CE
  8
0
  6
CONTINUOUS
 10
36.23199999996837
 20
3.69578936279102
 30
0.0
 11
37.67199999996831
 21
5.135789362790962
 31
0.0
  0
LINE
  5
267CF
  8
0
  6
CONTINUOUS
 10
33.2711633111245
 20
0.0614334648669672
 30
0.0
 11
34.43247338014423
 21
1.222743533886696
 31
0.0
  0
LINE
  5
267D0
  8
0
  6
CONTINUOUS
 10
36.23199999996837
 20
3.022270153710834
 30
0.0
 11
37.67199999996831
 21
4.462270153710775
 31
0.0
  0
LINE
  5
267D1
  8
0
  6
CONTINUOUS
 10
33.76515245874577
 20
-0.1180965965919523
 30
0.0
 11
35.1587445516215
 21
1.27549549628378
 31
0.0
  0
LINE
  5
267D2
  8
0
  6
CONTINUOUS
 10
36.21639478609585
 20
2.333145730758136
 30
0.0
 11
37.67199999996831
 21
3.788750944630588
 31
0.0
  0
LINE
  5
267D3
  8
0
  6
CONTINUOUS
 10
34.34060583368432
 20
-0.2161624307335863
 30
0.0
 11
37.67199999996831
 21
3.115231735550401
 31
0.0
  0
LINE
  5
267D4
  8
0
  6
CONTINUOUS
 10
35.01698193613905
 20
-0.2133055373590427
 30
0.0
 11
37.66876712070525
 21
2.438479647207154
 31
0.0
  0
LINE
  5
267D5
  8
0
  6
CONTINUOUS
 10
35.90743367693304
 20
0.0036269943547609
 30
0.0
 11
37.51723902192366
 21
1.613432339345381
 31
0.0
  0
LINE
  5
267D6
  8
0
  6
CONTINUOUS
 10
32.55309425579761
 20
0.5074718966376706
 30
0.0
 11
32.27784730925847
 21
0.7827188431768102
 31
0.0
  0
LINE
  5
267D7
  8
0
  6
CONTINUOUS
 10
33.87496468909684
 20
-0.1408793275813673
 30
0.0
 11
31.67993083278052
 21
2.054154528734943
 31
0.0
  0
LINE
  5
267D8
  8
0
  6
CONTINUOUS
 10
34.64362813207632
 20
-0.2360235614806649
 30
0.0
 11
31.64199999996833
 21
2.765604570627322
 31
0.0
  0
LINE
  5
267D9
  8
0
  6
CONTINUOUS
 10
35.25801106796118
 20
-0.1768872882853429
 30
0.0
 11
31.64199999996833
 21
3.439123779707508
 31
0.0
  0
LINE
  5
267DA
  8
0
  6
CONTINUOUS
 10
35.79065650332146
 20
-0.0360135145654361
 30
0.0
 11
34.54143210838231
 21
1.213210880373721
 31
0.0
  0
LINE
  5
267DB
  8
0
  6
CONTINUOUS
 10
33.08199999996839
 20
2.67264298878764
 30
0.0
 11
31.64199999996833
 21
4.112642988787695
 31
0.0
  0
LINE
  5
267DC
  8
0
  6
CONTINUOUS
 10
36.25975597779143
 20
0.1684062200447833
 30
0.0
 11
35.15395110240023
 21
1.274211095435983
 31
0.0
  0
LINE
  5
267DD
  8
0
  6
CONTINUOUS
 10
33.08199999996839
 20
3.346162197867826
 30
0.0
 11
31.64199999996833
 21
4.786162197867881
 31
0.0
  0
LINE
  5
267DE
  8
0
  6
CONTINUOUS
 10
36.67226329638774
 20
0.4294181105286579
 30
0.0
 11
35.63766478748767
 21
1.464016619428737
 31
0.0
  0
LINE
  5
267DF
  8
0
  6
CONTINUOUS
 10
33.08199999996839
 20
4.019681406948012
 30
0.0
 11
31.64199999996833
 21
5.459681406948068
 31
0.0
  0
LINE
  5
267E0
  8
0
  6
CONTINUOUS
 10
37.01677749710036
 20
0.7584231188962329
 30
0.0
 11
35.99563422741351
 21
1.779566388583076
 31
0.0
  0
LINE
  5
267E1
  8
0
  6
CONTINUOUS
 10
33.08199999996839
 20
4.693200616028199
 30
0.0
 11
31.64199999996833
 21
6.133200616028255
 31
0.0
  0
LINE
  5
267E2
  8
0
  6
CONTINUOUS
 10
37.29859977568887
 20
1.1501200493879
 30
0.0
 11
36.20680593341555
 21
2.241913891661226
 31
0.0
  0
LINE
  5
267E3
  8
0
  6
CONTINUOUS
 10
33.08199999996839
 20
5.366719825108386
 30
0.0
 11
31.64199999996833
 21
6.80671982510844
 31
0.0
  0
LINE
  5
267E4
  8
0
  6
CONTINUOUS
 10
37.5148623517228
 20
1.607376682434161
 30
0.0
 11
36.23199999996837
 21
2.890239034188594
 31
0.0
  0
LINE
  5
267E5
  8
0
  6
CONTINUOUS
 10
33.08199999996839
 20
6.040239034188573
 30
0.0
 11
31.64199999996833
 21
7.480239034188627
 31
0.0
  0
LINE
  5
267E6
  8
0
  6
CONTINUOUS
 10
37.64705163358367
 20
2.148706609653477
 30
0.0
 11
36.23199999996837
 21
3.56375824326878
 31
0.0
  0
LINE
  5
267E7
  8
0
  6
CONTINUOUS
 10
33.08199999996839
 20
6.713758243268758
 30
0.0
 11
31.64199999996833
 21
8.153758243268815
 31
0.0
  0
LINE
  5
267E8
  8
0
  6
CONTINUOUS
 10
37.67199999996831
 20
2.797277452349026
 30
0.0
 11
36.23199999996837
 21
4.237277452348967
 31
0.0
  0
LINE
  5
267E9
  8
0
  6
CONTINUOUS
 10
37.67199999996831
 20
3.470796661429213
 30
0.0
 11
36.23199999996837
 21
4.910796661429154
 31
0.0
  0
LINE
  5
267EA
  8
0
  6
CONTINUOUS
 10
37.67199999996831
 20
4.144315870509399
 30
0.0
 11
36.23199999996837
 21
5.58431587050934
 31
0.0
  0
LINE
  5
267EB
  8
0
  6
CONTINUOUS
 10
33.08199999996839
 20
7.387277452348945
 30
0.0
 11
31.70617745232608
 21
8.763099999991255
 31
0.0
  0
LINE
  5
267EC
  8
0
  6
CONTINUOUS
 10
33.08199999996839
 20
8.060796661429132
 30
0.0
 11
32.37969666140626
 21
8.763099999991255
 31
0.0
  0
LINE
  5
267ED
  8
0
  6
CONTINUOUS
 10
33.08199999996839
 20
8.734315870509318
 30
0.0
 11
33.05321587048645
 21
8.763099999991255
 31
0.0
  0
LINE
  5
267EE
  8
0
  6
CONTINUOUS
 10
37.67199999996831
 20
4.817835079589585
 30
0.0
 11
36.23199999996837
 21
6.257835079589526
 31
0.0
  0
LINE
  5
267EF
  8
0
  6
CONTINUOUS
 10
37.67199999996831
 20
5.491354288669771
 30
0.0
 11
36.23199999996837
 21
6.931354288669713
 31
0.0
  0
LINE
  5
267F0
  8
0
  6
CONTINUOUS
 10
37.67199999996831
 20
6.164873497749958
 30
0.0
 11
36.23199999996837
 21
7.6048734977499
 31
0.0
  0
LINE
  5
267F1
  8
0
  6
CONTINUOUS
 10
37.67199999996831
 20
6.838392706830144
 30
0.0
 11
36.23199999996837
 21
8.278392706830086
 31
0.0
  0
LINE
  5
267F2
  8
0
  6
CONTINUOUS
 10
37.67199999996831
 20
7.511911915910332
 30
0.0
 11
36.42081191588738
 21
8.763099999991255
 31
0.0
  0
LINE
  5
267F3
  8
0
  6
CONTINUOUS
 10
37.67199999996831
 20
8.185431124990519
 30
0.0
 11
37.09433112496757
 21
8.763099999991255
 31
0.0
  0
ENDBLK
  5
2685B
  8
0
  0
BLOCK
  8
0
  2
*X292
 70
     1
 10
0.0
 20
0.0
 30
0.0
  3
*X292
  1

  0
LINE
  5
267F5
  8
0
  6
CONTINUOUS
 10
38.60499999996136
 20
8.762866199104765
 30
0.0
 11
38.71672554182345
 21
8.874591740966855
 31
0.0
  0
LINE
  5
267F6
  8
0
  6
CONTINUOUS
 10
38.60499999996136
 20
8.089346990024577
 30
0.0
 11
39.03418785440363
 21
8.518534844466847
 31
0.0
  0
LINE
  5
267F7
  8
0
  6
CONTINUOUS
 10
38.60499999996136
 20
7.41582778094439
 30
0.0
 11
39.35165016698382
 21
8.16247794796684
 31
0.0
  0
LINE
  5
267F8
  8
0
  6
CONTINUOUS
 10
38.60499999996136
 20
6.742308571864204
 30
0.0
 11
39.66911247956399
 21
7.806421051466834
 31
0.0
  0
LINE
  5
267F9
  8
0
  6
CONTINUOUS
 10
38.60499999996136
 20
6.068789362784018
 30
0.0
 11
39.98657479214418
 21
7.450364154966827
 31
0.0
  0
LINE
  5
267FA
  8
0
  6
CONTINUOUS
 10
38.60499999996136
 20
5.395270153703832
 30
0.0
 11
40.30403710472435
 21
7.09430725846682
 31
0.0
  0
LINE
  5
267FB
  8
0
  6
CONTINUOUS
 10
38.60499999996136
 20
4.721750944623645
 30
0.0
 11
40.62149941730453
 21
6.738250361966813
 31
0.0
  0
LINE
  5
267FC
  8
0
  6
CONTINUOUS
 10
38.60499999996136
 20
4.048231735543458
 30
0.0
 11
40.93896172988471
 21
6.382193465466806
 31
0.0
  0
LINE
  5
267FD
  8
0
  6
CONTINUOUS
 10
38.60499999996136
 20
3.374712526463272
 30
0.0
 11
40.02599999995994
 21
4.795712526461843
 31
0.0
  0
LINE
  5
267FE
  8
0
  6
CONTINUOUS
 10
38.60499999996136
 20
2.701193317383085
 30
0.0
 11
40.02599999995994
 21
4.122193317381657
 31
0.0
  0
LINE
  5
267FF
  8
0
  6
CONTINUOUS
 10
40.28339754687704
 20
5.053110073378947
 30
0.0
 11
41.25642404246489
 21
6.026136568966799
 31
0.0
  0
LINE
  5
26800
  8
0
  6
CONTINUOUS
 10
40.60085985945722
 20
4.697053176878939
 30
0.0
 11
41.57388635504507
 21
5.670079672466793
 31
0.0
  0
LINE
  5
26801
  8
0
  6
CONTINUOUS
 10
43.57899999995641
 20
8.348712526458318
 30
0.0
 11
43.99338747348935
 21
8.763099999991255
 31
0.0
  0
LINE
  5
26802
  8
0
  6
CONTINUOUS
 10
43.57899999995641
 20
7.675193317378131
 30
0.0
 11
44.66690668256953
 21
8.763099999991255
 31
0.0
  0
LINE
  5
26803
  8
0
  6
CONTINUOUS
 10
38.60499999996136
 20
2.027674108302898
 30
0.0
 11
40.02599999995994
 21
3.44867410830147
 31
0.0
  0
LINE
  5
26804
  8
0
  6
CONTINUOUS
 10
38.60499999996136
 20
1.354154899222712
 30
0.0
 11
40.02599999995994
 21
2.775154899221284
 31
0.0
  0
LINE
  5
26805
  8
0
  6
CONTINUOUS
 10
38.60499999996136
 20
0.6806356901425255
 30
0.0
 11
40.02599999995994
 21
2.101635690141098
 31
0.0
  0
LINE
  5
26806
  8
0
  6
CONTINUOUS
 10
38.60499999996136
 20
0.0071164810623383
 30
0.0
 11
40.02599999995994
 21
1.428116481060911
 31
0.0
  0
LINE
  5
26807
  8
0
  6
CONTINUOUS
 10
40.9183221720374
 20
4.340996280378933
 30
0.0
 11
41.89134866762525
 21
5.314022775966786
 31
0.0
  0
LINE
  5
26808
  8
0
  6
CONTINUOUS
 10
41.23578448461758
 20
3.984939383878926
 30
0.0
 11
42.20881098020543
 21
4.957965879466778
 31
0.0
  0
LINE
  5
26809
  8
0
  6
CONTINUOUS
 10
41.55324679719776
 20
3.628882487378919
 30
0.0
 11
42.52627329278561
 21
4.601908982966772
 31
0.0
  0
LINE
  5
2680A
  8
0
  6
CONTINUOUS
 10
41.87070910977793
 20
3.272825590878912
 30
0.0
 11
42.84373560536579
 21
4.245852086466765
 31
0.0
  0
LINE
  5
2680B
  8
0
  6
CONTINUOUS
 10
43.57899999995641
 20
7.001674108297943
 30
0.0
 11
44.99999999995498
 21
8.422674108296516
 31
0.0
  0
LINE
  5
2680C
  8
0
  6
CONTINUOUS
 10
43.57899999995641
 20
6.328154899217758
 30
0.0
 11
44.99999999995498
 21
7.749154899216329
 31
0.0
  0
LINE
  5
2680D
  8
0
  6
CONTINUOUS
 10
43.57899999995641
 20
5.654635690137571
 30
0.0
 11
44.99999999995498
 21
7.075635690136142
 31
0.0
  0
LINE
  5
2680E
  8
0
  6
CONTINUOUS
 10
43.57899999995641
 20
4.981116481057384
 30
0.0
 11
44.99999999995498
 21
6.402116481055955
 31
0.0
  0
LINE
  5
2680F
  8
0
  6
CONTINUOUS
 10
39.27140272797921
 20
-0.0000000000000009
 30
0.0
 11
40.02599999995994
 21
0.7545972719807246
 31
0.0
  0
LINE
  5
26810
  8
0
  6
CONTINUOUS
 10
39.9449219370594
 20
-0.0000000000000009
 30
0.0
 11
40.02599999995994
 21
0.0810780629005379
 31
0.0
  0
LINE
  5
26811
  8
0
  6
CONTINUOUS
 10
42.18817142235812
 20
2.916768694378905
 30
0.0
 11
43.16119791794597
 21
3.889795189966758
 31
0.0
  0
LINE
  5
26812
  8
0
  6
CONTINUOUS
 10
42.50563373493829
 20
2.560711797878898
 30
0.0
 11
43.47866023052615
 21
3.533738293466751
 31
0.0
  0
LINE
  5
26813
  8
0
  6
CONTINUOUS
 10
43.57899999995641
 20
4.307597271977198
 30
0.0
 11
44.99999999995498
 21
5.728597271975769
 31
0.0
  0
LINE
  5
26814
  8
0
  6
CONTINUOUS
 10
43.57899999995641
 20
3.634078062897011
 30
0.0
 11
44.99999999995498
 21
5.055078062895582
 31
0.0
  0
LINE
  5
26815
  8
0
  6
CONTINUOUS
 10
42.82309604751848
 20
2.204654901378891
 30
0.0
 11
44.99999999995498
 21
4.381558853815395
 31
0.0
  0
LINE
  5
26816
  8
0
  6
CONTINUOUS
 10
43.14055836009865
 20
1.848598004878885
 30
0.0
 11
44.99999999995498
 21
3.70803964473521
 31
0.0
  0
LINE
  5
26817
  8
0
  6
CONTINUOUS
 10
43.45802067267883
 20
1.492541108378878
 30
0.0
 11
44.99999999995498
 21
3.034520435655023
 31
0.0
  0
LINE
  5
26818
  8
0
  6
CONTINUOUS
 10
43.77548298525902
 20
1.136484211878871
 30
0.0
 11
44.99999999995498
 21
2.361001226574837
 31
0.0
  0
LINE
  5
26819
  8
0
  6
CONTINUOUS
 10
44.09294529783919
 20
0.7804273153788639
 30
0.0
 11
44.99999999995498
 21
1.687482017494649
 31
0.0
  0
LINE
  5
2681A
  8
0
  6
CONTINUOUS
 10
44.41040761041938
 20
0.4243704188788566
 30
0.0
 11
44.99999999995498
 21
1.013962808414463
 31
0.0
  0
LINE
  5
2681B
  8
0
  6
CONTINUOUS
 10
44.72786992299955
 20
0.0683135223788494
 30
0.0
 11
44.99999999995498
 21
0.340443599334276
 31
0.0
  0
LINE
  5
2681C
  8
0
  6
CONTINUOUS
 10
39.12223903415696
 20
-0.0000000000000009
 30
0.0
 11
38.60499999996136
 21
0.5172390341955961
 31
0.0
  0
LINE
  5
2681D
  8
0
  6
CONTINUOUS
 10
39.79575824323715
 20
-0.0000000000000009
 30
0.0
 11
38.60499999996136
 21
1.190758243275783
 31
0.0
  0
LINE
  5
2681E
  8
0
  6
CONTINUOUS
 10
40.02599999995994
 20
0.443277452357397
 30
0.0
 11
38.60499999996136
 21
1.864277452355969
 31
0.0
  0
LINE
  5
2681F
  8
0
  6
CONTINUOUS
 10
40.02599999995994
 20
1.116796661437583
 30
0.0
 11
38.60499999996136
 21
2.537796661436155
 31
0.0
  0
LINE
  5
26820
  8
0
  6
CONTINUOUS
 10
40.02599999995994
 20
1.79031587051777
 30
0.0
 11
38.60499999996136
 21
3.211315870516341
 31
0.0
  0
LINE
  5
26821
  8
0
  6
CONTINUOUS
 10
40.02599999995994
 20
2.463835079597956
 30
0.0
 11
38.60499999996136
 21
3.884835079596527
 31
0.0
  0
LINE
  5
26822
  8
0
  6
CONTINUOUS
 10
40.02599999995994
 20
3.137354288678143
 30
0.0
 11
38.60499999996136
 21
4.558354288676714
 31
0.0
  0
LINE
  5
26823
  8
0
  6
CONTINUOUS
 10
40.02599999995994
 20
3.810873497758329
 30
0.0
 11
38.60499999996136
 21
5.2318734977569
 31
0.0
  0
LINE
  5
26824
  8
0
  6
CONTINUOUS
 10
40.02599999995994
 20
4.484392706838515
 30
0.0
 11
38.60499999996136
 21
5.905392706837086
 31
0.0
  0
LINE
  5
26825
  8
0
  6
CONTINUOUS
 10
44.99999999995498
 20
0.183911915923658
 30
0.0
 11
41.53858364506288
 21
3.64532827081576
 31
0.0
  0
LINE
  5
26826
  8
0
  6
CONTINUOUS
 10
40.02599999995994
 20
5.157911915918703
 30
0.0
 11
38.60499999996136
 21
6.578911915917274
 31
0.0
  0
LINE
  5
26827
  8
0
  6
CONTINUOUS
 10
44.99999999995498
 20
0.8574311250038447
 30
0.0
 11
38.60499999996136
 21
7.25243112499746
 31
0.0
  0
LINE
  5
26828
  8
0
  6
CONTINUOUS
 10
44.99999999995498
 20
1.530950334084031
 30
0.0
 11
38.60499999996136
 21
7.925950334077647
 31
0.0
  0
LINE
  5
26829
  8
0
  6
CONTINUOUS
 10
44.99999999995498
 20
2.204469543164218
 30
0.0
 11
43.57899999995641
 21
3.625469543162789
 31
0.0
  0
LINE
  5
2682A
  8
0
  6
CONTINUOUS
 10
41.89876730984767
 20
5.305702233271528
 30
0.0
 11
38.60499999996136
 21
8.599469543157834
 31
0.0
  0
LINE
  5
2682B
  8
0
  6
CONTINUOUS
 10
44.99999999995498
 20
2.877988752244405
 30
0.0
 11
43.57899999995641
 21
4.298988752242975
 31
0.0
  0
LINE
  5
2682C
  8
0
  6
CONTINUOUS
 10
44.99999999995498
 20
3.551507961324591
 30
0.0
 11
43.57899999995641
 21
4.972507961323163
 31
0.0
  0
LINE
  5
2682D
  8
0
  6
CONTINUOUS
 10
44.99999999995498
 20
4.225027170404777
 30
0.0
 11
43.57899999995641
 21
5.646027170403348
 31
0.0
  0
LINE
  5
2682E
  8
0
  6
CONTINUOUS
 10
44.99999999995498
 20
4.898546379484964
 30
0.0
 11
43.57899999995641
 21
6.319546379483535
 31
0.0
  0
LINE
  5
2682F
  8
0
  6
CONTINUOUS
 10
44.99999999995498
 20
5.572065588565151
 30
0.0
 11
43.57899999995641
 21
6.993065588563722
 31
0.0
  0
LINE
  5
26830
  8
0
  6
CONTINUOUS
 10
44.99999999995498
 20
6.245584797645336
 30
0.0
 11
43.57899999995641
 21
7.666584797643908
 31
0.0
  0
LINE
  5
26831
  8
0
  6
CONTINUOUS
 10
44.99999999995498
 20
6.919104006725522
 30
0.0
 11
43.57899999995641
 21
8.340104006724093
 31
0.0
  0
LINE
  5
26832
  8
0
  6
CONTINUOUS
 10
44.99999999995498
 20
7.592623215805709
 30
0.0
 11
43.82952321576943
 21
8.763099999991255
 31
0.0
  0
LINE
  5
26833
  8
0
  6
CONTINUOUS
 10
44.99999999995498
 20
8.266142424885896
 30
0.0
 11
44.50304242484962
 21
8.763099999991255
 31
0.0
  0
ENDBLK
  5
2685D
  8
0
  0
BLOCK
  8
0
  2
*X293
 70
     1
 10
0.0
 20
0.0
 30
0.0
  3
*X293
  1

  0
LINE
  5
26835
  8
0
  6
CONTINUOUS
 10
0.0
 20
8.548461116714023
 30
0.0
 11
0.2146388832772324
 21
8.763099999991255
 31
0.0
  0
LINE
  5
26836
  8
0
  6
CONTINUOUS
 10
-0.0000000000000002
 20
7.874941907633837
 30
0.0
 11
0.8881580923574184
 21
8.763099999991255
 31
0.0
  0
LINE
  5
26837
  8
0
  6
CONTINUOUS
 10
0.0
 20
7.20142269855365
 30
0.0
 11
1.420999999998572
 21
8.622422698552223
 31
0.0
  0
LINE
  5
26838
  8
0
  6
CONTINUOUS
 10
-0.0000000000000001
 20
6.527903489473465
 30
0.0
 11
1.420999999998571
 21
7.948903489472036
 31
0.0
  0
LINE
  5
26839
  8
0
  6
CONTINUOUS
 10
-0.0000000000000002
 20
5.854384280393278
 30
0.0
 11
1.420999999998571
 21
7.275384280391849
 31
0.0
  0
LINE
  5
2683A
  8
0
  6
CONTINUOUS
 10
-0.0000000000000002
 20
5.180865071313091
 30
0.0
 11
1.420999999998571
 21
6.601865071311663
 31
0.0
  0
LINE
  5
2683B
  8
0
  6
CONTINUOUS
 10
0.0
 20
4.507345862232905
 30
0.0
 11
1.420999999998571
 21
5.928345862231477
 31
0.0
  0
LINE
  5
2683C
  8
0
  6
CONTINUOUS
 10
-0.0000000000000003
 20
3.833826653152718
 30
0.0
 11
1.420999999998571
 21
5.25482665315129
 31
0.0
  0
LINE
  5
2683D
  8
0
  6
CONTINUOUS
 10
-0.0000000000000002
 20
3.160307444072532
 30
0.0
 11
1.420999999998571
 21
4.581307444071103
 31
0.0
  0
LINE
  5
2683E
  8
0
  6
CONTINUOUS
 10
-0.0000000000000001
 20
2.486788234992345
 30
0.0
 11
1.420999999998571
 21
3.907788234990917
 31
0.0
  0
LINE
  5
2683F
  8
0
  6
CONTINUOUS
 10
-0.0000000000000006
 20
1.813269025912159
 30
0.0
 11
1.420999999998571
 21
3.234269025910731
 31
0.0
  0
LINE
  5
26840
  8
0
  6
CONTINUOUS
 10
0.0
 20
1.139749816831973
 30
0.0
 11
1.420999999998571
 21
2.560749816830544
 31
0.0
  0
LINE
  5
26841
  8
0
  6
CONTINUOUS
 10
0.0000000000000002
 20
0.466230607751787
 30
0.0
 11
1.420999999998571
 21
1.887230607750358
 31
0.0
  0
LINE
  5
26842
  8
0
  6
CONTINUOUS
 10
0.2072886013284003
 20
-0.0000000000000009
 30
0.0
 11
1.420999999998571
 21
1.213711398670171
 31
0.0
  0
LINE
  5
26843
  8
0
  6
CONTINUOUS
 10
0.8808078104085864
 20
-0.0000000000000009
 30
0.0
 11
1.420999999998571
 21
0.5401921895899839
 31
0.0
  0
LINE
  5
26844
  8
0
  6
CONTINUOUS
 10
0.0581249075061505
 20
-0.0000000000000009
 30
0.0
 11
-0.0000000000000002
 21
0.0581249075061496
 31
0.0
  0
LINE
  5
26845
  8
0
  6
CONTINUOUS
 10
0.7316441165863372
 20
-0.0000000000000009
 30
0.0
 11
-0.0000000000000002
 21
0.7316441165863363
 31
0.0
  0
LINE
  5
26846
  8
0
  6
CONTINUOUS
 10
1.405163325666523
 20
-0.0000000000000009
 30
0.0
 11
-0.0000000000000002
 21
1.405163325666523
 31
0.0
  0
LINE
  5
26847
  8
0
  6
CONTINUOUS
 10
1.420999999998572
 20
0.6576825347481381
 30
0.0
 11
-0.0000000000000001
 21
2.07868253474671
 31
0.0
  0
LINE
  5
26848
  8
0
  6
CONTINUOUS
 10
1.420999999998571
 20
1.331201743828324
 30
0.0
 11
-0.0000000000000001
 21
2.752201743826896
 31
0.0
  0
LINE
  5
26849
  8
0
  6
CONTINUOUS
 10
1.420999999998571
 20
2.004720952908511
 30
0.0
 11
-0.0000000000000002
 21
3.425720952907082
 31
0.0
  0
LINE
  5
2684A
  8
0
  6
CONTINUOUS
 10
1.420999999998571
 20
2.678240161988697
 30
0.0
 11
-0.0000000000000001
 21
4.099240161987269
 31
0.0
  0
LINE
  5
2684B
  8
0
  6
CONTINUOUS
 10
1.420999999998572
 20
3.351759371068884
 30
0.0
 11
0.0
 21
4.772759371067455
 31
0.0
  0
LINE
  5
2684C
  8
0
  6
CONTINUOUS
 10
1.420999999998571
 20
4.02527858014907
 30
0.0
 11
-0.0000000000000003
 21
5.446278580147642
 31
0.0
  0
LINE
  5
2684D
  8
0
  6
CONTINUOUS
 10
1.420999999998571
 20
4.698797789229257
 30
0.0
 11
0.0
 21
6.119797789227828
 31
0.0
  0
LINE
  5
2684E
  8
0
  6
CONTINUOUS
 10
1.420999999998571
 20
5.372316998309444
 30
0.0
 11
-0.0000000000000001
 21
6.793316998308015
 31
0.0
  0
LINE
  5
2684F
  8
0
  6
CONTINUOUS
 10
1.420999999998572
 20
6.045836207389629
 30
0.0
 11
-0.0000000000000004
 21
7.466836207388202
 31
0.0
  0
LINE
  5
26850
  8
0
  6
CONTINUOUS
 10
1.420999999998571
 20
6.719355416469816
 30
0.0
 11
0.0
 21
8.140355416468388
 31
0.0
  0
LINE
  5
26851
  8
0
  6
CONTINUOUS
 10
1.420999999998571
 20
7.392874625550003
 30
0.0
 11
0.0507746255573185
 21
8.763099999991255
 31
0.0
  0
LINE
  5
26852
  8
0
  6
CONTINUOUS
 10
1.420999999998571
 20
8.06639383463019
 30
0.0
 11
0.7242938346375052
 21
8.763099999991255
 31
0.0
  0
LINE
  5
26853
  8
0
  6
CONTINUOUS
 10
1.420999999998571
 20
8.739913043710375
 30
0.0
 11
1.397813043717691
 21
8.763099999991255
 31
0.0
  0
ENDBLK
  5
2685F
  8
0
  0
ENDSEC
  0
SECTION
  2
ENTITIES
  0
LINE
  5
244DB
  8
01
  6
CONTINUOUS
 10
3024.750012969971
 20
-395.4348625776835
 30
0.0
 11
1647.250000452995
 21
-395.4348625776835
 31
0.0
  0
LINE
  5
244DC
  8
01
  6
CONTINUOUS
 10
1625.499999886751
 20
-374.9348631755926
 30
0.0
 11
1625.499999886751
 21
18.56513077639852
 31
0.0
  0
LINE
  5
244DD
  8
01
  6
CONTINUOUS
 10
3046.500014877319
 20
18.56513077639852
 30
0.0
 11
3046.500014877319
 21
-374.9348631755926
 31
0.0
  0
LINE
  5
244DE
  8
01
  6
CONTINUOUS
 10
1580.000000810623
 20
25.02532059573446
 30
0.0
 11
1580.999999111891
 21
25.02532059573446
 31
0.0
  0
LINE
  5
244E1
  8
01
  6
CONTINUOUS
 10
1580.000000810623
 20
19.52533180140767
 30
0.0
 11
1580.000000810623
 21
25.02532059573446
 31
0.0
  0
LINE
  5
244E2
  8
01
  6
CONTINUOUS
 10
1641.500000181049
 20
19.02530843638692
 30
0.0
 11
1641.000000099093
 21
19.02530843638692
 31
0.0
  0
ARC
  5
244E5
  8
01
  6
CONTINUOUS
 10
1641.5
 20
19.52531891698914
 30
0.0
 40
0.5000000000001137
 50
270.0
 51
0.0
  0
LINE
  5
244E8
  8
01
  6
CONTINUOUS
 10
1580.999999111891
 20
25.02532059573446
 30
0.0
 11
1641.000000099093
 21
25.02532059573446
 31
0.0
  0
LINE
  5
244E9
  8
01
  6
CONTINUOUS
 10
1641.999999797344
 20
25.02532059573446
 30
0.0
 11
1641.999999797344
 21
19.52533180140767
 31
0.0
  0
LINE
  5
244EA
  8
01
  6
CONTINUOUS
 10
1641.000000099093
 20
25.02532059573446
 30
0.0
 11
1641.999999797344
 21
25.02532059573446
 31
0.0
  0
LINE
  5
244EB
  8
01
  6
CONTINUOUS
 10
1641.000000099093
 20
19.02530843638692
 30
0.0
 11
1580.999999111891
 21
19.02530843638692
 31
0.0
  0
LINE
  5
244ED
  8
01
  6
CONTINUOUS
 10
1580.999999111891
 20
19.02530843638692
 30
0.0
 11
1580.500001823902
 21
19.02530843638692
 31
0.0
  0
ARC
  5
244EE
  8
01
  6
CONTINUOUS
 10
1580.5
 20
19.52531891698914
 30
0.0
 40
0.5
 50
180.0
 51
270.0
  0
LINE
  5
244EF
  8
01
  6
CONTINUOUS
 10
3030.999946212768
 20
25.02532059573446
 30
0.0
 11
3091.000008201599
 21
25.02532059573446
 31
0.0
  0
LINE
  5
244F3
  8
01
  6
CONTINUOUS
 10
3091.000008201599
 20
19.02530843638692
 30
0.0
 11
3030.999946212768
 21
19.02530843638692
 31
0.0
  0
LINE
  5
244F6
  8
01
  6
CONTINUOUS
 10
3091.499971961975
 20
19.02530843638692
 30
0.0
 11
3091.000008201599
 21
19.02530843638692
 31
0.0
  0
ARC
  5
244F8
  8
01
  6
CONTINUOUS
 10
3091.5
 20
19.52531891698914
 30
0.0
 40
0.5
 50
270.0
 51
0.0
  0
LINE
  5
244F9
  8
01
  6
CONTINUOUS
 10
3030.999946212768
 20
19.02530843638692
 30
0.0
 11
3030.499982452392
 21
19.02530843638692
 31
0.0
  0
ARC
  5
244FA
  8
01
  6
CONTINUOUS
 10
3030.5
 20
19.52531891698914
 30
0.0
 40
0.5
 50
180.0
 51
270.0
  0
LINE
  5
244FC
  8
01
  6
CONTINUOUS
 10
3030.000018692017
 20
19.52533180140767
 30
0.0
 11
3030.000018692017
 21
25.02532059573446
 31
0.0
  0
LINE
  5
244FD
  8
01
  6
CONTINUOUS
 10
3030.000018692017
 20
25.02532059573446
 30
0.0
 11
3030.999946212768
 21
25.02532059573446
 31
0.0
  0
LINE
  5
244FE
  8
01
  6
CONTINUOUS
 10
3092.000054931641
 20
25.02532059573446
 30
0.0
 11
3092.000054931641
 21
19.52533180140767
 31
0.0
  0
LINE
  5
244FF
  8
01
  6
CONTINUOUS
 10
3091.000008201599
 20
25.02532059573446
 30
0.0
 11
3092.000054931641
 21
25.02532059573446
 31
0.0
  0
LINE
  5
24513
  8
01
  6
CONTINUOUS
 10
3023.500012969971
 20
-396.9348637548752
 30
0.0
 11
1646.000000452995
 21
-396.9348637548752
 31
0.0
  0
LINE
  5
24516
  8
01
  6
CONTINUOUS
 10
3024.750012969971
 20
-396.9348637548752
 30
0.0
 11
3024.750012969971
 21
-395.6577895370789
 31
0.0
  0
LINE
  5
24517
  8
01
  6
CONTINUOUS
 10
3024.750012969971
 20
-395.6577895370789
 30
0.0
 11
3024.750012969971
 21
-395.4348625776835
 31
0.0
  0
LINE
  5
24519
  8
01
  6
CONTINUOUS
 10
1646.000000452995
 20
-423.4348634419508
 30
0.0
 11
1646.000000452995
 21
-397.2348632452555
 31
0.0
  0
LINE
  5
2451B
  8
01
  6
CONTINUOUS
 10
3025.99995098114
 20
-423.4348634419508
 30
0.0
 11
3025.99995098114
 21
-397.2348632452555
 31
0.0
  0
LINE
  5
2451C
  8
01
  6
CONTINUOUS
 10
1646.000000452995
 20
-396.9348637548752
 30
0.0
 11
3025.99995098114
 21
-396.9348637548752
 31
0.0
  0
LINE
  5
2451D
  8
01
  6
CONTINUOUS
 10
3025.99995098114
 20
-424.4348617432184
 30
0.0
 11
1646.000000452995
 21
-424.4348617432184
 31
0.0
  0
LINE
  5
2451E
  8
01
  6
CONTINUOUS
 10
1623.999999640882
 20
18.56513077639852
 30
0.0
 11
1623.999999640882
 21
-374.9348631755926
 31
0.0
  0
LINE
  5
24520
  8
01
  6
CONTINUOUS
 10
1624.280047407746
 20
18.56513077639852
 30
0.0
 11
1623.999999640882
 21
18.56513077639852
 31
0.0
  0
LINE
  5
24522
  8
01
  6
CONTINUOUS
 10
1625.277072927356
 20
18.56513077639852
 30
0.0
 11
1624.280047407746
 21
18.56513077639852
 31
0.0
  0
LINE
  5
24523
  8
01
  6
CONTINUOUS
 10
1625.499999886751
 20
18.56513077639852
 30
0.0
 11
1625.277072927356
 21
18.56513077639852
 31
0.0
  0
LINE
  5
24525
  8
01
  6
CONTINUOUS
 10
3048.000025367737
 20
18.56513077639852
 30
0.0
 11
3047.720002746582
 21
18.56513077639852
 31
0.0
  0
LINE
  5
24526
  8
01
  6
CONTINUOUS
 10
3048.000025367737
 20
18.56513077639852
 30
0.0
 11
3048.000025367737
 21
-374.9348631755926
 31
0.0
  0
LINE
  5
24528
  8
01
  6
CONTINUOUS
 10
3047.720002746582
 20
18.56513077639852
 30
0.0
 11
3046.722936248779
 21
18.56513077639852
 31
0.0
  0
LINE
  5
24529
  8
01
  6
CONTINUOUS
 10
3046.722936248779
 20
18.56513077639852
 30
0.0
 11
3046.500014877319
 21
18.56513077639852
 31
0.0
  0
LINE
  5
2452A
  8
01
  6
CONTINUOUS
 10
3074.500012016296
 20
-374.9348631755926
 30
0.0
 11
3048.299955940246
 21
-374.9348631755926
 31
0.0
  0
LINE
  5
2452B
  8
01
  6
CONTINUOUS
 10
3075.500058746338
 20
19.02530843638692
 30
0.0
 11
3075.500058746338
 21
-374.9348631755926
 31
0.0
  0
LINE
  5
2452C
  8
01
  6
CONTINUOUS
 10
3048.000025367737
 20
-374.9348631755926
 30
0.0
 11
3048.000025367737
 21
19.02530843638692
 31
0.0
  0
LINE
  5
2452D
  8
01
  6
CONTINUOUS
 10
1623.700000150502
 20
-374.9348631755926
 30
0.0
 11
1597.499999022484
 21
-374.9348631755926
 31
0.0
  0
LINE
  5
2452E
  8
01
  6
CONTINUOUS
 10
1596.500000721216
 20
-374.9348631755926
 30
0.0
 11
1596.500000721216
 21
19.02530843638692
 31
0.0
  0
LINE
  5
2452F
  8
01
  6
CONTINUOUS
 10
1623.999999640882
 20
19.02530843638692
 30
0.0
 11
1623.999999640882
 21
-374.9348631755926
 31
0.0
  0
LINE
  5
24534
  8
01
  6
CONTINUOUS
 10
1646.000000452995
 20
-423.9348644552298
 30
0.0
 11
1646.000000452995
 21
-424.4348617432184
 31
0.0
  0
ARC
  5
24535
  8
01
  6
CONTINUOUS
 10
1645.5
 20
-424.4348631813933
 30
0.0
 40
0.5
 50
270.0
 51
0.0
  0
LINE
  5
24539
  8
01
  6
CONTINUOUS
 10
1645.500000371039
 20
-424.9348627564974
 30
0.0
 11
1576.499999210983
 21
-424.9348631813933
 31
0.0
  0
LINE
  5
2453A
  8
01
  6
CONTINUOUS
 10
1597.000001734495
 20
-374.9348631755926
 30
0.0
 11
1624.499999722838
 21
-374.9348631755926
 31
0.0
  0
LINE
  5
2453E
  8
01
  6
CONTINUOUS
 10
1646.000000452995
 20
-396.4348627415962
 30
0.0
 11
1646.000000452995
 21
-423.9348644552298
 31
0.0
  0
LINE
  5
24541
  8
01
  6
CONTINUOUS
 10
1595.999999210983
 20
-392.9348631813933
 30
0.0
 11
1595.999999707937
 21
-375.434863257549
 31
0.0
  0
LINE
  5
24547
  8
01
  6
CONTINUOUS
 10
1646.000000452995
 20
-395.4348625776835
 30
0.0
 11
1646.000000452995
 21
-396.4348627415962
 31
0.0
  0
ARC
  5
24549
  8
01
  6
CONTINUOUS
 10
1645.5
 20
-395.4348631813933
 30
0.0
 40
0.5
 50
0.0
 51
90.0
  0
LINE
  5
2454B
  8
01
  6
CONTINUOUS
 10
1628.000000296533
 20
-394.9348634270497
 30
0.0
 11
1645.500000371039
 21
-394.9348634270497
 31
0.0
  0
ARC
  5
2454C
  8
01
  6
CONTINUOUS
 10
1628.0
 20
-392.9348631813933
 30
0.0
 40
2.0
 50
180.0
 51
270.0
  0
LINE
  5
2454E
  8
01
  6
CONTINUOUS
 10
1624.499999722838
 20
-374.9348631755926
 30
0.0
 11
1625.499999886751
 21
-374.9348631755926
 31
0.0
  0
ARC
  5
2454F
  8
01
  6
CONTINUOUS
 10
1625.5
 20
-375.4348631813932
 30
0.0
 40
0.4999999999998863
 50
0.0
 51
90.0
  0
LINE
  5
24551
  8
01
  6
CONTINUOUS
 10
1625.999999968707
 20
-375.434863257549
 30
0.0
 11
1625.999999968707
 21
-392.9348630992241
 31
0.0
  0
LINE
  5
24552
  8
01
  6
CONTINUOUS
 10
1596.500000721216
 20
-374.9348631755926
 30
0.0
 11
1597.000001734495
 21
-374.9348631755926
 31
0.0
  0
ARC
  5
24553
  8
01
  6
CONTINUOUS
 10
1596.5
 20
-375.4348631813932
 30
0.0
 40
0.5
 50
90.0
 51
180.0
  0
LINE
  5
24556
  8
01
  6
CONTINUOUS
 10
3025.99995098114
 20
-423.9348644552298
 30
0.0
 11
3025.99995098114
 21
-396.4348627415962
 31
0.0
  0
LINE
  5
24558
  8
01
  6
CONTINUOUS
 10
3025.99995098114
 20
-396.4348627415962
 30
0.0
 11
3025.99995098114
 21
-395.4348625776835
 31
0.0
  0
ARC
  5
24559
  8
01
  6
CONTINUOUS
 10
3026.5
 20
-395.4348631813933
 30
0.0
 40
0.5
 50
90.0
 51
180.0
  0
LINE
  5
24563
  8
01
  6
CONTINUOUS
 10
3026.500033950806
 20
-394.9348634270497
 30
0.0
 11
3043.99995765686
 21
-394.9348634270497
 31
0.0
  0
ARC
  5
24565
  8
01
  6
CONTINUOUS
 10
3026.5
 20
-424.4348631813933
 30
0.0
 40
0.5
 50
180.0
 51
270.0
  0
LINE
  5
24566
  8
01
  6
CONTINUOUS
 10
3025.99995098114
 20
-424.4348617432184
 30
0.0
 11
3025.99995098114
 21
-423.9348644552298
 31
0.0
  0
LINE
  5
24568
  8
01
  6
CONTINUOUS
 10
3074.500012016296
 20
-424.9348627564974
 30
0.0
 11
3026.500033950806
 21
-424.9348627564974
 31
0.0
  0
ARC
  5
24569
  8
01
  6
CONTINUOUS
 10
3044.0
 20
-392.9348631813933
 30
0.0
 40
2.0
 50
270.0
 51
0.0
  0
ARC
  5
2456C
  8
01
  6
CONTINUOUS
 10
3046.5
 20
-375.4348631813932
 30
0.0
 40
0.4999999999998863
 50
90.0
 51
180.0
  0
LINE
  5
2456D
  8
01
  6
CONTINUOUS
 10
3046.500014877319
 20
-374.9348631755926
 30
0.0
 11
3047.499942398071
 21
-374.9348631755926
 31
0.0
  0
LINE
  5
2456F
  8
01
  6
CONTINUOUS
 10
3046.000051116943
 20
-392.9348630992241
 30
0.0
 11
3046.000051116943
 21
-375.434863257549
 31
0.0
  0
LINE
  5
24570
  8
01
  6
CONTINUOUS
 10
3047.499942398071
 20
-374.9348631755926
 30
0.0
 11
3074.999975776672
 21
-374.9348631755926
 31
0.0
  0
LINE
  5
24574
  8
01
  6
CONTINUOUS
 10
3076.000022506714
 20
-375.434863257549
 30
0.0
 11
3076.000022506714
 21
-423.4348634419508
 31
0.0
  0
LINE
  5
24575
  8
01
  6
CONTINUOUS
 10
3074.999975776672
 20
-374.9348631755926
 30
0.0
 11
3075.500058746338
 21
-374.9348631755926
 31
0.0
  0
ARC
  5
24576
  8
01
  6
CONTINUOUS
 10
3075.5
 20
-375.4348631813932
 30
0.0
 40
0.5
 50
0.0
 51
90.0
  0
ARC
  5
24577
  8
01
  6
CONTINUOUS
 10
3074.5
 20
-423.4348631813933
 30
0.0
 40
1.500000000000114
 50
270.0
 51
0.0
  0
LINE
  5
24580
  8
01
  6
CONTINUOUS
 10
3205.967225294112
 20
25.02532059573446
 30
0.0
 11
3205.967225294112
 21
19.52533180140767
 31
0.0
  0
LINE
  5
24583
  8
01
  6
CONTINUOUS
 10
3172.967226637079
 20
25.02532059573446
 30
0.0
 11
3205.967225294112
 21
25.02532059573446
 31
0.0
  0
ARC
  5
2458D
  8
01
  6
CONTINUOUS
 10
3205.467226748647
 20
19.52531891698914
 30
0.0
 40
0.5
 50
270.0
 51
0.0
  0
LINE
  5
2458E
  8
01
  6
CONTINUOUS
 10
3205.467228006123
 20
19.02530843638692
 30
0.0
 11
3204.967226992844
 21
19.02530843638692
 31
0.0
  0
LINE
  5
24590
  8
01
  6
CONTINUOUS
 10
3204.967226992844
 20
19.02530843638692
 30
0.0
 11
3173.967226800992
 21
19.02530843638692
 31
0.0
  0
LINE
  5
24593
  8
01
  6
CONTINUOUS
 10
3172.967226637079
 20
19.52533180140767
 30
0.0
 11
3172.967226637079
 21
25.02532059573446
 31
0.0
  0
LINE
  5
24595
  8
01
  6
CONTINUOUS
 10
3173.967226800992
 20
19.02530843638692
 30
0.0
 11
3173.467226719035
 21
19.02530843638692
 31
0.0
  0
ARC
  5
24596
  8
01
  6
CONTINUOUS
 10
3173.467226748647
 20
19.52531891698914
 30
0.0
 40
0.5
 50
180.0
 51
270.0
  0
LINE
  5
245A2
  8
01
  6
CONTINUOUS
 10
3182.467227030097
 20
-374.9348631755926
 30
0.0
 11
3182.467227030097
 21
19.02530843638692
 31
0.0
  0
LINE
  5
245A3
  8
01
  6
CONTINUOUS
 10
3196.467226530908
 20
19.02530843638692
 30
0.0
 11
3196.467226530908
 21
-374.9348631755926
 31
0.0
  0
LINE
  5
245A4
  8
01
  6
CONTINUOUS
 10
3195.467226366995
 20
-374.9348631755926
 30
0.0
 11
3183.46722719401
 21
-374.9348631755926
 31
0.0
  0
LINE
  5
245A5
  8
01
  6
CONTINUOUS
 10
3196.967227544187
 20
-423.4348634419508
 30
0.0
 11
3196.967227544187
 21
-423.9348644552298
 31
0.0
  0
ARC
  5
245A6
  8
01
  6
CONTINUOUS
 10
3195.967226748652
 20
-423.9348631813932
 30
0.0
 40
1.000000000000114
 50
270.0
 51
0.0
  0
ARC
  5
245AA
  8
01
  6
CONTINUOUS
 10
3182.967226748652
 20
-423.9348631813932
 30
0.0
 40
1.000000000000114
 50
180.0
 51
270.0
  0
LINE
  5
245AB
  8
01
  6
CONTINUOUS
 10
3181.967226948141
 20
-423.9348644552298
 30
0.0
 11
3181.967226948141
 21
-423.4348634419508
 31
0.0
  0
LINE
  5
245B1
  8
01
  6
CONTINUOUS
 10
3182.967227112053
 20
-374.9348631755926
 30
0.0
 11
3195.967227380274
 21
-374.9348631755926
 31
0.0
  0
LINE
  5
245B4
  8
01
  6
CONTINUOUS
 10
3182.467227030097
 20
-374.9348631755926
 30
0.0
 11
3182.967227112053
 21
-374.9348631755926
 31
0.0
  0
ARC
  5
245B6
  8
01
  6
CONTINUOUS
 10
3182.467226748652
 20
-375.4348631813932
 30
0.0
 40
0.5
 50
90.0
 51
180.0
  0
LINE
  5
245B7
  8
01
  6
CONTINUOUS
 10
3195.967227380274
 20
-424.9348627564974
 30
0.0
 11
3182.967227112053
 21
-424.9348627564974
 31
0.0
  0
LINE
  5
245B9
  8
01
  6
CONTINUOUS
 10
3196.967227544187
 20
-375.434863257549
 30
0.0
 11
3196.967227544187
 21
-423.4348634419508
 31
0.0
  0
LINE
  5
245BA
  8
01
  6
CONTINUOUS
 10
3195.967227380274
 20
-374.9348631755926
 30
0.0
 11
3196.467226530908
 21
-374.9348631755926
 31
0.0
  0
ARC
  5
245BB
  8
01
  6
CONTINUOUS
 10
3196.467226748652
 20
-375.4348631813932
 30
0.0
 40
0.5
 50
0.0
 51
90.0
  0
LINE
  5
245BC
  8
01
  6
CONTINUOUS
 10
3181.967226948141
 20
-423.4348634419508
 30
0.0
 11
3181.967226948141
 21
-375.434863257549
 31
0.0
  0
ARC
  5
245C3
  8
01
  6
CONTINUOUS
 10
1581.0
 20
-566.5812035995493
 30
0.0
 40
1.0
 50
180.0
 51
270.0
  0
LINE
  5
245C7
  8
01
  6
CONTINUOUS
 10
1641.000000099093
 20
-567.5812021450147
 30
0.0
 11
1580.999999111891
 21
-567.5812021450147
 31
0.0
  0
ARC
  5
245CA
  8
01
  6
CONTINUOUS
 10
1641.0
 20
-566.5812035995493
 30
0.0
 40
1.0
 50
270.0
 51
0.0
  0
LINE
  5
245CB
  8
01
  6
CONTINUOUS
 10
1580.000000810623
 20
-566.5812038437471
 30
0.0
 11
1580.000000810623
 21
-558.5812036399028
 31
0.0
  0
LINE
  5
245CF
  8
01
  6
CONTINUOUS
 10
1641.999999797344
 20
-535.5812036518946
 30
0.0
 11
1641.999999797344
 21
-543.5812037990436
 31
0.0
  0
LINE
  5
245D0
  8
01
  6
CONTINUOUS
 10
1641.999999797344
 20
-558.58120439509
 30
0.0
 11
1641.999999797344
 21
-566.5812038437471
 31
0.0
  0
LINE
  5
245D4
  8
01
  6
CONTINUOUS
 10
1580.999999111891
 20
-534.5812034879818
 30
0.0
 11
1641.000000099093
 21
-534.5812034879818
 31
0.0
  0
ARC
  5
245D7
  8
01
  6
CONTINUOUS
 10
1641.0
 20
-535.5812035995493
 30
0.0
 40
1.0
 50
0.0
 51
90.0
  0
ARC
  5
245D8
  8
01
  6
CONTINUOUS
 10
1581.0
 20
-535.5812035995493
 30
0.0
 40
1.0
 50
90.0
 51
180.0
  0
LINE
  5
245D9
  8
01
  6
CONTINUOUS
 10
3092.000054931641
 20
-535.5812036518946
 30
0.0
 11
3092.000054931641
 21
-566.5812038437471
 31
0.0
  0
LINE
  5
245DA
  8
01
  6
CONTINUOUS
 10
3092.000054931641
 20
-566.5812038437471
 30
0.0
 11
3091.499971961975
 21
-566.5812038437471
 31
0.0
  0
ARC
  5
245DF
  8
01
  6
CONTINUOUS
 10
3031.0
 20
-566.5812035995493
 30
0.0
 40
1.0
 50
180.0
 51
270.0
  0
LINE
  5
245E1
  8
01
  6
CONTINUOUS
 10
3030.000018692017
 20
-566.5812038437471
 30
0.0
 11
3030.000018692017
 21
-558.58120439509
 31
0.0
  0
LINE
  5
245E2
  8
01
  6
CONTINUOUS
 10
3030.000018692017
 20
-543.5812037990436
 30
0.0
 11
3030.000018692017
 21
-535.5812036518946
 31
0.0
  0
ARC
  5
245E9
  8
01
  6
CONTINUOUS
 10
3091.0
 20
-566.5812035995493
 30
0.0
 40
1.0
 50
270.0
 51
0.0
  0
LINE
  5
245EB
  8
01
  6
CONTINUOUS
 10
3091.000008201599
 20
-567.5812021450147
 30
0.0
 11
3030.999946212769
 21
-567.5812021450147
 31
0.0
  0
LINE
  5
245ED
  8
01
  6
CONTINUOUS
 10
3030.999946212769
 20
-534.5812034879818
 30
0.0
 11
3091.000008201599
 21
-534.5812034879818
 31
0.0
  0
ARC
  5
245EF
  8
01
  6
CONTINUOUS
 10
3031.0
 20
-535.5812035995493
 30
0.0
 40
1.0
 50
90.0
 51
180.0
  0
ARC
  5
245F0
  8
01
  6
CONTINUOUS
 10
3091.0
 20
-535.5812035995493
 30
0.0
 40
1.0
 50
0.0
 51
90.0
  0
LINE
  5
245F1
  8
01
  6
CONTINUOUS
 10
3025.999950981141
 20
-558.0812033818111
 30
0.0
 11
1646.000000452995
 21
-558.0812033818111
 31
0.0
  0
LINE
  5
245F4
  8
01
  6
CONTINUOUS
 10
3025.999950981141
 20
-557.0812032178983
 30
0.0
 11
3025.999950981141
 21
-545.0812040449127
 31
0.0
  0
LINE
  5
245F5
  8
01
  6
CONTINUOUS
 10
1646.000000452995
 20
-557.0812032178983
 30
0.0
 11
1646.000000452995
 21
-545.0812040449127
 31
0.0
  0
LINE
  5
245F6
  8
01
  6
CONTINUOUS
 10
1646.000000452995
 20
-544.081203881
 30
0.0
 11
3025.999950981141
 21
-544.081203881
 31
0.0
  0
LINE
  5
245FD
  8
01
  6
CONTINUOUS
 10
1645.500000371039
 20
-558.58120439509
 30
0.0
 11
1576.499999210984
 21
-558.5812035995493
 31
0.0
  0
LINE
  5
24604
  8
01
  6
CONTINUOUS
 10
1646.000000452995
 20
-544.5812039629564
 30
0.0
 11
1646.000000452995
 21
-557.5812042311773
 31
0.0
  0
LINE
  5
24606
  8
01
  6
CONTINUOUS
 10
1646.000000452995
 20
-557.5812042311773
 30
0.0
 11
1646.000000452995
 21
-558.0812033818111
 31
0.0
  0
ARC
  5
24607
  8
01
  6
CONTINUOUS
 10
1645.5
 20
-558.0812035995493
 30
0.0
 40
0.5000000000000568
 50
270.0
 51
0.0
  0
LINE
  5
24609
  8
01
  6
CONTINUOUS
 10
1576.499999210984
 20
-543.5812035995493
 30
0.0
 11
1645.500000371039
 21
-543.5812037990436
 31
0.0
  0
LINE
  5
2460D
  8
01
  6
CONTINUOUS
 10
1646.000000452995
 20
-544.081203881
 30
0.0
 11
1646.000000452995
 21
-544.5812039629564
 31
0.0
  0
ARC
  5
2460E
  8
01
  6
CONTINUOUS
 10
1645.5
 20
-544.0812035995493
 30
0.0
 40
0.5
 50
0.0
 51
90.0
  0
LINE
  5
24614
  8
01
  6
CONTINUOUS
 10
3074.500012016297
 20
-558.58120439509
 30
0.0
 11
3026.500033950806
 21
-558.58120439509
 31
0.0
  0
LINE
  5
24617
  8
01
  6
CONTINUOUS
 10
3025.999950981141
 20
-557.5812042311773
 30
0.0
 11
3025.999950981141
 21
-544.5812039629564
 31
0.0
  0
LINE
  5
24619
  8
01
  6
CONTINUOUS
 10
3025.999950981141
 20
-558.0812033818111
 30
0.0
 11
3025.999950981141
 21
-557.5812042311773
 31
0.0
  0
ARC
  5
2461A
  8
01
  6
CONTINUOUS
 10
3026.5
 20
-558.0812035995548
 30
0.0
 40
0.5
 50
180.0
 51
270.0
  0
LINE
  5
2461D
  8
01
  6
CONTINUOUS
 10
3076.000022506714
 20
-544.5812039629564
 30
0.0
 11
3076.000022506714
 21
-557.5812042311773
 31
0.0
  0
LINE
  5
2461E
  8
01
  6
CONTINUOUS
 10
3074.999975776673
 20
-558.58120439509
 30
0.0
 11
3074.500012016297
 21
-558.58120439509
 31
0.0
  0
ARC
  5
2461F
  8
01
  6
CONTINUOUS
 10
3075.0
 20
-557.581203599555
 30
0.0
 40
1.000000000000114
 50
270.0
 51
0.0
  0
LINE
  5
24622
  8
01
  6
CONTINUOUS
 10
3026.500033950806
 20
-543.5812037990436
 30
0.0
 11
3074.500012016297
 21
-543.5812037990436
 31
0.0
  0
LINE
  5
24623
  8
01
  6
CONTINUOUS
 10
3025.999950981141
 20
-544.5812039629564
 30
0.0
 11
3025.999950981141
 21
-544.081203881
 31
0.0
  0
ARC
  5
24624
  8
01
  6
CONTINUOUS
 10
3026.5
 20
-544.0812035995548
 30
0.0
 40
0.5
 50
90.0
 51
180.0
  0
LINE
  5
24625
  8
01
  6
CONTINUOUS
 10
3074.500012016297
 20
-543.5812037990436
 30
0.0
 11
3074.999975776673
 21
-543.5812037990436
 31
0.0
  0
ARC
  5
24626
  8
01
  6
CONTINUOUS
 10
3075.0
 20
-544.581203599555
 30
0.0
 40
1.0
 50
0.0
 51
90.0
  0
LINE
  5
2462B
  8
01
 10
1647.250000452995
 20
-395.4348625776835
 30
0.0
 11
1647.250000452995
 21
-396.9348637548752
 31
0.0
  0
CIRCLE
  5
24ECA
  8
01
 10
1591.000040554402
 20
-551.0812340990873
 30
0.0
 40
2.25
  0
LINE
  5
24ECB
  8
1CENTER
 10
1587.624998939037
 20
-551.0812037478208
 30
0.0
 11
1594.374998939037
 21
-551.0812037478208
 31
0.0
  0
LINE
  5
24ECC
  8
1CENTER
 10
1590.999998939037
 20
-554.4562037478208
 30
0.0
 11
1590.999998939037
 21
-547.7062037478208
 31
0.0
  0
CIRCLE
  5
24ECD
  8
01
 10
1631.000040554402
 20
-551.0812340990873
 30
0.0
 40
2.25
  0
LINE
  5
24ECE
  8
1CENTER
 10
1627.624998939037
 20
-551.0812037478208
 30
0.0
 11
1634.374998939037
 21
-551.0812037478208
 31
0.0
  0
LINE
  5
24ECF
  8
1CENTER
 10
1630.999998939037
 20
-554.4562037478208
 30
0.0
 11
1630.999998939037
 21
-547.7062037478208
 31
0.0
  0
CIRCLE
  5
24ED0
  8
01
 10
3040.999994110464
 20
-551.0812340990873
 30
0.0
 40
2.25
  0
LINE
  5
24ED1
  8
1CENTER
 10
3037.624952495099
 20
-551.0812037478208
 30
0.0
 11
3044.374952495099
 21
-551.0812037478208
 31
0.0
  0
LINE
  5
24ED2
  8
1CENTER
 10
3040.999952495099
 20
-554.4562037478208
 30
0.0
 11
3040.999952495099
 21
-547.7062037478208
 31
0.0
  0
CIRCLE
  5
24ED3
  8
01
 10
3080.999994110464
 20
-551.0812340990873
 30
0.0
 40
2.25
  0
LINE
  5
24ED4
  8
1CENTER
 10
3077.624952495099
 20
-551.0812037478208
 30
0.0
 11
3084.374952495099
 21
-551.0812037478208
 31
0.0
  0
LINE
  5
24ED5
  8
1CENTER
 10
3080.999952495099
 20
-554.4562037478208
 30
0.0
 11
3080.999952495099
 21
-547.7062037478208
 31
0.0
  0
TEXT
  5
24ED6
  8
1TEXT
 10
1754.038063936617
 20
-52.47525372166203
 30
0.0
 40
40.0
  1
AC-903-※-2901
 72
     2
 11
2242.075100973654
 21
-52.47525372166203
 31
0.0
 73
     1
  0
TEXT
  5
24ED7
  8
1TEXT
 10
1715.075100973654
 20
-104.975253721662
 30
0.0
 40
20.0
  1
※には色品番が入ります。
 72
     2
 11
1983.741767640321
 21
-104.975253721662
 31
0.0
 73
     1
  0
LINE
  5
25AB5
  8
01
  6
PHANTOM2
 10
1582.650000810623
 20
25.02532059573445
 30
0.0
 11
1591.000000810623
 21
25.02532059573445
 31
0.0
  0
LINE
  5
25ABA
  8
01
  6
PHANTOM2
 10
1631.000000810623
 20
25.02532059573445
 30
0.0
 11
1639.350000810623
 21
25.02532059573445
 31
0.0
  0
LINE
  5
25ABE
  8
01
  6
PHANTOM2
 10
1581.650000810623
 20
25.02532059573445
 30
0.0
 11
1582.650000810623
 21
25.02532059573445
 31
0.0
  0
LINE
  5
25AC0
  8
01
  6
PHANTOM2
 10
1581.650000810623
 20
22.02532059573445
 30
0.0
 11
1581.650000810623
 21
25.02532059573445
 31
0.0
  0
LINE
  5
25AC1
  8
01
  6
PHANTOM2
 10
1640.350000810623
 20
25.02532059573445
 30
0.0
 11
1640.350000810623
 21
22.02532059573445
 31
0.0
  0
LINE
  5
25AC3
  8
01
  6
PHANTOM2
 10
1639.350000810623
 20
25.02532059573445
 30
0.0
 11
1640.350000810623
 21
25.02532059573445
 31
0.0
  0
LINE
  5
25AC4
  8
01
  6
PHANTOM2
 10
1639.350000810623
 20
21.52532059573445
 30
0.0
 11
1616.200000810623
 21
21.52532059573445
 31
0.0
  0
LINE
  5
25AC7
  8
01
  6
PHANTOM2
 10
1582.650000810623
 20
21.52532059573445
 30
0.0
 11
1582.150000810623
 21
21.52532059573445
 31
0.0
  0
LINE
  5
25AC8
  8
01
  6
PHANTOM2
 10
1582.150000810623
 20
21.52532059573445
 30
0.0
 11
1581.650000810623
 21
22.02532059573445
 31
0.0
  0
LINE
  5
25AC9
  8
01
  6
PHANTOM2
 10
1639.850000810623
 20
21.52532059573445
 30
0.0
 11
1639.350000810623
 21
21.52532059573445
 31
0.0
  0
LINE
  5
25ACA
  8
01
  6
PHANTOM2
 10
1639.850000810623
 20
21.52532059573445
 30
0.0
 11
1640.350000810623
 21
22.02532059573445
 31
0.0
  0
LINE
  5
25ACC
  8
01
  6
PHANTOM2
 10
1591.000000810623
 20
25.02532059573445
 30
0.0
 11
1631.000000810623
 21
25.02532059573445
 31
0.0
  0
ARC
  5
25AD0
  8
01
  6
PHANTOM2
 10
1616.200000810623
 20
20.52532059573445
 30
0.0
 40
1.0
 50
90.0
 51
180.0
  0
ARC
  5
25AD3
  8
01
  6
PHANTOM2
 10
1597.300000810623
 20
20.52532059573445
 30
0.0
 40
1.0
 50
0.0
 51
90.0
  0
LINE
  5
25AD8
  8
01
  6
PHANTOM2
 10
1615.200000810623
 20
20.52532059573445
 30
0.0
 11
1615.200000810623
 21
-8.474679404265547
 31
0.0
  0
LINE
  5
25ADA
  8
01
  6
PHANTOM2
 10
1598.300000810623
 20
-8.474679404265547
 30
0.0
 11
1598.300000810623
 21
20.52532059573445
 31
0.0
  0
LINE
  5
25ADB
  8
01
  6
PHANTOM2
 10
1613.700000810623
 20
-9.474679404265547
 30
0.0
 11
1599.800000810623
 21
-9.474679404265547
 31
0.0
  0
LINE
  5
25ADE
  8
01
  6
PHANTOM2
 10
1614.200000810623
 20
-9.474679404265547
 30
0.0
 11
1613.700000810623
 21
-9.474679404265547
 31
0.0
  0
LINE
  5
25ADF
  8
01
  6
PHANTOM2
 10
1614.200000810623
 20
-9.474679404265547
 30
0.0
 11
1615.200000810623
 21
-8.474679404265547
 31
0.0
  0
LINE
  5
25AE0
  8
01
  6
PHANTOM2
 10
1599.800000810623
 20
-9.474679404265547
 30
0.0
 11
1599.300000810623
 21
-9.474679404265547
 31
0.0
  0
LINE
  5
25AE1
  8
01
  6
PHANTOM2
 10
1598.300000810623
 20
-8.474679404265547
 30
0.0
 11
1599.300000810623
 21
-9.474679404265547
 31
0.0
  0
LINE
  5
25AE2
  8
01
  6
PHANTOM2
 10
3175.617225965595
 20
21.5253205957344
 30
0.0
 11
3175.117225965595
 21
21.5253205957344
 31
0.0
  0
LINE
  5
25AE3
  8
01
  6
PHANTOM2
 10
3175.117225965595
 20
21.5253205957344
 30
0.0
 11
3174.617225965595
 21
22.0253205957344
 31
0.0
  0
LINE
  5
25AE7
  8
01
  6
PHANTOM2
 10
3174.617225965595
 20
22.0253205957344
 30
0.0
 11
3174.617225965595
 21
25.02532059573446
 31
0.0
  0
LINE
  5
25AE8
  8
01
  6
PHANTOM2
 10
3174.617225965595
 20
25.02532059573446
 30
0.0
 11
3175.617225965595
 21
25.02532059573446
 31
0.0
  0
LINE
  5
25AEA
  8
01
  6
PHANTOM2
 10
3204.317225965595
 20
22.0253205957344
 30
0.0
 11
3203.817225965595
 21
21.5253205957344
 31
0.0
  0
LINE
  5
25AEB
  8
01
  6
PHANTOM2
 10
3203.817225965595
 20
21.5253205957344
 30
0.0
 11
3203.317225965595
 21
21.5253205957344
 31
0.0
  0
LINE
  5
25AF3
  8
01
  6
PHANTOM2
 10
3175.617225965595
 20
25.02532059573446
 30
0.0
 11
3203.317225965595
 21
25.02532059573446
 31
0.0
  0
LINE
  5
25AF6
  8
01
  6
PHANTOM2
 10
3204.317225965595
 20
25.02532059573446
 30
0.0
 11
3204.317225965595
 21
22.0253205957344
 31
0.0
  0
LINE
  5
25AF7
  8
01
  6
PHANTOM2
 10
3203.317225965595
 20
25.02532059573446
 30
0.0
 11
3204.317225965595
 21
25.02532059573446
 31
0.0
  0
ARC
  5
25B01
  8
01
  6
PHANTOM2
 10
3183.117225965595
 20
20.5253205957344
 30
0.0
 40
1.0
 50
0.0
 51
90.0
  0
ARC
  5
25B04
  8
01
  6
PHANTOM2
 10
3195.817225965595
 20
20.5253205957344
 30
0.0
 40
1.0
 50
90.0
 51
180.0
  0
LINE
  5
25B08
  8
01
  6
PHANTOM2
 10
3193.817225965595
 20
-9.4746794042656
 30
0.0
 11
3193.317225965595
 21
-9.4746794042656
 31
0.0
  0
LINE
  5
25B0B
  8
01
  6
PHANTOM2
 10
3193.817225965595
 20
-9.4746794042656
 30
0.0
 11
3194.817225965595
 21
-8.4746794042656
 31
0.0
  0
LINE
  5
25B0D
  8
01
  6
PHANTOM2
 10
3194.817225965595
 20
20.5253205957344
 30
0.0
 11
3194.817225965595
 21
-8.4746794042656
 31
0.0
  0
LINE
  5
25B11
  8
01
  6
PHANTOM2
 10
3193.317225965595
 20
-9.4746794042656
 30
0.0
 11
3185.617225965595
 21
-9.4746794042656
 31
0.0
  0
LINE
  5
25B14
  8
01
  6
PHANTOM2
 10
3184.117225965595
 20
-8.4746794042656
 30
0.0
 11
3184.117225965595
 21
20.5253205957344
 31
0.0
  0
LINE
  5
25B16
  8
01
  6
PHANTOM2
 10
3185.617225965595
 20
-9.4746794042656
 30
0.0
 11
3185.117225965595
 21
-9.4746794042656
 31
0.0
  0
LINE
  5
25B17
  8
01
  6
PHANTOM2
 10
3185.117225965595
 20
-9.4746794042656
 30
0.0
 11
3184.117225965595
 21
-8.4746794042656
 31
0.0
  0
LINE
  5
25B47
  8
01
  6
PHANTOM2
 10
3175.617225965595
 20
21.5253205957344
 30
0.0
 11
3183.117225965595
 21
21.5253205957344
 31
0.0
  0
LINE
  5
25B48
  8
01
  6
PHANTOM2
 10
3203.317225965595
 20
21.5253205957344
 30
0.0
 11
3195.817225965595
 21
21.5253205957344
 31
0.0
  0
LINE
  5
25B4F
  8
01
  6
PHANTOM2
 10
1597.300000810623
 20
21.52532059573445
 30
0.0
 11
1582.650000810623
 21
21.52532059573445
 31
0.0
  0
LINE
  5
25B57
  8
01
  6
PHANTOM2
 10
1617.699999934435
 20
6.225307125084782
 30
0.0
 11
1617.699999934435
 21
13.82530712508469
 31
0.0
  0
LINE
  5
25B58
  8
01
  6
PHANTOM2
 10
1617.699999934435
 20
13.82530712508469
 30
0.0
 11
1616.699999934435
 21
13.82530712508469
 31
0.0
  0
LINE
  5
25B59
  8
01
  6
PHANTOM2
 10
1616.699999934435
 20
13.82530712508469
 30
0.0
 11
1616.699999934435
 21
6.225307125084782
 31
0.0
  0
LINE
  5
25B5A
  8
01
  6
PHANTOM2
 10
1616.699999934435
 20
6.225307125084782
 30
0.0
 11
1617.699999934435
 21
6.225307125084782
 31
0.0
  0
LINE
  5
25B5C
  8
01
  6
PHANTOM2
 10
1617.699991790545
 20
-1.474646935063902
 30
0.0
 11
1617.699996444242
 21
-3.474693470961938
 31
0.0
  0
LINE
  5
25B5D
  8
01
  6
PHANTOM2
 10
1617.700003424628
 20
-6.474693470961483
 30
0.0
 11
1617.700008078109
 21
-8.474646935063447
 31
0.0
  0
LINE
  5
25B5E
  8
01
  6
PHANTOM2
 10
1617.699999934435
 20
-8.774693470961665
 30
0.0
 11
1617.699999934435
 21
-1.174693470961756
 31
0.0
  0
LINE
  5
25B5F
  8
01
  6
PHANTOM2
 10
1617.699999934435
 20
-1.174693470961756
 30
0.0
 11
1616.699999934435
 21
-1.174693470961756
 31
0.0
  0
LINE
  5
25B60
  8
01
  6
PHANTOM2
 10
1616.699999934435
 20
-1.174693470961756
 30
0.0
 11
1616.699999934435
 21
-8.774693470961665
 31
0.0
  0
LINE
  5
25B61
  8
01
  6
PHANTOM2
 10
1616.699999934435
 20
-8.774693470961665
 30
0.0
 11
1617.699999934435
 21
-8.774693470961665
 31
0.0
  0
LINE
  5
25B64
  8
01
  6
PHANTOM2
 10
3089.349950623512
 20
25.02532059573445
 30
0.0
 11
3080.999950623512
 21
25.02532059573445
 31
0.0
  0
LINE
  5
25B65
  8
01
  6
PHANTOM2
 10
3040.999950623512
 20
25.02532059573445
 30
0.0
 11
3032.649950623512
 21
25.02532059573445
 31
0.0
  0
LINE
  5
25B66
  8
01
  6
PHANTOM2
 10
3090.349950623512
 20
25.02532059573445
 30
0.0
 11
3089.349950623512
 21
25.02532059573445
 31
0.0
  0
LINE
  5
25B67
  8
01
  6
PHANTOM2
 10
3090.349950623512
 20
22.02532059573445
 30
0.0
 11
3090.349950623512
 21
25.02532059573445
 31
0.0
  0
LINE
  5
25B68
  8
01
  6
PHANTOM2
 10
3031.649950623512
 20
25.02532059573445
 30
0.0
 11
3031.649950623512
 21
22.02532059573445
 31
0.0
  0
LINE
  5
25B69
  8
01
  6
PHANTOM2
 10
3032.649950623512
 20
25.02532059573445
 30
0.0
 11
3031.649950623512
 21
25.02532059573445
 31
0.0
  0
LINE
  5
25B6A
  8
01
  6
PHANTOM2
 10
3032.649950623512
 20
21.52532059573445
 30
0.0
 11
3055.799950623512
 21
21.52532059573445
 31
0.0
  0
LINE
  5
25B6B
  8
01
  6
PHANTOM2
 10
3089.349950623512
 20
21.52532059573445
 30
0.0
 11
3089.849950623512
 21
21.52532059573445
 31
0.0
  0
LINE
  5
25B6C
  8
01
  6
PHANTOM2
 10
3089.849950623512
 20
21.52532059573445
 30
0.0
 11
3090.349950623512
 21
22.02532059573445
 31
0.0
  0
LINE
  5
25B6D
  8
01
  6
PHANTOM2
 10
3032.149950623512
 20
21.52532059573445
 30
0.0
 11
3032.649950623512
 21
21.52532059573445
 31
0.0
  0
LINE
  5
25B6E
  8
01
  6
PHANTOM2
 10
3032.149950623512
 20
21.52532059573445
 30
0.0
 11
3031.649950623512
 21
22.02532059573445
 31
0.0
  0
LINE
  5
25B6F
  8
01
  6
PHANTOM2
 10
3080.999950623512
 20
25.02532059573445
 30
0.0
 11
3040.999950623512
 21
25.02532059573445
 31
0.0
  0
ARC
  5
25B70
  8
01
  6
PHANTOM2
 10
3055.799950623512
 20
20.52532059573445
 30
0.0
 40
1.0
 50
0.0
 51
90.0
  0
ARC
  5
25B71
  8
01
  6
PHANTOM2
 10
3074.699950623512
 20
20.52532059573445
 30
0.0
 40
1.0
 50
90.0
 51
180.0
  0
LINE
  5
25B72
  8
01
  6
PHANTOM2
 10
3056.799950623512
 20
20.52532059573445
 30
0.0
 11
3056.799950623512
 21
-8.474679404265547
 31
0.0
  0
LINE
  5
25B73
  8
01
  6
PHANTOM2
 10
3073.699950623512
 20
-8.474679404265547
 30
0.0
 11
3073.699950623512
 21
20.52532059573445
 31
0.0
  0
LINE
  5
25B74
  8
01
  6
PHANTOM2
 10
3058.299950623512
 20
-9.474679404265547
 30
0.0
 11
3072.199950623512
 21
-9.474679404265547
 31
0.0
  0
LINE
  5
25B75
  8
01
  6
PHANTOM2
 10
3057.799950623512
 20
-9.474679404265547
 30
0.0
 11
3058.299950623512
 21
-9.474679404265547
 31
0.0
  0
LINE
  5
25B76
  8
01
  6
PHANTOM2
 10
3057.799950623512
 20
-9.474679404265547
 30
0.0
 11
3056.799950623512
 21
-8.474679404265547
 31
0.0
  0
LINE
  5
25B77
  8
01
  6
PHANTOM2
 10
3072.199950623512
 20
-9.474679404265547
 30
0.0
 11
3072.699950623512
 21
-9.474679404265547
 31
0.0
  0
LINE
  5
25B78
  8
01
  6
PHANTOM2
 10
3073.699950623512
 20
-8.474679404265547
 30
0.0
 11
3072.699950623512
 21
-9.474679404265547
 31
0.0
  0
LINE
  5
25B79
  8
01
  6
PHANTOM2
 10
3074.699950623512
 20
21.52532059573445
 30
0.0
 11
3089.349950623512
 21
21.52532059573445
 31
0.0
  0
LINE
  5
25B7B
  8
01
  6
PHANTOM2
 10
3054.2999514997
 20
6.225307125084782
 30
0.0
 11
3054.2999514997
 21
13.82530712508469
 31
0.0
  0
LINE
  5
25B7C
  8
01
  6
PHANTOM2
 10
3054.2999514997
 20
13.82530712508469
 30
0.0
 11
3055.2999514997
 21
13.82530712508469
 31
0.0
  0
LINE
  5
25B7D
  8
01
  6
PHANTOM2
 10
3055.2999514997
 20
13.82530712508469
 30
0.0
 11
3055.2999514997
 21
6.225307125084782
 31
0.0
  0
LINE
  5
25B7E
  8
01
  6
PHANTOM2
 10
3055.2999514997
 20
6.225307125084782
 30
0.0
 11
3054.2999514997
 21
6.225307125084782
 31
0.0
  0
LINE
  5
25B80
  8
01
  6
PHANTOM2
 10
3054.299959643591
 20
-1.474646935063902
 30
0.0
 11
3054.299954989894
 21
-3.474693470961938
 31
0.0
  0
LINE
  5
25B81
  8
01
  6
PHANTOM2
 10
3054.299948009507
 20
-6.474693470961483
 30
0.0
 11
3054.299943356027
 21
-8.474646935063447
 31
0.0
  0
LINE
  5
25B82
  8
01
  6
PHANTOM2
 10
3054.2999514997
 20
-8.774693470961665
 30
0.0
 11
3054.2999514997
 21
-1.174693470961756
 31
0.0
  0
LINE
  5
25B83
  8
01
  6
PHANTOM2
 10
3054.2999514997
 20
-1.174693470961756
 30
0.0
 11
3055.2999514997
 21
-1.174693470961756
 31
0.0
  0
LINE
  5
25B84
  8
01
  6
PHANTOM2
 10
3055.2999514997
 20
-1.174693470961756
 30
0.0
 11
3055.2999514997
 21
-8.774693470961665
 31
0.0
  0
LINE
  5
25B85
  8
01
  6
PHANTOM2
 10
3055.2999514997
 20
-8.774693470961665
 30
0.0
 11
3054.2999514997
 21
-8.774693470961665
 31
0.0
  0
TEXT
  5
25BDF
  8
1TEXT
 10
1718.70117488535
 20
-156.6419203883291
 30
0.0
 40
20.0
  1
取付け可能な下地については取扱説明書をご参照ください。
 72
     2
 11
2347.367841552017
 21
-156.6419203883291
 31
0.0
 73
     1
  0
LINE
  5
25C04
  8
01
  6
CONTINUOUS
 10
197.7102428175508
 20
-395.4348625776834
 30
0.0
 11
1574.749998757988
 21
-395.4348625776835
 31
0.0
  0
LINE
  5
25C10
  8
01
  6
CONTINUOUS
 10
198.4999862410127
 20
-396.9348637548752
 30
0.0
 11
1575.999998757988
 21
-396.9348637548752
 31
0.0
  0
LINE
  5
25C13
  8
01
  6
CONTINUOUS
 10
1575.999998757988
 20
-423.4348634419508
 30
0.0
 11
1575.999998757988
 21
-397.2348632452555
 31
0.0
  0
LINE
  5
25C15
  8
01
  6
CONTINUOUS
 10
1575.999998757988
 20
-396.9348637548752
 30
0.0
 11
197.0000482298433
 21
-396.9348637548752
 31
0.0
  0
LINE
  5
25C16
  8
01
  6
CONTINUOUS
 10
197.0000482298433
 20
-424.4348617432184
 30
0.0
 11
1575.999998757988
 21
-424.4348617432184
 31
0.0
  0
LINE
  5
25C1E
  8
01
  6
CONTINUOUS
 10
1575.999998757988
 20
-423.9348644552298
 30
0.0
 11
1575.999998757988
 21
-424.4348617432184
 31
0.0
  0
ARC
  5
25C1F
  8
01
  6
CONTINUOUS
 10
1576.499999210983
 20
-424.4348631813933
 30
0.0
 40
0.5
 50
180.0
 51
270.0
  0
LINE
  5
25C20
  8
01
  6
CONTINUOUS
 10
1575.999998757988
 20
-396.4348627415962
 30
0.0
 11
1575.999998757988
 21
-423.9348644552298
 31
0.0
  0
LINE
  5
25C21
  8
01
  6
CONTINUOUS
 10
1575.999998757988
 20
-395.4348625776835
 30
0.0
 11
1575.999998757988
 21
-396.4348627415962
 31
0.0
  0
ARC
  5
25C22
  8
01
  6
CONTINUOUS
 10
1576.499999210983
 20
-395.4348631813933
 30
0.0
 40
0.5
 50
90.0
 51
180.0
  0
LINE
  5
25C33
  8
01
 10
1574.749998757988
 20
-395.4348625776835
 30
0.0
 11
1574.749998757988
 21
-396.9348637548752
 31
0.0
  0
LINE
  5
25C5E
  8
01
  6
CONTINUOUS
 10
1593.99999891445
 20
-394.9348634270497
 30
0.0
 11
1576.499998839945
 21
-394.9348634270497
 31
0.0
  0
ARC
  5
25C5F
  8
01
  6
CONTINUOUS
 10
1593.999999210983
 20
-392.9348631813933
 30
0.0
 40
2.0
 50
270.0
 51
0.0
  0
LINE
  5
25C6A
  8
01
  6
CONTINUOUS
 10
196.0000482298433
 20
-558.0812033818111
 30
0.0
 11
1575.999998757988
 21
-558.0812033818111
 31
0.0
  0
LINE
  5
25C6C
  8
01
  6
CONTINUOUS
 10
1575.999998757988
 20
-557.0812032178983
 30
0.0
 11
1575.999998757988
 21
-545.0812040449127
 31
0.0
  0
LINE
  5
25C6D
  8
01
  6
CONTINUOUS
 10
1575.999998757988
 20
-544.081203881
 30
0.0
 11
196.0000482298433
 21
-544.081203881
 31
0.0
  0
LINE
  5
25C6E
  8
01
  6
CONTINUOUS
 10
1575.999998757988
 20
-544.5812039629564
 30
0.0
 11
1575.999998757988
 21
-557.5812042311773
 31
0.0
  0
LINE
  5
25C6F
  8
01
  6
CONTINUOUS
 10
1575.999998757988
 20
-557.5812042311773
 30
0.0
 11
1575.999998757988
 21
-558.0812033818111
 31
0.0
  0
ARC
  5
25C70
  8
01
  6
CONTINUOUS
 10
1576.499999210984
 20
-558.0812035995493
 30
0.0
 40
0.5000000000000568
 50
180.0
 51
270.0
  0
LINE
  5
25C71
  8
01
  6
CONTINUOUS
 10
1575.999998757988
 20
-544.081203881
 30
0.0
 11
1575.999998757988
 21
-544.5812039629564
 31
0.0
  0
ARC
  5
25C72
  8
01
  6
CONTINUOUS
 10
1576.499999210984
 20
-544.0812035995493
 30
0.0
 40
0.5
 50
90.0
 51
180.0
  0
LINE
  5
25C85
  8
01
  6
CONTINUOUS
 10
1580.000000810623
 20
-543.5812036096686
 30
0.0
 11
1580.000000810623
 21
-535.5812036518946
 31
0.0
  0
ARC
  5
26134
  8
01
 10
3173.967227743681
 20
-439.9348631813932
 30
0.0
 40
1.000000000000114
 50
180.0
 51
270.0
  0
ARC
  5
26135
  8
01
 10
3204.967227743681
 20
-379.9348631813932
 30
0.0
 40
1.0
 50
0.0
 51
90.0
  0
ARC
  5
26136
  8
01
 10
3204.967227743681
 20
-439.9348631813932
 30
0.0
 40
1.000000000000114
 50
270.0
 51
0.0
  0
LINE
  5
26137
  8
01
 10
3204.967227691336
 20
-440.9348616538114
 30
0.0
 11
3173.967227499484
 21
-440.9348616538114
 31
0.0
  0
LINE
  5
26138
  8
01
 10
3205.967227855249
 20
-379.9348632966644
 30
0.0
 11
3205.967227855249
 21
-439.9348596272534
 31
0.0
  0
LINE
  5
26139
  8
01
 10
3173.967227499484
 20
-378.9348631327516
 30
0.0
 11
3181.967226948141
 21
-378.9348631327516
 31
0.0
  0
LINE
  5
2613A
  8
01
 10
3196.967227544187
 20
-378.9348631327516
 30
0.0
 11
3204.967227691336
 21
-378.9348631327516
 31
0.0
  0
ARC
  5
2613B
  8
01
 10
3173.967227743681
 20
-379.9348631813932
 30
0.0
 40
1.0
 50
90.0
 51
180.0
  0
LINE
  5
2613C
  8
01
 10
3172.967229198216
 20
-439.9348596272534
 30
0.0
 11
3172.967229198216
 21
-379.9348632966644
 31
0.0
  0
CIRCLE
  5
2613D
  8
01
 10
3189.467197244143
 20
-389.9348008326347
 30
0.0
 40
2.25
  0
LINE
  5
2613E
  8
1CENTER
 10
3189.46722759541
 20
-386.5597592172694
 30
0.0
 11
3189.46722759541
 21
-393.3097592172694
 31
0.0
  0
LINE
  5
2613F
  8
1CENTER
 10
3186.09222759541
 20
-389.9347592172694
 30
0.0
 11
3192.84222759541
 21
-389.9347592172694
 31
0.0
  0
CIRCLE
  5
26140
  8
01
 10
3189.467197244143
 20
-429.9348008326347
 30
0.0
 40
2.25
  0
LINE
  5
26141
  8
1CENTER
 10
3189.46722759541
 20
-426.5597592172694
 30
0.0
 11
3189.46722759541
 21
-433.3097592172694
 31
0.0
  0
LINE
  5
26142
  8
1CENTER
 10
3186.09222759541
 20
-429.9347592172694
 30
0.0
 11
3192.84222759541
 21
-429.9347592172694
 31
0.0
  0
CIRCLE
  5
26144
  8
01
 10
3189.467197244143
 20
-389.9348008326347
 30
0.0
 40
2.25
  0
LINE
  5
26145
  8
1CENTER
 10
3189.46722759541
 20
-386.5597592172694
 30
0.0
 11
3189.46722759541
 21
-393.3097592172694
 31
0.0
  0
LINE
  5
26146
  8
1CENTER
 10
3186.09222759541
 20
-389.9347592172694
 30
0.0
 11
3192.84222759541
 21
-389.9347592172694
 31
0.0
  0
CIRCLE
  5
26147
  8
01
 10
3189.467197244143
 20
-429.9348008326347
 30
0.0
 40
2.25
  0
LINE
  5
26148
  8
1CENTER
 10
3189.46722759541
 20
-426.5597592172694
 30
0.0
 11
3189.46722759541
 21
-433.3097592172694
 31
0.0
  0
LINE
  5
26149
  8
1CENTER
 10
3186.09222759541
 20
-429.9347592172694
 30
0.0
 11
3192.84222759541
 21
-429.9347592172694
 31
0.0
  0
LINE
  5
26163
  8
01
 10
197.0000482298433
 20
-379.434863214708
 30
0.0
 11
197.0000482298433
 21
-379.9348632966644
 31
0.0
  0
ARC
  5
26164
  8
01
 10
196.5000736891393
 20
-379.4348631813932
 30
0.0
 40
0.5
 50
0.0
 51
90.0
  0
LINE
  5
26165
  8
01
 10
191.0001254774629
 20
-440.9348616538114
 30
0.0
 11
191.0001254774629
 21
-439.9348596272534
 31
0.0
  0
LINE
  5
26166
  8
01
 10
196.5000844694673
 20
-440.9348616538114
 30
0.0
 11
191.0001254774629
 21
-440.9348616538114
 31
0.0
  0
LINE
  5
26167
  8
01
 10
191.0001254774629
 20
-439.9348596272534
 30
0.0
 11
191.0001254774629
 21
-379.9348632966644
 31
0.0
  0
LINE
  5
26168
  8
01
 10
197.0000482298433
 20
-439.9348596272534
 30
0.0
 11
197.0000482298433
 21
-440.4348606405324
 31
0.0
  0
ARC
  5
26169
  8
01
 10
196.5000736891393
 20
-440.4348631813932
 30
0.0
 40
0.5000000000001137
 50
270.0
 51
0.0
  0
LINE
  5
2616A
  8
01
 10
197.0000482298433
 20
-379.9348632966644
 30
0.0
 11
197.0000482298433
 21
-439.9348596272534
 31
0.0
  0
LINE
  5
2616B
  8
01
 10
191.0001254774629
 20
-379.9348632966644
 30
0.0
 11
191.0001254774629
 21
-378.9348631327516
 31
0.0
  0
LINE
  5
2616C
  8
01
 10
191.0001254774629
 20
-378.9348631327516
 30
0.0
 11
196.5000844694673
 21
-378.9348631327516
 31
0.0
  0
LINE
  5
2616D
  8
01
 10
190.960309574753
 20
-429.934861713416
 30
0.0
 11
191.0001254774629
 21
-429.934861713416
 31
0.0
  0
LINE
  5
2616E
  8
01
 10
190.960309574753
 20
-389.9348626074857
 30
0.0
 11
191.0001254774629
 21
-389.9348626074857
 31
0.0
  0
LINE
  5
2616F
  8
01
 10
197.7102428175513
 20
-395.4348625776834
 30
0.0
 11
197.7102428175508
 21
-396.6548169193334
 31
0.0
  0
LINE
  5
26170
  8
01
 10
197.7102428175508
 20
-396.6548169193334
 30
0.0
 11
197.7102428175508
 21
-396.9348637548751
 31
0.0
  0
LINE
  5
26171
  8
01
 10
197.7102428175508
 20
-395.4348625776834
 30
0.0
 11
197.7102428175508
 21
-395.6577895370788
 31
0.0
  0
LINE
  5
26174
  8
01
  6
PHANTOM2
 10
191.0001254774629
 20
-438.2848621194726
 30
0.0
 11
191.0001254774629
 21
-429.9348621194727
 31
0.0
  0
LINE
  5
26175
  8
01
  6
PHANTOM2
 10
191.0001254774629
 20
-389.9348621194727
 30
0.0
 11
191.0001254774629
 21
-381.5848621194725
 31
0.0
  0
LINE
  5
26176
  8
01
  6
PHANTOM2
 10
191.0001254774629
 20
-439.2848621194726
 30
0.0
 11
191.0001254774629
 21
-438.2848621194726
 31
0.0
  0
LINE
  5
26177
  8
01
  6
PHANTOM2
 10
194.0001254774629
 20
-439.2848621194726
 30
0.0
 11
191.0001254774629
 21
-439.2848621194726
 31
0.0
  0
LINE
  5
26178
  8
01
  6
PHANTOM2
 10
191.0001254774629
 20
-380.5848621194725
 30
0.0
 11
194.0001254774629
 21
-380.5848621194725
 31
0.0
  0
LINE
  5
26179
  8
01
  6
PHANTOM2
 10
191.0001254774629
 20
-381.5848621194725
 30
0.0
 11
191.0001254774629
 21
-380.5848621194725
 31
0.0
  0
LINE
  5
2617A
  8
01
  6
PHANTOM2
 10
194.5001254774629
 20
-381.5848621194725
 30
0.0
 11
194.5001254774629
 21
-404.7348621194726
 31
0.0
  0
LINE
  5
2617B
  8
01
  6
PHANTOM2
 10
194.5001254774629
 20
-438.2848621194726
 30
0.0
 11
194.5001254774629
 21
-438.7848621194726
 31
0.0
  0
LINE
  5
2617C
  8
01
  6
PHANTOM2
 10
194.5001254774629
 20
-438.7848621194726
 30
0.0
 11
194.0001254774629
 21
-439.2848621194726
 31
0.0
  0
LINE
  5
2617D
  8
01
  6
PHANTOM2
 10
194.5001254774629
 20
-381.0848621194725
 30
0.0
 11
194.5001254774629
 21
-381.5848621194725
 31
0.0
  0
LINE
  5
2617E
  8
01
  6
PHANTOM2
 10
194.5001254774629
 20
-381.0848621194725
 30
0.0
 11
194.0001254774629
 21
-380.5848621194725
 31
0.0
  0
LINE
  5
2617F
  8
01
  6
PHANTOM2
 10
191.0001254774629
 20
-429.9348621194727
 30
0.0
 11
191.0001254774629
 21
-389.9348621194727
 31
0.0
  0
ARC
  5
26180
  8
01
  6
PHANTOM2
 10
195.5001254774629
 20
-404.7348621194726
 30
0.0
 40
1.0
 50
180.0
 51
270.0
  0
ARC
  5
26181
  8
01
  6
PHANTOM2
 10
195.5001254774629
 20
-423.6348621194727
 30
0.0
 40
1.0
 50
90.0
 51
180.0
  0
LINE
  5
26182
  8
01
  6
PHANTOM2
 10
195.5001254774629
 20
-405.7348621194726
 30
0.0
 11
224.5001254774629
 21
-405.7348621194726
 31
0.0
  0
LINE
  5
26183
  8
01
  6
PHANTOM2
 10
224.5001254774629
 20
-422.6348621194727
 30
0.0
 11
195.5001254774629
 21
-422.6348621194727
 31
0.0
  0
LINE
  5
26184
  8
01
  6
PHANTOM2
 10
225.5001254774629
 20
-407.2348621194726
 30
0.0
 11
225.5001254774629
 21
-421.1348621194727
 31
0.0
  0
LINE
  5
26185
  8
01
  6
PHANTOM2
 10
225.5001254774629
 20
-406.7348621194726
 30
0.0
 11
225.5001254774629
 21
-407.2348621194726
 31
0.0
  0
LINE
  5
26186
  8
01
  6
PHANTOM2
 10
225.5001254774629
 20
-406.7348621194726
 30
0.0
 11
224.5001254774629
 21
-405.7348621194726
 31
0.0
  0
LINE
  5
26187
  8
01
  6
PHANTOM2
 10
225.5001254774629
 20
-421.1348621194727
 30
0.0
 11
225.5001254774629
 21
-421.6348621194727
 31
0.0
  0
LINE
  5
26188
  8
01
  6
PHANTOM2
 10
224.5001254774629
 20
-422.6348621194727
 30
0.0
 11
225.5001254774629
 21
-421.6348621194727
 31
0.0
  0
LINE
  5
26189
  8
01
  6
PHANTOM2
 10
194.5001254774629
 20
-423.6348621194727
 30
0.0
 11
194.5001254774629
 21
-438.2848621194726
 31
0.0
  0
LINE
  5
2618B
  8
01
  6
PHANTOM2
 10
209.8001389481124
 20
-403.2348629956609
 30
0.0
 11
202.2001389481129
 21
-403.2348629956609
 31
0.0
  0
LINE
  5
2618C
  8
01
  6
PHANTOM2
 10
202.2001389481129
 20
-403.2348629956609
 30
0.0
 11
202.2001389481129
 21
-404.2348629956609
 31
0.0
  0
LINE
  5
2618D
  8
01
  6
PHANTOM2
 10
202.2001389481129
 20
-404.2348629956609
 30
0.0
 11
209.8001389481124
 21
-404.2348629956609
 31
0.0
  0
LINE
  5
2618E
  8
01
  6
PHANTOM2
 10
209.8001389481124
 20
-404.2348629956609
 30
0.0
 11
209.8001389481124
 21
-403.2348629956609
 31
0.0
  0
LINE
  5
26190
  8
01
  6
PHANTOM2
 10
217.5000930082615
 20
-403.2348711395512
 30
0.0
 11
219.5001395441595
 21
-403.2348664858541
 31
0.0
  0
LINE
  5
26191
  8
01
  6
PHANTOM2
 10
222.5001395441586
 20
-403.2348595054677
 30
0.0
 11
224.5000930082606
 21
-403.2348548519872
 31
0.0
  0
LINE
  5
26192
  8
01
  6
PHANTOM2
 10
224.8001395441588
 20
-403.2348629956609
 30
0.0
 11
217.2001395441594
 21
-403.2348629956609
 31
0.0
  0
LINE
  5
26193
  8
01
  6
PHANTOM2
 10
217.2001395441594
 20
-403.2348629956609
 30
0.0
 11
217.2001395441594
 21
-404.2348629956609
 31
0.0
  0
LINE
  5
26194
  8
01
  6
PHANTOM2
 10
217.2001395441594
 20
-404.2348629956609
 30
0.0
 11
224.8001395441588
 21
-404.2348629956609
 31
0.0
  0
LINE
  5
26195
  8
01
  6
PHANTOM2
 10
224.8001395441588
 20
-404.2348629956609
 30
0.0
 11
224.8001395441588
 21
-403.2348629956609
 31
0.0
  0
LINE
  5
261CE
  8
01
 10
196.0000482298433
 20
-566.5812037273317
 30
0.0
 11
196.0000482298433
 21
-567.0812038092881
 31
0.0
  0
ARC
  5
261CF
  8
01
 10
195.5000736891393
 20
-567.0812037796773
 30
0.0
 40
0.5
 50
270.0
 51
0.0
  0
LINE
  5
261D0
  8
01
 10
196.0000482298433
 20
-535.5812035354793
 30
0.0
 11
196.0000482298433
 21
-566.5812037273317
 31
0.0
  0
LINE
  5
261D1
  8
01
 10
190.0001254774629
 20
-566.5812037273317
 30
0.0
 11
190.0001254774629
 21
-534.5812052342117
 31
0.0
  0
LINE
  5
261D2
  8
01
 10
195.5000844694673
 20
-567.5812038912445
 30
0.0
 11
190.0001254774629
 21
-567.5812038912445
 31
0.0
  0
LINE
  5
261D3
  8
01
 10
190.0001254774629
 20
-567.5812038912445
 30
0.0
 11
190.0001254774629
 21
-566.5812037273317
 31
0.0
  0
LINE
  5
261D4
  8
01
 10
190.0001254774629
 20
-534.5812052342117
 30
0.0
 11
195.5000844694673
 21
-534.5812052342117
 31
0.0
  0
ARC
  5
261D5
  8
01
 10
195.5000736891393
 20
-535.0812037796773
 30
0.0
 40
0.5
 50
0.0
 51
90.0
  0
LINE
  5
261D6
  8
01
 10
196.0000482298433
 20
-535.0812025222003
 30
0.0
 11
196.0000482298433
 21
-535.5812035354793
 31
0.0
  0
LINE
  5
2622B
  8
01
  6
PHANTOM2
 10
193.5001254774629
 20
-564.931204562728
 30
0.0
 11
193.5001254774629
 21
-565.431204562728
 31
0.0
  0
LINE
  5
2622C
  8
01
  6
PHANTOM2
 10
193.5001254774629
 20
-565.431204562728
 30
0.0
 11
193.0001254774629
 21
-565.931204562728
 31
0.0
  0
LINE
  5
2622D
  8
01
  6
PHANTOM2
 10
193.0001254774629
 20
-565.931204562728
 30
0.0
 11
190.0001254774629
 21
-565.931204562728
 31
0.0
  0
LINE
  5
2622E
  8
01
  6
PHANTOM2
 10
190.0001254774629
 20
-565.931204562728
 30
0.0
 11
190.0001254774629
 21
-564.931204562728
 31
0.0
  0
LINE
  5
2622F
  8
01
  6
PHANTOM2
 10
193.0001254774629
 20
-536.2312045627282
 30
0.0
 11
193.5001254774629
 21
-536.7312045627282
 31
0.0
  0
LINE
  5
26230
  8
01
  6
PHANTOM2
 10
193.5001254774629
 20
-536.7312045627282
 30
0.0
 11
193.5001254774629
 21
-537.2312045627282
 31
0.0
  0
LINE
  5
26231
  8
01
  6
PHANTOM2
 10
190.0001254774629
 20
-564.931204562728
 30
0.0
 11
190.0001254774629
 21
-537.2312045627282
 31
0.0
  0
LINE
  5
26232
  8
01
  6
PHANTOM2
 10
190.0001254774629
 20
-536.2312045627282
 30
0.0
 11
193.0001254774629
 21
-536.2312045627282
 31
0.0
  0
LINE
  5
26233
  8
01
  6
PHANTOM2
 10
190.0001254774629
 20
-537.2312045627282
 30
0.0
 11
190.0001254774629
 21
-536.2312045627282
 31
0.0
  0
ARC
  5
26234
  8
01
  6
PHANTOM2
 10
194.5001254774629
 20
-557.431204562728
 30
0.0
 40
1.0
 50
90.0
 51
180.0
  0
ARC
  5
26235
  8
01
  6
PHANTOM2
 10
194.5001254774629
 20
-544.7312045627282
 30
0.0
 40
1.0
 50
180.0
 51
270.0
  0
LINE
  5
26236
  8
01
  6
PHANTOM2
 10
224.5001254774629
 20
-546.7312045627282
 30
0.0
 11
224.5001254774629
 21
-547.2312045627282
 31
0.0
  0
LINE
  5
26237
  8
01
  6
PHANTOM2
 10
224.5001254774629
 20
-546.7312045627282
 30
0.0
 11
223.5001254774629
 21
-545.7312045627282
 31
0.0
  0
LINE
  5
26238
  8
01
  6
PHANTOM2
 10
194.5001254774629
 20
-545.7312045627282
 30
0.0
 11
223.5001254774629
 21
-545.7312045627282
 31
0.0
  0
LINE
  5
26239
  8
01
  6
PHANTOM2
 10
224.5001254774629
 20
-547.2312045627282
 30
0.0
 11
224.5001254774629
 21
-554.931204562728
 31
0.0
  0
LINE
  5
2623A
  8
01
  6
PHANTOM2
 10
223.5001254774629
 20
-556.431204562728
 30
0.0
 11
194.5001254774629
 21
-556.431204562728
 31
0.0
  0
LINE
  5
2623B
  8
01
  6
PHANTOM2
 10
224.5001254774629
 20
-554.931204562728
 30
0.0
 11
224.5001254774629
 21
-555.431204562728
 31
0.0
  0
LINE
  5
2623C
  8
01
  6
PHANTOM2
 10
224.5001254774629
 20
-555.431204562728
 30
0.0
 11
223.5001254774629
 21
-556.431204562728
 31
0.0
  0
LINE
  5
2623D
  8
01
  6
PHANTOM2
 10
193.5001254774629
 20
-564.931204562728
 30
0.0
 11
193.5001254774629
 21
-557.431204562728
 31
0.0
  0
LINE
  5
2623E
  8
01
  6
PHANTOM2
 10
193.5001254774629
 20
-537.2312045627282
 30
0.0
 11
193.5001254774629
 21
-544.7312045627282
 31
0.0
  0
LINE
  5
26304
  8
01
 10
3149.741486273517
 20
25.02532059573457
 30
0.0
 11
191.0001254774629
 21
25.02532059573457
 31
0.0
  0
LINE
  5
26309
  8
01
 10
191.0001254774629
 20
25.02532059573457
 30
0.0
 11
191.0001254774629
 21
-514.9746463561243
 31
0.0
  0
LINE
  5
26311
  8
1CENTER
 10
1590.999998939037
 20
58.42982609355093
 30
0.0000000000060347
 11
1590.999998939037
 21
20.59669304617617
 31
0.0000000000060347
  0
LINE
  5
26312
  8
01
 10
1589.500045474935
 20
49.7753333928901
 30
0.0000000000060347
 11
1589.000045474935
 21
49.87533455628721
 31
0.0000000000060347
  0
LINE
  5
26313
  8
01
 10
1589.000045474935
 20
49.87533455628721
 30
0.0000000000060347
 11
1593.000045474935
 21
50.67532524910979
 31
0.0000000000060347
  0
LINE
  5
26314
  8
01
 10
1593.000045474935
 20
50.67532524910979
 30
0.0000000000060347
 11
1592.500045474935
 21
50.7753264125069
 31
0.0000000000060347
  0
LINE
  5
26315
  8
01
 10
1589.500045474935
 20
48.17533339289008
 30
0.0000000000060347
 11
1589.000045474935
 21
48.27533455628719
 31
0.0000000000060347
  0
LINE
  5
26316
  8
01
 10
1593.000045474935
 20
49.07532524910977
 30
0.0000000000060347
 11
1592.500045474935
 21
49.17532641250688
 31
0.0000000000060347
  0
LINE
  5
26317
  8
01
 10
1589.000045474935
 20
48.27533455628719
 30
0.0000000000060347
 11
1593.000045474935
 21
49.07532524910977
 31
0.0000000000060347
  0
LINE
  5
26318
  8
01
 10
1589.500045474935
 20
46.57533339289006
 30
0.0000000000060347
 11
1589.000045474935
 21
46.67533455628717
 31
0.0000000000060347
  0
LINE
  5
26319
  8
01
 10
1589.000045474935
 20
46.67533455628717
 30
0.0000000000060347
 11
1593.000045474935
 21
47.47532524910974
 31
0.0000000000060347
  0
LINE
  5
2631A
  8
01
 10
1593.000045474935
 20
47.47532524910974
 30
0.0000000000060347
 11
1592.500045474935
 21
47.57532641250685
 31
0.0000000000060347
  0
LINE
  5
2631B
  8
01
 10
1589.500045474935
 20
38.57533339288995
 30
0.0000000000060347
 11
1589.000045474935
 21
38.67533455628705
 31
0.0000000000060347
  0
LINE
  5
2631C
  8
01
 10
1593.000045474935
 20
39.47532524910963
 30
0.0000000000060347
 11
1592.500045474935
 21
39.57532641250685
 31
0.0000000000060347
  0
LINE
  5
2631D
  8
01
 10
1593.000045474935
 20
41.07532524910977
 30
0.0000000000060347
 11
1592.500045474935
 21
41.17532641250688
 31
0.0000000000060347
  0
LINE
  5
2631E
  8
01
 10
1589.500045474935
 20
40.17533339289008
 30
0.0000000000060347
 11
1589.000045474935
 21
40.27533455628719
 31
0.0000000000060347
  0
LINE
  5
2631F
  8
01
 10
1589.500045474935
 20
41.77533339288999
 30
0.0000000000060347
 11
1589.000045474935
 21
41.8753345562871
 31
0.0000000000060347
  0
LINE
  5
26320
  8
01
 10
1589.000045474935
 20
40.27533455628719
 30
0.0000000000060347
 11
1593.000045474935
 21
41.07532524910977
 31
0.0000000000060347
  0
LINE
  5
26321
  8
01
 10
1589.000045474935
 20
38.67533455628705
 30
0.0000000000060347
 11
1593.000045474935
 21
39.47532524910963
 31
0.0000000000060347
  0
LINE
  5
26322
  8
01
 10
1589.500045474935
 20
43.3753333928899
 30
0.0000000000060347
 11
1589.000045474935
 21
43.47533455628712
 31
0.0000000000060347
  0
LINE
  5
26323
  8
01
 10
1589.500045474935
 20
51.57533339288995
 30
0.0000000000060347
 11
1589.000045474935
 21
51.67533455628705
 31
0.0000000000060347
  0
LINE
  5
26324
  8
01
 10
1589.000045474935
 20
51.67533455628705
 30
0.0000000000060347
 11
1592.773638422731
 21
52.47532577591235
 31
0.0000000000060347
  0
LINE
  5
26325
  8
01
 10
1592.773638422731
 20
52.47532577591235
 30
0.0000000000060347
 11
1592.23704468746
 21
52.60459647354222
 31
0.0000000000060347
  0
LINE
  5
26326
  8
01
 10
1593.000045474935
 20
44.2753252491097
 30
0.0000000000060347
 11
1592.500045474935
 21
44.37532641250669
 31
0.0000000000060347
  0
LINE
  5
26327
  8
01
 10
1593.000045474935
 20
45.87532524910972
 30
0.0000000000060347
 11
1592.500045474935
 21
45.97532641250683
 31
0.0000000000060347
  0
LINE
  5
26328
  8
01
 10
1589.500045474935
 20
44.97533339289004
 30
0.0000000000060347
 11
1589.000045474935
 21
45.07533455628715
 31
0.0000000000060347
  0
LINE
  5
26329
  8
01
 10
1589.000045474935
 20
45.07533455628715
 30
0.0000000000060347
 11
1593.000045474935
 21
45.87532524910972
 31
0.0000000000060347
  0
LINE
  5
2632A
  8
01
 10
1589.000045474935
 20
43.47533455628712
 30
0.0000000000060347
 11
1593.000045474935
 21
44.2753252491097
 31
0.0000000000060347
  0
LINE
  5
2632B
  8
01
 10
1589.452861616994
 20
53.27533350267689
 30
0.0000000000060347
 11
1592.320824318324
 21
54.07532682951799
 31
0.0000000000060347
  0
LINE
  5
2632C
  8
01
 10
1589.905675125042
 20
54.87533244907266
 30
0.0000000000060347
 11
1591.868010213918
 21
55.67532788312363
 31
0.0000000000060347
  0
LINE
  5
2632D
  8
01
 10
1592.320824318324
 20
54.07532682951799
 30
0.0000000000060347
 11
1591.769074854521
 21
54.25809097214599
 31
0.0000000000060347
  0
LINE
  5
2632E
  8
01
 10
1590.362846965673
 20
54.72389665263225
 30
0.0000000000060347
 11
1589.905675125042
 21
54.87533244907266
 31
0.0000000000060347
  0
LINE
  5
2632F
  8
01
 10
1591.868010213918
 20
55.67532788312363
 30
0.0000000000060347
 11
1591.279733638875
 21
55.98709773937574
 31
0.0000000000060347
  0
LINE
  5
26330
  8
01
 10
1589.920960072144
 20
53.16256399032684
 30
0.0000000000060347
 11
1589.452861616994
 21
53.27533350267689
 31
0.0000000000060347
  0
LINE
  5
26331
  8
01
 10
1593.000045474935
 20
42.67532524910968
 30
0.0000000000060347
 11
1592.500045474935
 21
42.7753264125069
 31
0.0000000000060347
  0
LINE
  5
26332
  8
01
 10
1589.000045474935
 20
41.8753345562871
 30
0.0000000000060347
 11
1593.000045474935
 21
42.67532524910968
 31
0.0000000000060347
  0
LINE
  5
26333
  8
01
 10
1592.500045474935
 20
24.97532641248998
 30
0.0000000000060347
 11
1593.000045474935
 21
25.07532524909226
 31
0.0000000000060347
  0
LINE
  5
26334
  8
01
 10
1589.000045474935
 20
25.87533455627835
 30
0.0000000000060347
 11
1593.000045474935
 21
26.6753252490966
 31
0.0000000000060347
  0
LINE
  5
26335
  8
01
 10
1589.000045474935
 20
29.07533455627839
 30
0.0000000000060347
 11
1593.000045474935
 21
29.87532524909665
 31
0.0000000000060347
  0
LINE
  5
26336
  8
01
 10
1593.000045474935
 20
29.87532524909665
 30
0.0000000000060347
 11
1592.500045474935
 21
29.97532641249433
 31
0.0000000000060347
  0
LINE
  5
26337
  8
01
 10
1593.000045474935
 20
26.6753252490966
 30
0.0000000000060347
 11
1592.500045474935
 21
26.77532641249428
 31
0.0000000000060347
  0
LINE
  5
26338
  8
01
 10
1589.500045474935
 20
27.37533339288058
 30
0.0000000000060347
 11
1589.000045474935
 21
27.47533455627826
 31
0.0000000000060347
  0
LINE
  5
26339
  8
01
 10
1593.000045474935
 20
28.27532524909651
 30
0.0000000000060347
 11
1592.500045474935
 21
28.37532641249419
 31
0.0000000000060347
  0
LINE
  5
2633A
  8
01
 10
1589.000045474935
 20
27.47533455627826
 30
0.0000000000060347
 11
1593.000045474935
 21
28.27532524909651
 31
0.0000000000060347
  0
LINE
  5
2633B
  8
01
 10
1589.500045474935
 20
28.97533339288071
 30
0.0000000000060347
 11
1589.000045474935
 21
29.07533455627839
 31
0.0000000000060347
  0
LINE
  5
2633C
  8
01
 10
1593.000045474935
 20
25.07532524909226
 30
0.0000000000060347
 11
1592.500045474935
 21
25.17532641248994
 31
0.0000000000060347
  0
LINE
  5
2633D
  8
01
 10
1589.500045474935
 20
25.77533339288067
 30
0.0000000000060347
 11
1589.000045474935
 21
25.87533455627835
 31
0.0000000000060347
  0
LINE
  5
2633E
  8
01
 10
1586.999998939037
 20
22.27533921009348
 30
0.0000000000060347
 11
1594.999998939037
 21
22.2753205957344
 31
0.0000000000060347
  0
LINE
  5
2633F
  8
01
 10
1589.500045474935
 20
30.57533339288506
 30
0.0000000000060347
 11
1589.000045474935
 21
30.67533455628273
 31
0.0000000000060347
  0
LINE
  5
26340
  8
01
 10
1589.500045474935
 20
32.1753333928894
 30
0.0000000000060347
 11
1589.000045474935
 21
32.27533455628708
 31
0.0000000000060347
  0
LINE
  5
26341
  8
01
 10
1593.000045474935
 20
31.47532524910099
 30
0.0000000000060347
 11
1592.500045474935
 21
31.57532641249867
 31
0.0000000000060347
  0
LINE
  5
26342
  8
01
 10
1589.500045474935
 20
35.37533339288944
 30
0.0000000000060347
 11
1589.000045474935
 21
35.47533455628712
 31
0.0000000000060347
  0
LINE
  5
26343
  8
01
 10
1589.000045474935
 20
33.87533455628699
 30
0.0000000000060347
 11
1593.000045474935
 21
34.67532524910524
 31
0.0000000000060347
  0
LINE
  5
26344
  8
01
 10
1593.000045474935
 20
34.67532524910524
 30
0.0000000000060347
 11
1592.500045474935
 21
34.77532641250292
 31
0.0000000000060347
  0
LINE
  5
26345
  8
01
 10
1589.500045474935
 20
33.77533339288931
 30
0.0000000000060347
 11
1589.000045474935
 21
33.87533455628699
 31
0.0000000000060347
  0
LINE
  5
26346
  8
01
 10
1593.000045474935
 20
33.07532524910533
 30
0.0000000000060347
 11
1592.500045474935
 21
33.17532641250301
 31
0.0000000000060347
  0
LINE
  5
26347
  8
01
 10
1593.000045474935
 20
37.87532524910972
 30
0.0000000000060347
 11
1592.500045474935
 21
37.97532641250683
 31
0.0000000000060347
  0
LINE
  5
26348
  8
01
 10
1593.000045474935
 20
36.27532524910538
 30
0.0000000000060347
 11
1592.500045474935
 21
36.37532641250306
 31
0.0000000000060347
  0
LINE
  5
26349
  8
01
 10
1589.500045474935
 20
36.97533339288935
 30
0.0000000000060347
 11
1589.000045474935
 21
37.07533455628715
 31
0.0000000000060347
  0
LINE
  5
2634A
  8
01
 10
1589.000045474935
 20
37.07533455628715
 30
0.0000000000060347
 11
1593.000045474935
 21
37.87532524910972
 31
0.0000000000060347
  0
LINE
  5
2634B
  8
01
 10
1589.000045474935
 20
35.47533455628712
 30
0.0000000000060347
 11
1593.000045474935
 21
36.27532524910538
 31
0.0000000000060347
  0
LINE
  5
2634C
  8
01
 10
1589.000045474935
 20
32.27533455628708
 30
0.0000000000060347
 11
1593.000045474935
 21
33.07532524910533
 31
0.0000000000060347
  0
LINE
  5
2634D
  8
01
 10
1589.000045474935
 20
30.67533455628273
 30
0.0000000000060347
 11
1593.000045474935
 21
31.47532524910099
 31
0.0000000000060347
  0
LINE
  5
2634F
  8
1CENTER
 10
1630.999998939037
 20
58.42982609355093
 30
0.0000000000060347
 11
1630.999998939037
 21
20.59669304617617
 31
0.0000000000060347
  0
LINE
  5
26350
  8
01
 10
1629.500045474935
 20
49.7753333928901
 30
0.0000000000060347
 11
1629.000045474935
 21
49.87533455628721
 31
0.0000000000060347
  0
LINE
  5
26351
  8
01
 10
1629.000045474935
 20
49.87533455628721
 30
0.0000000000060347
 11
1633.000045474935
 21
50.67532524910979
 31
0.0000000000060347
  0
LINE
  5
26352
  8
01
 10
1633.000045474935
 20
50.67532524910979
 30
0.0000000000060347
 11
1632.500045474935
 21
50.7753264125069
 31
0.0000000000060347
  0
LINE
  5
26353
  8
01
 10
1629.500045474935
 20
48.17533339289008
 30
0.0000000000060347
 11
1629.000045474935
 21
48.27533455628719
 31
0.0000000000060347
  0
LINE
  5
26354
  8
01
 10
1633.000045474935
 20
49.07532524910977
 30
0.0000000000060347
 11
1632.500045474935
 21
49.17532641250688
 31
0.0000000000060347
  0
LINE
  5
26355
  8
01
 10
1629.000045474935
 20
48.27533455628719
 30
0.0000000000060347
 11
1633.000045474935
 21
49.07532524910977
 31
0.0000000000060347
  0
LINE
  5
26356
  8
01
 10
1629.500045474935
 20
46.57533339289006
 30
0.0000000000060347
 11
1629.000045474935
 21
46.67533455628717
 31
0.0000000000060347
  0
LINE
  5
26357
  8
01
 10
1629.000045474935
 20
46.67533455628717
 30
0.0000000000060347
 11
1633.000045474935
 21
47.47532524910974
 31
0.0000000000060347
  0
LINE
  5
26358
  8
01
 10
1633.000045474935
 20
47.47532524910974
 30
0.0000000000060347
 11
1632.500045474935
 21
47.57532641250685
 31
0.0000000000060347
  0
LINE
  5
26359
  8
01
 10
1629.500045474935
 20
38.57533339288995
 30
0.0000000000060347
 11
1629.000045474935
 21
38.67533455628705
 31
0.0000000000060347
  0
LINE
  5
2635A
  8
01
 10
1633.000045474935
 20
39.47532524910963
 30
0.0000000000060347
 11
1632.500045474935
 21
39.57532641250685
 31
0.0000000000060347
  0
LINE
  5
2635B
  8
01
 10
1633.000045474935
 20
41.07532524910977
 30
0.0000000000060347
 11
1632.500045474935
 21
41.17532641250688
 31
0.0000000000060347
  0
LINE
  5
2635C
  8
01
 10
1629.500045474935
 20
40.17533339289008
 30
0.0000000000060347
 11
1629.000045474935
 21
40.27533455628719
 31
0.0000000000060347
  0
LINE
  5
2635D
  8
01
 10
1629.500045474935
 20
41.77533339288999
 30
0.0000000000060347
 11
1629.000045474935
 21
41.8753345562871
 31
0.0000000000060347
  0
LINE
  5
2635E
  8
01
 10
1629.000045474935
 20
40.27533455628719
 30
0.0000000000060347
 11
1633.000045474935
 21
41.07532524910977
 31
0.0000000000060347
  0
LINE
  5
2635F
  8
01
 10
1629.000045474935
 20
38.67533455628705
 30
0.0000000000060347
 11
1633.000045474935
 21
39.47532524910963
 31
0.0000000000060347
  0
LINE
  5
26360
  8
01
 10
1629.500045474935
 20
43.3753333928899
 30
0.0000000000060347
 11
1629.000045474935
 21
43.47533455628712
 31
0.0000000000060347
  0
LINE
  5
26361
  8
01
 10
1629.500045474935
 20
51.57533339288995
 30
0.0000000000060347
 11
1629.000045474935
 21
51.67533455628705
 31
0.0000000000060347
  0
LINE
  5
26362
  8
01
 10
1629.000045474935
 20
51.67533455628705
 30
0.0000000000060347
 11
1632.773638422731
 21
52.47532577591235
 31
0.0000000000060347
  0
LINE
  5
26363
  8
01
 10
1632.773638422731
 20
52.47532577591235
 30
0.0000000000060347
 11
1632.23704468746
 21
52.60459647354222
 31
0.0000000000060347
  0
LINE
  5
26364
  8
01
 10
1633.000045474935
 20
44.2753252491097
 30
0.0000000000060347
 11
1632.500045474935
 21
44.37532641250669
 31
0.0000000000060347
  0
LINE
  5
26365
  8
01
 10
1633.000045474935
 20
45.87532524910972
 30
0.0000000000060347
 11
1632.500045474935
 21
45.97532641250683
 31
0.0000000000060347
  0
LINE
  5
26366
  8
01
 10
1629.500045474935
 20
44.97533339289004
 30
0.0000000000060347
 11
1629.000045474935
 21
45.07533455628715
 31
0.0000000000060347
  0
LINE
  5
26367
  8
01
 10
1629.000045474935
 20
45.07533455628715
 30
0.0000000000060347
 11
1633.000045474935
 21
45.87532524910972
 31
0.0000000000060347
  0
LINE
  5
26368
  8
01
 10
1629.000045474935
 20
43.47533455628712
 30
0.0000000000060347
 11
1633.000045474935
 21
44.2753252491097
 31
0.0000000000060347
  0
LINE
  5
26369
  8
01
 10
1629.452861616994
 20
53.27533350267689
 30
0.0000000000060347
 11
1632.320824318324
 21
54.07532682951799
 31
0.0000000000060347
  0
LINE
  5
2636A
  8
01
 10
1629.905675125042
 20
54.87533244907266
 30
0.0000000000060347
 11
1631.868010213918
 21
55.67532788312363
 31
0.0000000000060347
  0
LINE
  5
2636B
  8
01
 10
1632.320824318324
 20
54.07532682951799
 30
0.0000000000060347
 11
1631.769074854521
 21
54.25809097214599
 31
0.0000000000060347
  0
LINE
  5
2636C
  8
01
 10
1630.362846965673
 20
54.72389665263225
 30
0.0000000000060347
 11
1629.905675125042
 21
54.87533244907266
 31
0.0000000000060347
  0
LINE
  5
2636D
  8
01
 10
1631.868010213918
 20
55.67532788312363
 30
0.0000000000060347
 11
1631.279733638875
 21
55.98709773937574
 31
0.0000000000060347
  0
LINE
  5
2636E
  8
01
 10
1629.920960072144
 20
53.16256399032684
 30
0.0000000000060347
 11
1629.452861616994
 21
53.27533350267689
 31
0.0000000000060347
  0
LINE
  5
2636F
  8
01
 10
1633.000045474935
 20
42.67532524910968
 30
0.0000000000060347
 11
1632.500045474935
 21
42.7753264125069
 31
0.0000000000060347
  0
LINE
  5
26370
  8
01
 10
1629.000045474935
 20
41.8753345562871
 30
0.0000000000060347
 11
1633.000045474935
 21
42.67532524910968
 31
0.0000000000060347
  0
LINE
  5
26371
  8
01
 10
1632.500045474935
 20
24.97532641248998
 30
0.0000000000060347
 11
1633.000045474935
 21
25.07532524909226
 31
0.0000000000060347
  0
LINE
  5
26372
  8
01
 10
1629.000045474935
 20
25.87533455627835
 30
0.0000000000060347
 11
1633.000045474935
 21
26.6753252490966
 31
0.0000000000060347
  0
LINE
  5
26373
  8
01
 10
1629.000045474935
 20
29.07533455627839
 30
0.0000000000060347
 11
1633.000045474935
 21
29.87532524909665
 31
0.0000000000060347
  0
LINE
  5
26374
  8
01
 10
1633.000045474935
 20
29.87532524909665
 30
0.0000000000060347
 11
1632.500045474935
 21
29.97532641249433
 31
0.0000000000060347
  0
LINE
  5
26375
  8
01
 10
1633.000045474935
 20
26.6753252490966
 30
0.0000000000060347
 11
1632.500045474935
 21
26.77532641249428
 31
0.0000000000060347
  0
LINE
  5
26376
  8
01
 10
1629.500045474935
 20
27.37533339288058
 30
0.0000000000060347
 11
1629.000045474935
 21
27.47533455627826
 31
0.0000000000060347
  0
LINE
  5
26377
  8
01
 10
1633.000045474935
 20
28.27532524909651
 30
0.0000000000060347
 11
1632.500045474935
 21
28.37532641249419
 31
0.0000000000060347
  0
LINE
  5
26378
  8
01
 10
1629.000045474935
 20
27.47533455627826
 30
0.0000000000060347
 11
1633.000045474935
 21
28.27532524909651
 31
0.0000000000060347
  0
LINE
  5
26379
  8
01
 10
1629.500045474935
 20
28.97533339288071
 30
0.0000000000060347
 11
1629.000045474935
 21
29.07533455627839
 31
0.0000000000060347
  0
LINE
  5
2637A
  8
01
 10
1633.000045474935
 20
25.07532524909226
 30
0.0000000000060347
 11
1632.500045474935
 21
25.17532641248994
 31
0.0000000000060347
  0
LINE
  5
2637B
  8
01
 10
1629.500045474935
 20
25.77533339288067
 30
0.0000000000060347
 11
1629.000045474935
 21
25.87533455627835
 31
0.0000000000060347
  0
LINE
  5
2637C
  8
01
 10
1626.999998939037
 20
22.27533921009348
 30
0.0000000000060347
 11
1634.999998939037
 21
22.2753205957344
 31
0.0000000000060347
  0
LINE
  5
2637D
  8
01
 10
1629.500045474935
 20
30.57533339288506
 30
0.0000000000060347
 11
1629.000045474935
 21
30.67533455628273
 31
0.0000000000060347
  0
LINE
  5
2637E
  8
01
 10
1629.500045474935
 20
32.1753333928894
 30
0.0000000000060347
 11
1629.000045474935
 21
32.27533455628708
 31
0.0000000000060347
  0
LINE
  5
2637F
  8
01
 10
1633.000045474935
 20
31.47532524910099
 30
0.0000000000060347
 11
1632.500045474935
 21
31.57532641249867
 31
0.0000000000060347
  0
LINE
  5
26380
  8
01
 10
1629.500045474935
 20
35.37533339288944
 30
0.0000000000060347
 11
1629.000045474935
 21
35.47533455628712
 31
0.0000000000060347
  0
LINE
  5
26381
  8
01
 10
1629.000045474935
 20
33.87533455628699
 30
0.0000000000060347
 11
1633.000045474935
 21
34.67532524910524
 31
0.0000000000060347
  0
LINE
  5
26382
  8
01
 10
1633.000045474935
 20
34.67532524910524
 30
0.0000000000060347
 11
1632.500045474935
 21
34.77532641250292
 31
0.0000000000060347
  0
LINE
  5
26383
  8
01
 10
1629.500045474935
 20
33.77533339288931
 30
0.0000000000060347
 11
1629.000045474935
 21
33.87533455628699
 31
0.0000000000060347
  0
LINE
  5
26384
  8
01
 10
1633.000045474935
 20
33.07532524910533
 30
0.0000000000060347
 11
1632.500045474935
 21
33.17532641250301
 31
0.0000000000060347
  0
LINE
  5
26385
  8
01
 10
1633.000045474935
 20
37.87532524910972
 30
0.0000000000060347
 11
1632.500045474935
 21
37.97532641250683
 31
0.0000000000060347
  0
LINE
  5
26386
  8
01
 10
1633.000045474935
 20
36.27532524910538
 30
0.0000000000060347
 11
1632.500045474935
 21
36.37532641250306
 31
0.0000000000060347
  0
LINE
  5
26387
  8
01
 10
1629.500045474935
 20
36.97533339288935
 30
0.0000000000060347
 11
1629.000045474935
 21
37.07533455628715
 31
0.0000000000060347
  0
LINE
  5
26388
  8
01
 10
1629.000045474935
 20
37.07533455628715
 30
0.0000000000060347
 11
1633.000045474935
 21
37.87532524910972
 31
0.0000000000060347
  0
LINE
  5
26389
  8
01
 10
1629.000045474935
 20
35.47533455628712
 30
0.0000000000060347
 11
1633.000045474935
 21
36.27532524910538
 31
0.0000000000060347
  0
LINE
  5
2638A
  8
01
 10
1629.000045474935
 20
32.27533455628708
 30
0.0000000000060347
 11
1633.000045474935
 21
33.07532524910533
 31
0.0000000000060347
  0
LINE
  5
2638B
  8
01
 10
1629.000045474935
 20
30.67533455628273
 30
0.0000000000060347
 11
1633.000045474935
 21
31.47532524910099
 31
0.0000000000060347
  0
LINE
  5
2638D
  8
1CENTER
 10
3041.000016820431
 20
58.42982609355093
 30
0.0000000000060347
 11
3041.000016820431
 21
20.59669304617617
 31
0.0000000000060347
  0
LINE
  5
2638E
  8
01
 10
3039.500063356329
 20
49.7753333928901
 30
0.0000000000060347
 11
3039.000063356329
 21
49.87533455628721
 31
0.0000000000060347
  0
LINE
  5
2638F
  8
01
 10
3039.000063356329
 20
49.87533455628721
 30
0.0000000000060347
 11
3043.000063356329
 21
50.67532524910979
 31
0.0000000000060347
  0
LINE
  5
26390
  8
01
 10
3043.000063356329
 20
50.67532524910979
 30
0.0000000000060347
 11
3042.500063356329
 21
50.7753264125069
 31
0.0000000000060347
  0
LINE
  5
26391
  8
01
 10
3039.500063356329
 20
48.17533339289008
 30
0.0000000000060347
 11
3039.000063356329
 21
48.27533455628719
 31
0.0000000000060347
  0
LINE
  5
26392
  8
01
 10
3043.000063356329
 20
49.07532524910977
 30
0.0000000000060347
 11
3042.500063356329
 21
49.17532641250688
 31
0.0000000000060347
  0
LINE
  5
26393
  8
01
 10
3039.000063356329
 20
48.27533455628719
 30
0.0000000000060347
 11
3043.000063356329
 21
49.07532524910977
 31
0.0000000000060347
  0
LINE
  5
26394
  8
01
 10
3039.500063356329
 20
46.57533339289006
 30
0.0000000000060347
 11
3039.000063356329
 21
46.67533455628717
 31
0.0000000000060347
  0
LINE
  5
26395
  8
01
 10
3039.000063356329
 20
46.67533455628717
 30
0.0000000000060347
 11
3043.000063356329
 21
47.47532524910974
 31
0.0000000000060347
  0
LINE
  5
26396
  8
01
 10
3043.000063356329
 20
47.47532524910974
 30
0.0000000000060347
 11
3042.500063356329
 21
47.57532641250685
 31
0.0000000000060347
  0
LINE
  5
26397
  8
01
 10
3039.500063356329
 20
38.57533339288995
 30
0.0000000000060347
 11
3039.000063356329
 21
38.67533455628705
 31
0.0000000000060347
  0
LINE
  5
26398
  8
01
 10
3043.000063356329
 20
39.47532524910963
 30
0.0000000000060347
 11
3042.500063356329
 21
39.57532641250685
 31
0.0000000000060347
  0
LINE
  5
26399
  8
01
 10
3043.000063356329
 20
41.07532524910977
 30
0.0000000000060347
 11
3042.500063356329
 21
41.17532641250688
 31
0.0000000000060347
  0
LINE
  5
2639A
  8
01
 10
3039.500063356329
 20
40.17533339289008
 30
0.0000000000060347
 11
3039.000063356329
 21
40.27533455628719
 31
0.0000000000060347
  0
LINE
  5
2639B
  8
01
 10
3039.500063356329
 20
41.77533339288999
 30
0.0000000000060347
 11
3039.000063356329
 21
41.8753345562871
 31
0.0000000000060347
  0
LINE
  5
2639C
  8
01
 10
3039.000063356329
 20
40.27533455628719
 30
0.0000000000060347
 11
3043.000063356329
 21
41.07532524910977
 31
0.0000000000060347
  0
LINE
  5
2639D
  8
01
 10
3039.000063356329
 20
38.67533455628705
 30
0.0000000000060347
 11
3043.000063356329
 21
39.47532524910963
 31
0.0000000000060347
  0
LINE
  5
2639E
  8
01
 10
3039.500063356329
 20
43.3753333928899
 30
0.0000000000060347
 11
3039.000063356329
 21
43.47533455628712
 31
0.0000000000060347
  0
LINE
  5
2639F
  8
01
 10
3039.500063356329
 20
51.57533339288995
 30
0.0000000000060347
 11
3039.000063356329
 21
51.67533455628705
 31
0.0000000000060347
  0
LINE
  5
263A0
  8
01
 10
3039.000063356329
 20
51.67533455628705
 30
0.0000000000060347
 11
3042.773656304124
 21
52.47532577591235
 31
0.0000000000060347
  0
LINE
  5
263A1
  8
01
 10
3042.773656304124
 20
52.47532577591235
 30
0.0000000000060347
 11
3042.237062568854
 21
52.60459647354222
 31
0.0000000000060347
  0
LINE
  5
263A2
  8
01
 10
3043.000063356329
 20
44.2753252491097
 30
0.0000000000060347
 11
3042.500063356329
 21
44.37532641250669
 31
0.0000000000060347
  0
LINE
  5
263A3
  8
01
 10
3043.000063356329
 20
45.87532524910972
 30
0.0000000000060347
 11
3042.500063356329
 21
45.97532641250683
 31
0.0000000000060347
  0
LINE
  5
263A4
  8
01
 10
3039.500063356329
 20
44.97533339289004
 30
0.0000000000060347
 11
3039.000063356329
 21
45.07533455628715
 31
0.0000000000060347
  0
LINE
  5
263A5
  8
01
 10
3039.000063356329
 20
45.07533455628715
 30
0.0000000000060347
 11
3043.000063356329
 21
45.87532524910972
 31
0.0000000000060347
  0
LINE
  5
263A6
  8
01
 10
3039.000063356329
 20
43.47533455628712
 30
0.0000000000060347
 11
3043.000063356329
 21
44.2753252491097
 31
0.0000000000060347
  0
LINE
  5
263A7
  8
01
 10
3039.452879498387
 20
53.27533350267689
 30
0.0000000000060347
 11
3042.320842199718
 21
54.07532682951799
 31
0.0000000000060347
  0
LINE
  5
263A8
  8
01
 10
3039.905693006436
 20
54.87533244907266
 30
0.0000000000060347
 11
3041.868028095311
 21
55.67532788312363
 31
0.0000000000060347
  0
LINE
  5
263A9
  8
01
 10
3042.320842199718
 20
54.07532682951799
 30
0.0000000000060347
 11
3041.769092735914
 21
54.25809097214599
 31
0.0000000000060347
  0
LINE
  5
263AA
  8
01
 10
3040.362864847067
 20
54.72389665263225
 30
0.0000000000060347
 11
3039.905693006436
 21
54.87533244907266
 31
0.0000000000060347
  0
LINE
  5
263AB
  8
01
 10
3041.868028095311
 20
55.67532788312363
 30
0.0000000000060347
 11
3041.279751520269
 21
55.98709773937574
 31
0.0000000000060347
  0
LINE
  5
263AC
  8
01
 10
3039.920977953537
 20
53.16256399032684
 30
0.0000000000060347
 11
3039.452879498387
 21
53.27533350267689
 31
0.0000000000060347
  0
LINE
  5
263AD
  8
01
 10
3043.000063356329
 20
42.67532524910968
 30
0.0000000000060347
 11
3042.500063356329
 21
42.7753264125069
 31
0.0000000000060347
  0
LINE
  5
263AE
  8
01
 10
3039.000063356329
 20
41.8753345562871
 30
0.0000000000060347
 11
3043.000063356329
 21
42.67532524910968
 31
0.0000000000060347
  0
LINE
  5
263AF
  8
01
 10
3042.500063356329
 20
24.97532641248998
 30
0.0000000000060347
 11
3043.000063356329
 21
25.07532524909226
 31
0.0000000000060347
  0
LINE
  5
263B0
  8
01
 10
3039.000063356329
 20
25.87533455627835
 30
0.0000000000060347
 11
3043.000063356329
 21
26.6753252490966
 31
0.0000000000060347
  0
LINE
  5
263B1
  8
01
 10
3039.000063356329
 20
29.07533455627839
 30
0.0000000000060347
 11
3043.000063356329
 21
29.87532524909665
 31
0.0000000000060347
  0
LINE
  5
263B2
  8
01
 10
3043.000063356329
 20
29.87532524909665
 30
0.0000000000060347
 11
3042.500063356329
 21
29.97532641249433
 31
0.0000000000060347
  0
LINE
  5
263B3
  8
01
 10
3043.000063356329
 20
26.6753252490966
 30
0.0000000000060347
 11
3042.500063356329
 21
26.77532641249428
 31
0.0000000000060347
  0
LINE
  5
263B4
  8
01
 10
3039.500063356329
 20
27.37533339288058
 30
0.0000000000060347
 11
3039.000063356329
 21
27.47533455627826
 31
0.0000000000060347
  0
LINE
  5
263B5
  8
01
 10
3043.000063356329
 20
28.27532524909651
 30
0.0000000000060347
 11
3042.500063356329
 21
28.37532641249419
 31
0.0000000000060347
  0
LINE
  5
263B6
  8
01
 10
3039.000063356329
 20
27.47533455627826
 30
0.0000000000060347
 11
3043.000063356329
 21
28.27532524909651
 31
0.0000000000060347
  0
LINE
  5
263B7
  8
01
 10
3039.500063356329
 20
28.97533339288071
 30
0.0000000000060347
 11
3039.000063356329
 21
29.07533455627839
 31
0.0000000000060347
  0
LINE
  5
263B8
  8
01
 10
3043.000063356329
 20
25.07532524909226
 30
0.0000000000060347
 11
3042.500063356329
 21
25.17532641248994
 31
0.0000000000060347
  0
LINE
  5
263B9
  8
01
 10
3039.500063356329
 20
25.77533339288067
 30
0.0000000000060347
 11
3039.000063356329
 21
25.87533455627835
 31
0.0000000000060347
  0
LINE
  5
263BA
  8
01
 10
3037.000016820431
 20
22.27533921009348
 30
0.0000000000060347
 11
3045.000016820431
 21
22.2753205957344
 31
0.0000000000060347
  0
LINE
  5
263BB
  8
01
 10
3039.500063356329
 20
30.57533339288506
 30
0.0000000000060347
 11
3039.000063356329
 21
30.67533455628273
 31
0.0000000000060347
  0
LINE
  5
263BC
  8
01
 10
3039.500063356329
 20
32.1753333928894
 30
0.0000000000060347
 11
3039.000063356329
 21
32.27533455628708
 31
0.0000000000060347
  0
LINE
  5
263BD
  8
01
 10
3043.000063356329
 20
31.47532524910099
 30
0.0000000000060347
 11
3042.500063356329
 21
31.57532641249867
 31
0.0000000000060347
  0
LINE
  5
263BE
  8
01
 10
3039.500063356329
 20
35.37533339288944
 30
0.0000000000060347
 11
3039.000063356329
 21
35.47533455628712
 31
0.0000000000060347
  0
LINE
  5
263BF
  8
01
 10
3039.000063356329
 20
33.87533455628699
 30
0.0000000000060347
 11
3043.000063356329
 21
34.67532524910524
 31
0.0000000000060347
  0
LINE
  5
263C0
  8
01
 10
3043.000063356329
 20
34.67532524910524
 30
0.0000000000060347
 11
3042.500063356329
 21
34.77532641250292
 31
0.0000000000060347
  0
LINE
  5
263C1
  8
01
 10
3039.500063356329
 20
33.77533339288931
 30
0.0000000000060347
 11
3039.000063356329
 21
33.87533455628699
 31
0.0000000000060347
  0
LINE
  5
263C2
  8
01
 10
3043.000063356329
 20
33.07532524910533
 30
0.0000000000060347
 11
3042.500063356329
 21
33.17532641250301
 31
0.0000000000060347
  0
LINE
  5
263C3
  8
01
 10
3043.000063356329
 20
37.87532524910972
 30
0.0000000000060347
 11
3042.500063356329
 21
37.97532641250683
 31
0.0000000000060347
  0
LINE
  5
263C4
  8
01
 10
3043.000063356329
 20
36.27532524910538
 30
0.0000000000060347
 11
3042.500063356329
 21
36.37532641250306
 31
0.0000000000060347
  0
LINE
  5
263C5
  8
01
 10
3039.500063356329
 20
36.97533339288935
 30
0.0000000000060347
 11
3039.000063356329
 21
37.07533455628715
 31
0.0000000000060347
  0
LINE
  5
263C6
  8
01
 10
3039.000063356329
 20
37.07533455628715
 30
0.0000000000060347
 11
3043.000063356329
 21
37.87532524910972
 31
0.0000000000060347
  0
LINE
  5
263C7
  8
01
 10
3039.000063356329
 20
35.47533455628712
 30
0.0000000000060347
 11
3043.000063356329
 21
36.27532524910538
 31
0.0000000000060347
  0
LINE
  5
263C8
  8
01
 10
3039.000063356329
 20
32.27533455628708
 30
0.0000000000060347
 11
3043.000063356329
 21
33.07532524910533
 31
0.0000000000060347
  0
LINE
  5
263C9
  8
01
 10
3039.000063356329
 20
30.67533455628273
 30
0.0000000000060347
 11
3043.000063356329
 21
31.47532524910099
 31
0.0000000000060347
  0
LINE
  5
263CB
  8
1CENTER
 10
3081.000016820431
 20
58.42982609355093
 30
0.0000000000060347
 11
3081.000016820431
 21
20.59669304617617
 31
0.0000000000060347
  0
LINE
  5
263CC
  8
01
 10
3079.500063356329
 20
49.7753333928901
 30
0.0000000000060347
 11
3079.000063356329
 21
49.87533455628721
 31
0.0000000000060347
  0
LINE
  5
263CD
  8
01
 10
3079.000063356329
 20
49.87533455628721
 30
0.0000000000060347
 11
3083.000063356329
 21
50.67532524910979
 31
0.0000000000060347
  0
LINE
  5
263CE
  8
01
 10
3083.000063356329
 20
50.67532524910979
 30
0.0000000000060347
 11
3082.500063356329
 21
50.7753264125069
 31
0.0000000000060347
  0
LINE
  5
263CF
  8
01
 10
3079.500063356329
 20
48.17533339289008
 30
0.0000000000060347
 11
3079.000063356329
 21
48.27533455628719
 31
0.0000000000060347
  0
LINE
  5
263D0
  8
01
 10
3083.000063356329
 20
49.07532524910977
 30
0.0000000000060347
 11
3082.500063356329
 21
49.17532641250688
 31
0.0000000000060347
  0
LINE
  5
263D1
  8
01
 10
3079.000063356329
 20
48.27533455628719
 30
0.0000000000060347
 11
3083.000063356329
 21
49.07532524910977
 31
0.0000000000060347
  0
LINE
  5
263D2
  8
01
 10
3079.500063356329
 20
46.57533339289006
 30
0.0000000000060347
 11
3079.000063356329
 21
46.67533455628717
 31
0.0000000000060347
  0
LINE
  5
263D3
  8
01
 10
3079.000063356329
 20
46.67533455628717
 30
0.0000000000060347
 11
3083.000063356329
 21
47.47532524910974
 31
0.0000000000060347
  0
LINE
  5
263D4
  8
01
 10
3083.000063356329
 20
47.47532524910974
 30
0.0000000000060347
 11
3082.500063356329
 21
47.57532641250685
 31
0.0000000000060347
  0
LINE
  5
263D5
  8
01
 10
3079.500063356329
 20
38.57533339288995
 30
0.0000000000060347
 11
3079.000063356329
 21
38.67533455628705
 31
0.0000000000060347
  0
LINE
  5
263D6
  8
01
 10
3083.000063356329
 20
39.47532524910963
 30
0.0000000000060347
 11
3082.500063356329
 21
39.57532641250685
 31
0.0000000000060347
  0
LINE
  5
263D7
  8
01
 10
3083.000063356329
 20
41.07532524910977
 30
0.0000000000060347
 11
3082.500063356329
 21
41.17532641250688
 31
0.0000000000060347
  0
LINE
  5
263D8
  8
01
 10
3079.500063356329
 20
40.17533339289008
 30
0.0000000000060347
 11
3079.000063356329
 21
40.27533455628719
 31
0.0000000000060347
  0
LINE
  5
263D9
  8
01
 10
3079.500063356329
 20
41.77533339288999
 30
0.0000000000060347
 11
3079.000063356329
 21
41.8753345562871
 31
0.0000000000060347
  0
LINE
  5
263DA
  8
01
 10
3079.000063356329
 20
40.27533455628719
 30
0.0000000000060347
 11
3083.000063356329
 21
41.07532524910977
 31
0.0000000000060347
  0
LINE
  5
263DB
  8
01
 10
3079.000063356329
 20
38.67533455628705
 30
0.0000000000060347
 11
3083.000063356329
 21
39.47532524910963
 31
0.0000000000060347
  0
LINE
  5
263DC
  8
01
 10
3079.500063356329
 20
43.3753333928899
 30
0.0000000000060347
 11
3079.000063356329
 21
43.47533455628712
 31
0.0000000000060347
  0
LINE
  5
263DD
  8
01
 10
3079.500063356329
 20
51.57533339288995
 30
0.0000000000060347
 11
3079.000063356329
 21
51.67533455628705
 31
0.0000000000060347
  0
LINE
  5
263DE
  8
01
 10
3079.000063356329
 20
51.67533455628705
 30
0.0000000000060347
 11
3082.773656304124
 21
52.47532577591235
 31
0.0000000000060347
  0
LINE
  5
263DF
  8
01
 10
3082.773656304124
 20
52.47532577591235
 30
0.0000000000060347
 11
3082.237062568854
 21
52.60459647354222
 31
0.0000000000060347
  0
LINE
  5
263E0
  8
01
 10
3083.000063356329
 20
44.2753252491097
 30
0.0000000000060347
 11
3082.500063356329
 21
44.37532641250669
 31
0.0000000000060347
  0
LINE
  5
263E1
  8
01
 10
3083.000063356329
 20
45.87532524910972
 30
0.0000000000060347
 11
3082.500063356329
 21
45.97532641250683
 31
0.0000000000060347
  0
LINE
  5
263E2
  8
01
 10
3079.500063356329
 20
44.97533339289004
 30
0.0000000000060347
 11
3079.000063356329
 21
45.07533455628715
 31
0.0000000000060347
  0
LINE
  5
263E3
  8
01
 10
3079.000063356329
 20
45.07533455628715
 30
0.0000000000060347
 11
3083.000063356329
 21
45.87532524910972
 31
0.0000000000060347
  0
LINE
  5
263E4
  8
01
 10
3079.000063356329
 20
43.47533455628712
 30
0.0000000000060347
 11
3083.000063356329
 21
44.2753252491097
 31
0.0000000000060347
  0
LINE
  5
263E5
  8
01
 10
3079.452879498387
 20
53.27533350267689
 30
0.0000000000060347
 11
3082.320842199718
 21
54.07532682951799
 31
0.0000000000060347
  0
LINE
  5
263E6
  8
01
 10
3079.905693006436
 20
54.87533244907266
 30
0.0000000000060347
 11
3081.868028095311
 21
55.67532788312363
 31
0.0000000000060347
  0
LINE
  5
263E7
  8
01
 10
3082.320842199718
 20
54.07532682951799
 30
0.0000000000060347
 11
3081.769092735914
 21
54.25809097214599
 31
0.0000000000060347
  0
LINE
  5
263E8
  8
01
 10
3080.362864847067
 20
54.72389665263225
 30
0.0000000000060347
 11
3079.905693006436
 21
54.87533244907266
 31
0.0000000000060347
  0
LINE
  5
263E9
  8
01
 10
3081.868028095311
 20
55.67532788312363
 30
0.0000000000060347
 11
3081.279751520269
 21
55.98709773937574
 31
0.0000000000060347
  0
LINE
  5
263EA
  8
01
 10
3079.920977953537
 20
53.16256399032684
 30
0.0000000000060347
 11
3079.452879498387
 21
53.27533350267689
 31
0.0000000000060347
  0
LINE
  5
263EB
  8
01
 10
3083.000063356329
 20
42.67532524910968
 30
0.0000000000060347
 11
3082.500063356329
 21
42.7753264125069
 31
0.0000000000060347
  0
LINE
  5
263EC
  8
01
 10
3079.000063356329
 20
41.8753345562871
 30
0.0000000000060347
 11
3083.000063356329
 21
42.67532524910968
 31
0.0000000000060347
  0
LINE
  5
263ED
  8
01
 10
3082.500063356329
 20
24.97532641248998
 30
0.0000000000060347
 11
3083.000063356329
 21
25.07532524909226
 31
0.0000000000060347
  0
LINE
  5
263EE
  8
01
 10
3079.000063356329
 20
25.87533455627835
 30
0.0000000000060347
 11
3083.000063356329
 21
26.6753252490966
 31
0.0000000000060347
  0
LINE
  5
263EF
  8
01
 10
3079.000063356329
 20
29.07533455627839
 30
0.0000000000060347
 11
3083.000063356329
 21
29.87532524909665
 31
0.0000000000060347
  0
LINE
  5
263F0
  8
01
 10
3083.000063356329
 20
29.87532524909665
 30
0.0000000000060347
 11
3082.500063356329
 21
29.97532641249433
 31
0.0000000000060347
  0
LINE
  5
263F1
  8
01
 10
3083.000063356329
 20
26.6753252490966
 30
0.0000000000060347
 11
3082.500063356329
 21
26.77532641249428
 31
0.0000000000060347
  0
LINE
  5
263F2
  8
01
 10
3079.500063356329
 20
27.37533339288058
 30
0.0000000000060347
 11
3079.000063356329
 21
27.47533455627826
 31
0.0000000000060347
  0
LINE
  5
263F3
  8
01
 10
3083.000063356329
 20
28.27532524909651
 30
0.0000000000060347
 11
3082.500063356329
 21
28.37532641249419
 31
0.0000000000060347
  0
LINE
  5
263F4
  8
01
 10
3079.000063356329
 20
27.47533455627826
 30
0.0000000000060347
 11
3083.000063356329
 21
28.27532524909651
 31
0.0000000000060347
  0
LINE
  5
263F5
  8
01
 10
3079.500063356329
 20
28.97533339288071
 30
0.0000000000060347
 11
3079.000063356329
 21
29.07533455627839
 31
0.0000000000060347
  0
LINE
  5
263F6
  8
01
 10
3083.000063356329
 20
25.07532524909226
 30
0.0000000000060347
 11
3082.500063356329
 21
25.17532641248994
 31
0.0000000000060347
  0
LINE
  5
263F7
  8
01
 10
3079.500063356329
 20
25.77533339288067
 30
0.0000000000060347
 11
3079.000063356329
 21
25.87533455627835
 31
0.0000000000060347
  0
LINE
  5
263F8
  8
01
 10
3077.000016820431
 20
22.27533921009348
 30
0.0000000000060347
 11
3085.000016820431
 21
22.2753205957344
 31
0.0000000000060347
  0
LINE
  5
263F9
  8
01
 10
3079.500063356329
 20
30.57533339288506
 30
0.0000000000060347
 11
3079.000063356329
 21
30.67533455628273
 31
0.0000000000060347
  0
LINE
  5
263FA
  8
01
 10
3079.500063356329
 20
32.1753333928894
 30
0.0000000000060347
 11
3079.000063356329
 21
32.27533455628708
 31
0.0000000000060347
  0
LINE
  5
263FB
  8
01
 10
3083.000063356329
 20
31.47532524910099
 30
0.0000000000060347
 11
3082.500063356329
 21
31.57532641249867
 31
0.0000000000060347
  0
LINE
  5
263FC
  8
01
 10
3079.500063356329
 20
35.37533339288944
 30
0.0000000000060347
 11
3079.000063356329
 21
35.47533455628712
 31
0.0000000000060347
  0
LINE
  5
263FD
  8
01
 10
3079.000063356329
 20
33.87533455628699
 30
0.0000000000060347
 11
3083.000063356329
 21
34.67532524910524
 31
0.0000000000060347
  0
LINE
  5
263FE
  8
01
 10
3083.000063356329
 20
34.67532524910524
 30
0.0000000000060347
 11
3082.500063356329
 21
34.77532641250292
 31
0.0000000000060347
  0
LINE
  5
263FF
  8
01
 10
3079.500063356329
 20
33.77533339288931
 30
0.0000000000060347
 11
3079.000063356329
 21
33.87533455628699
 31
0.0000000000060347
  0
LINE
  5
26400
  8
01
 10
3083.000063356329
 20
33.07532524910533
 30
0.0000000000060347
 11
3082.500063356329
 21
33.17532641250301
 31
0.0000000000060347
  0
LINE
  5
26401
  8
01
 10
3083.000063356329
 20
37.87532524910972
 30
0.0000000000060347
 11
3082.500063356329
 21
37.97532641250683
 31
0.0000000000060347
  0
LINE
  5
26402
  8
01
 10
3083.000063356329
 20
36.27532524910538
 30
0.0000000000060347
 11
3082.500063356329
 21
36.37532641250306
 31
0.0000000000060347
  0
LINE
  5
26403
  8
01
 10
3079.500063356329
 20
36.97533339288935
 30
0.0000000000060347
 11
3079.000063356329
 21
37.07533455628715
 31
0.0000000000060347
  0
LINE
  5
26404
  8
01
 10
3079.000063356329
 20
37.07533455628715
 30
0.0000000000060347
 11
3083.000063356329
 21
37.87532524910972
 31
0.0000000000060347
  0
LINE
  5
26405
  8
01
 10
3079.000063356329
 20
35.47533455628712
 30
0.0000000000060347
 11
3083.000063356329
 21
36.27532524910538
 31
0.0000000000060347
  0
LINE
  5
26406
  8
01
 10
3079.000063356329
 20
32.27533455628708
 30
0.0000000000060347
 11
3083.000063356329
 21
33.07532524910533
 31
0.0000000000060347
  0
LINE
  5
26407
  8
01
 10
3079.000063356329
 20
30.67533455628273
 30
0.0000000000060347
 11
3083.000063356329
 21
31.47532524910099
 31
0.0000000000060347
  0
LINE
  5
26409
  8
1CENTER
 10
3189.467225965595
 20
58.42982609355093
 30
0.0
 11
3189.467225965595
 21
20.59669304617617
 31
0.0
  0
LINE
  5
2640A
  8
01
 10
3187.967272501493
 20
49.7753333928901
 30
0.0
 11
3187.467272501493
 21
49.87533455628721
 31
0.0
  0
LINE
  5
2640B
  8
01
 10
3187.467272501493
 20
49.87533455628721
 30
0.0
 11
3191.467272501493
 21
50.67532524910979
 31
0.0
  0
LINE
  5
2640C
  8
01
 10
3191.467272501493
 20
50.67532524910979
 30
0.0
 11
3190.967272501493
 21
50.7753264125069
 31
0.0
  0
LINE
  5
2640D
  8
01
 10
3187.967272501493
 20
48.17533339289008
 30
0.0
 11
3187.467272501493
 21
48.27533455628719
 31
0.0
  0
LINE
  5
2640E
  8
01
 10
3191.467272501493
 20
49.07532524910977
 30
0.0
 11
3190.967272501493
 21
49.17532641250688
 31
0.0
  0
LINE
  5
2640F
  8
01
 10
3187.467272501493
 20
48.27533455628719
 30
0.0
 11
3191.467272501493
 21
49.07532524910977
 31
0.0
  0
LINE
  5
26410
  8
01
 10
3187.967272501493
 20
46.57533339289006
 30
0.0
 11
3187.467272501493
 21
46.67533455628717
 31
0.0
  0
LINE
  5
26411
  8
01
 10
3187.467272501493
 20
46.67533455628717
 30
0.0
 11
3191.467272501493
 21
47.47532524910974
 31
0.0
  0
LINE
  5
26412
  8
01
 10
3191.467272501493
 20
47.47532524910974
 30
0.0
 11
3190.967272501493
 21
47.57532641250685
 31
0.0
  0
LINE
  5
26413
  8
01
 10
3187.967272501493
 20
38.57533339288995
 30
0.0
 11
3187.467272501493
 21
38.67533455628705
 31
0.0
  0
LINE
  5
26414
  8
01
 10
3191.467272501493
 20
39.47532524910963
 30
0.0
 11
3190.967272501493
 21
39.57532641250685
 31
0.0
  0
LINE
  5
26415
  8
01
 10
3191.467272501493
 20
41.07532524910977
 30
0.0
 11
3190.967272501493
 21
41.17532641250688
 31
0.0
  0
LINE
  5
26416
  8
01
 10
3187.967272501493
 20
40.17533339289008
 30
0.0
 11
3187.467272501493
 21
40.27533455628719
 31
0.0
  0
LINE
  5
26417
  8
01
 10
3187.967272501493
 20
41.77533339288999
 30
0.0
 11
3187.467272501493
 21
41.8753345562871
 31
0.0
  0
LINE
  5
26418
  8
01
 10
3187.467272501493
 20
40.27533455628719
 30
0.0
 11
3191.467272501493
 21
41.07532524910977
 31
0.0
  0
LINE
  5
26419
  8
01
 10
3187.467272501493
 20
38.67533455628705
 30
0.0
 11
3191.467272501493
 21
39.47532524910963
 31
0.0
  0
LINE
  5
2641A
  8
01
 10
3187.967272501493
 20
43.3753333928899
 30
0.0
 11
3187.467272501493
 21
43.47533455628712
 31
0.0
  0
LINE
  5
2641B
  8
01
 10
3187.967272501493
 20
51.57533339288995
 30
0.0
 11
3187.467272501493
 21
51.67533455628705
 31
0.0
  0
LINE
  5
2641C
  8
01
 10
3187.467272501493
 20
51.67533455628705
 30
0.0
 11
3191.240865449289
 21
52.47532577591235
 31
0.0
  0
LINE
  5
2641D
  8
01
 10
3191.240865449289
 20
52.47532577591235
 30
0.0
 11
3190.704271714018
 21
52.60459647354222
 31
0.0
  0
LINE
  5
2641E
  8
01
 10
3191.467272501493
 20
44.2753252491097
 30
0.0
 11
3190.967272501493
 21
44.37532641250669
 31
0.0
  0
LINE
  5
2641F
  8
01
 10
3191.467272501493
 20
45.87532524910972
 30
0.0
 11
3190.967272501493
 21
45.97532641250683
 31
0.0
  0
LINE
  5
26420
  8
01
 10
3187.967272501493
 20
44.97533339289004
 30
0.0
 11
3187.467272501493
 21
45.07533455628715
 31
0.0
  0
LINE
  5
26421
  8
01
 10
3187.467272501493
 20
45.07533455628715
 30
0.0
 11
3191.467272501493
 21
45.87532524910972
 31
0.0
  0
LINE
  5
26422
  8
01
 10
3187.467272501493
 20
43.47533455628712
 30
0.0
 11
3191.467272501493
 21
44.2753252491097
 31
0.0
  0
LINE
  5
26423
  8
01
 10
3187.920088643552
 20
53.27533350267689
 30
0.0
 11
3190.788051344883
 21
54.07532682951799
 31
0.0
  0
LINE
  5
26424
  8
01
 10
3188.372902151601
 20
54.87533244907266
 30
0.0
 11
3190.335237240476
 21
55.67532788312363
 31
0.0
  0
LINE
  5
26425
  8
01
 10
3190.788051344883
 20
54.07532682951799
 30
0.0
 11
3190.236301881079
 21
54.25809097214599
 31
0.0
  0
LINE
  5
26426
  8
01
 10
3188.830073992232
 20
54.72389665263225
 30
0.0
 11
3188.372902151601
 21
54.87533244907266
 31
0.0
  0
LINE
  5
26427
  8
01
 10
3190.335237240476
 20
55.67532788312363
 30
0.0
 11
3189.746960665434
 21
55.98709773937574
 31
0.0
  0
LINE
  5
26428
  8
01
 10
3188.388187098702
 20
53.16256399032684
 30
0.0
 11
3187.920088643552
 21
53.27533350267689
 31
0.0
  0
LINE
  5
26429
  8
01
 10
3191.467272501493
 20
42.67532524910968
 30
0.0
 11
3190.967272501493
 21
42.7753264125069
 31
0.0
  0
LINE
  5
2642A
  8
01
 10
3187.467272501493
 20
41.8753345562871
 30
0.0
 11
3191.467272501493
 21
42.67532524910968
 31
0.0
  0
LINE
  5
2642B
  8
01
 10
3190.967272501493
 20
24.97532641248998
 30
0.0
 11
3191.467272501493
 21
25.07532524909226
 31
0.0
  0
LINE
  5
2642C
  8
01
 10
3187.467272501493
 20
25.87533455627835
 30
0.0
 11
3191.467272501493
 21
26.6753252490966
 31
0.0
  0
LINE
  5
2642D
  8
01
 10
3187.467272501493
 20
29.07533455627839
 30
0.0
 11
3191.467272501493
 21
29.87532524909665
 31
0.0
  0
LINE
  5
2642E
  8
01
 10
3191.467272501493
 20
29.87532524909665
 30
0.0
 11
3190.967272501493
 21
29.97532641249433
 31
0.0
  0
LINE
  5
2642F
  8
01
 10
3191.467272501493
 20
26.6753252490966
 30
0.0
 11
3190.967272501493
 21
26.77532641249428
 31
0.0
  0
LINE
  5
26430
  8
01
 10
3187.967272501493
 20
27.37533339288058
 30
0.0
 11
3187.467272501493
 21
27.47533455627826
 31
0.0
  0
LINE
  5
26431
  8
01
 10
3191.467272501493
 20
28.27532524909651
 30
0.0
 11
3190.967272501493
 21
28.37532641249419
 31
0.0
  0
LINE
  5
26432
  8
01
 10
3187.467272501493
 20
27.47533455627826
 30
0.0
 11
3191.467272501493
 21
28.27532524909651
 31
0.0
  0
LINE
  5
26433
  8
01
 10
3187.967272501493
 20
28.97533339288071
 30
0.0
 11
3187.467272501493
 21
29.07533455627839
 31
0.0
  0
LINE
  5
26434
  8
01
 10
3191.467272501493
 20
25.07532524909226
 30
0.0
 11
3190.967272501493
 21
25.17532641248994
 31
0.0
  0
LINE
  5
26435
  8
01
 10
3187.967272501493
 20
25.77533339288067
 30
0.0
 11
3187.467272501493
 21
25.87533455627835
 31
0.0
  0
LINE
  5
26436
  8
01
 10
3185.467225965595
 20
22.27533921009348
 30
0.0
 11
3193.467225965595
 21
22.2753205957344
 31
0.0
  0
LINE
  5
26437
  8
01
 10
3187.967272501493
 20
30.57533339288506
 30
0.0
 11
3187.467272501493
 21
30.67533455628273
 31
0.0
  0
LINE
  5
26438
  8
01
 10
3187.967272501493
 20
32.1753333928894
 30
0.0
 11
3187.467272501493
 21
32.27533455628708
 31
0.0
  0
LINE
  5
26439
  8
01
 10
3191.467272501493
 20
31.47532524910099
 30
0.0
 11
3190.967272501493
 21
31.57532641249867
 31
0.0
  0
LINE
  5
2643A
  8
01
 10
3187.967272501493
 20
35.37533339288944
 30
0.0
 11
3187.467272501493
 21
35.47533455628712
 31
0.0
  0
LINE
  5
2643B
  8
01
 10
3187.467272501493
 20
33.87533455628699
 30
0.0
 11
3191.467272501493
 21
34.67532524910524
 31
0.0
  0
LINE
  5
2643C
  8
01
 10
3191.467272501493
 20
34.67532524910524
 30
0.0
 11
3190.967272501493
 21
34.77532641250292
 31
0.0
  0
LINE
  5
2643D
  8
01
 10
3187.967272501493
 20
33.77533339288931
 30
0.0
 11
3187.467272501493
 21
33.87533455628699
 31
0.0
  0
LINE
  5
2643E
  8
01
 10
3191.467272501493
 20
33.07532524910533
 30
0.0
 11
3190.967272501493
 21
33.17532641250301
 31
0.0
  0
LINE
  5
2643F
  8
01
 10
3191.467272501493
 20
37.87532524910972
 30
0.0
 11
3190.967272501493
 21
37.97532641250683
 31
0.0
  0
LINE
  5
26440
  8
01
 10
3191.467272501493
 20
36.27532524910538
 30
0.0
 11
3190.967272501493
 21
36.37532641250306
 31
0.0
  0
LINE
  5
26441
  8
01
 10
3187.967272501493
 20
36.97533339288935
 30
0.0
 11
3187.467272501493
 21
37.07533455628715
 31
0.0
  0
LINE
  5
26442
  8
01
 10
3187.467272501493
 20
37.07533455628715
 30
0.0
 11
3191.467272501493
 21
37.87532524910972
 31
0.0
  0
LINE
  5
26443
  8
01
 10
3187.467272501493
 20
35.47533455628712
 30
0.0
 11
3191.467272501493
 21
36.27532524910538
 31
0.0
  0
LINE
  5
26444
  8
01
 10
3187.467272501493
 20
32.27533455628708
 30
0.0
 11
3191.467272501493
 21
33.07532524910533
 31
0.0
  0
LINE
  5
26445
  8
01
 10
3187.467272501493
 20
30.67533455628273
 30
0.0
 11
3191.467272501493
 21
31.47532524910099
 31
0.0
  0
LINE
  5
26447
  8
1CENTER
 10
1601.674119568001
 20
10.02530712508451
 30
0.0
 11
1621.550690581146
 21
10.02530712508451
 31
0.0
  0
LINE
  5
26448
  8
1HATCH
 10
1602.699999934435
 20
8.375307125084534
 30
0.0
 11
1617.699999934435
 21
8.375307125084532
 31
0.0
  0
LINE
  5
26449
  8
1HATCH
 10
1602.699999934435
 20
11.67530712508449
 30
0.0
 11
1617.699999934435
 21
11.6753071250846
 31
0.0
  0
LINE
  5
2644A
  8
1HATCH
 10
1603.049999934435
 20
8.025307125084511
 30
0.0
 11
1603.049999934435
 21
12.02530712508451
 31
0.0
  0
LINE
  5
2644B
  8
01
 10
1617.699999934435
 20
8.02530712508451
 30
0.0
 11
1617.699999934435
 21
12.02530712508451
 31
0.0
  0
LINE
  5
2644D
  8
1CENTER
 10
1601.674119568001
 20
-4.974693470961936
 30
0.0
 11
1621.550690581146
 21
-4.974693470961939
 31
0.0
  0
LINE
  5
2644E
  8
1HATCH
 10
1602.699999934435
 20
-6.624693470961914
 30
0.0
 11
1617.699999934435
 21
-6.624693470961915
 31
0.0
  0
LINE
  5
2644F
  8
1HATCH
 10
1602.699999934435
 20
-3.324693470961959
 30
0.0
 11
1617.699999934435
 21
-3.324693470961847
 31
0.0
  0
LINE
  5
26450
  8
1HATCH
 10
1603.049999934435
 20
-6.974693470961936
 30
0.0
 11
1603.049999934435
 21
-2.974693470961936
 31
0.0
  0
LINE
  5
26451
  8
01
 10
1617.699999934435
 20
-6.974693470961938
 30
0.0
 11
1617.699999934435
 21
-2.974693470961938
 31
0.0
  0
LINE
  5
26453
  8
1CENTER
 10
3070.325831866135
 20
10.02530712508451
 30
0.0
 11
3050.449260852989
 21
10.02530712508451
 31
0.0
  0
LINE
  5
26454
  8
1HATCH
 10
3069.2999514997
 20
8.37530712508453
 30
0.0
 11
3054.2999514997
 21
8.375307125084532
 31
0.0
  0
LINE
  5
26455
  8
1HATCH
 10
3069.2999514997
 20
11.67530712508449
 30
0.0
 11
3054.2999514997
 21
11.6753071250846
 31
0.0
  0
LINE
  5
26456
  8
1HATCH
 10
3068.949951499701
 20
8.025307125084508
 30
0.0
 11
3068.949951499701
 21
12.02530712508451
 31
0.0
  0
LINE
  5
26457
  8
01
 10
3054.2999514997
 20
8.02530712508451
 30
0.0
 11
3054.2999514997
 21
12.02530712508451
 31
0.0
  0
LINE
  5
26459
  8
1CENTER
 10
3070.325831866135
 20
-4.97469347096194
 30
0.0
 11
3050.449260852989
 21
-4.974693470961937
 31
0.0
  0
LINE
  5
2645A
  8
1HATCH
 10
3069.2999514997
 20
-6.624693470961917
 30
0.0
 11
3054.2999514997
 21
-6.624693470961915
 31
0.0
  0
LINE
  5
2645B
  8
1HATCH
 10
3069.2999514997
 20
-3.324693470961963
 30
0.0
 11
3054.2999514997
 21
-3.324693470961847
 31
0.0
  0
LINE
  5
2645C
  8
1HATCH
 10
3068.949951499701
 20
-6.97469347096194
 30
0.0
 11
3068.949951499701
 21
-2.97469347096194
 31
0.0
  0
LINE
  5
2645D
  8
01
 10
3054.2999514997
 20
-6.974693470961938
 30
0.0
 11
3054.2999514997
 21
-2.974693470961938
 31
0.0
  0
LINE
  5
2645F
  8
1CENTER
 10
157.5956199796461
 20
-429.9348639910586
 30
0.0000000000060347
 11
195.4287530270209
 21
-429.9348639910586
 31
0.0000000000060347
  0
LINE
  5
26460
  8
01
 10
166.2501126803069
 20
-431.4348174551607
 30
0.0000000000060347
 11
166.1501115169098
 21
-431.9348174551607
 31
0.0000000000060347
  0
LINE
  5
26461
  8
01
 10
166.1501115169098
 20
-431.9348174551607
 30
0.0000000000060347
 11
165.3501208240872
 21
-427.9348174551607
 31
0.0000000000060347
  0
LINE
  5
26462
  8
01
 10
165.3501208240872
 20
-427.9348174551607
 30
0.0000000000060347
 11
165.2501196606901
 21
-428.4348174551607
 31
0.0000000000060347
  0
LINE
  5
26463
  8
01
 10
167.8501126803069
 20
-431.4348174551607
 30
0.0000000000060347
 11
167.7501115169098
 21
-431.9348174551607
 31
0.0000000000060347
  0
LINE
  5
26464
  8
01
 10
166.9501208240873
 20
-427.9348174551607
 30
0.0000000000060347
 11
166.8501196606902
 21
-428.4348174551607
 31
0.0000000000060347
  0
LINE
  5
26465
  8
01
 10
167.7501115169098
 20
-431.9348174551607
 30
0.0000000000060347
 11
166.9501208240873
 21
-427.9348174551607
 31
0.0000000000060347
  0
LINE
  5
26466
  8
01
 10
169.450112680307
 20
-431.4348174551607
 30
0.0000000000060347
 11
169.3501115169099
 21
-431.9348174551607
 31
0.0000000000060347
  0
LINE
  5
26467
  8
01
 10
169.3501115169099
 20
-431.9348174551607
 30
0.0000000000060347
 11
168.5501208240873
 21
-427.9348174551607
 31
0.0000000000060347
  0
LINE
  5
26468
  8
01
 10
168.5501208240873
 20
-427.9348174551607
 30
0.0000000000060347
 11
168.4501196606902
 21
-428.4348174551607
 31
0.0000000000060347
  0
LINE
  5
26469
  8
01
 10
177.4501126803071
 20
-431.4348174551607
 30
0.0000000000060347
 11
177.35011151691
 21
-431.9348174551607
 31
0.0000000000060347
  0
LINE
  5
2646A
  8
01
 10
176.5501208240874
 20
-427.9348174551607
 30
0.0000000000060347
 11
176.4501196606902
 21
-428.4348174551607
 31
0.0000000000060347
  0
LINE
  5
2646B
  8
01
 10
174.9501208240873
 20
-427.9348174551607
 30
0.0000000000060347
 11
174.8501196606902
 21
-428.4348174551607
 31
0.0000000000060347
  0
LINE
  5
2646C
  8
01
 10
175.8501126803069
 20
-431.4348174551607
 30
0.0000000000060347
 11
175.7501115169098
 21
-431.9348174551607
 31
0.0000000000060347
  0
LINE
  5
2646D
  8
01
 10
174.250112680307
 20
-431.4348174551607
 30
0.0000000000060347
 11
174.1501115169099
 21
-431.9348174551607
 31
0.0000000000060347
  0
LINE
  5
2646E
  8
01
 10
175.7501115169098
 20
-431.9348174551607
 30
0.0000000000060347
 11
174.9501208240873
 21
-427.9348174551607
 31
0.0000000000060347
  0
LINE
  5
2646F
  8
01
 10
177.35011151691
 20
-431.9348174551607
 30
0.0000000000060347
 11
176.5501208240874
 21
-427.9348174551607
 31
0.0000000000060347
  0
LINE
  5
26470
  8
01
 10
172.6501126803071
 20
-431.4348174551607
 30
0.0000000000060347
 11
172.5501115169099
 21
-431.9348174551607
 31
0.0000000000060347
  0
LINE
  5
26471
  8
01
 10
164.4501126803071
 20
-431.4348174551607
 30
0.0000000000060347
 11
164.35011151691
 21
-431.9348174551607
 31
0.0000000000060347
  0
LINE
  5
26472
  8
01
 10
164.35011151691
 20
-431.9348174551607
 30
0.0000000000060347
 11
163.5501202972847
 21
-428.1612245073646
 31
0.0000000000060347
  0
LINE
  5
26473
  8
01
 10
163.5501202972847
 20
-428.1612245073646
 30
0.0000000000060347
 11
163.4208495996548
 21
-428.6978182426358
 31
0.0000000000060347
  0
LINE
  5
26474
  8
01
 10
171.7501208240873
 20
-427.9348174551607
 30
0.0000000000060347
 11
171.6501196606903
 21
-428.4348174551607
 31
0.0000000000060347
  0
LINE
  5
26475
  8
01
 10
170.1501208240873
 20
-427.9348174551607
 30
0.0000000000060347
 11
170.0501196606902
 21
-428.4348174551607
 31
0.0000000000060347
  0
LINE
  5
26476
  8
01
 10
171.050112680307
 20
-431.4348174551607
 30
0.0000000000060347
 11
170.9501115169099
 21
-431.9348174551607
 31
0.0000000000060347
  0
LINE
  5
26477
  8
01
 10
170.9501115169099
 20
-431.9348174551607
 30
0.0000000000060347
 11
170.1501208240873
 21
-427.9348174551607
 31
0.0000000000060347
  0
LINE
  5
26478
  8
01
 10
172.5501115169099
 20
-431.9348174551607
 30
0.0000000000060347
 11
171.7501208240873
 21
-427.9348174551607
 31
0.0000000000060347
  0
LINE
  5
26479
  8
01
 10
162.7501125705201
 20
-431.4820013131019
 30
0.0000000000060347
 11
161.950119243679
 21
-428.6140386117714
 31
0.0000000000060347
  0
LINE
  5
2647A
  8
01
 10
161.1501136241244
 20
-431.0291878050537
 30
0.0000000000060347
 11
160.3501181900734
 21
-429.0668527161782
 31
0.0000000000060347
  0
LINE
  5
2647B
  8
01
 10
161.950119243679
 20
-428.6140386117714
 30
0.0000000000060347
 11
161.767355101051
 21
-429.1657880755747
 31
0.0000000000060347
  0
LINE
  5
2647C
  8
01
 10
161.3015494205648
 20
-430.5720159644226
 30
0.0000000000060347
 11
161.1501136241244
 21
-431.0291878050537
 31
0.0000000000060347
  0
LINE
  5
2647D
  8
01
 10
160.3501181900734
 20
-429.0668527161782
 30
0.0000000000060347
 11
160.0383483338213
 21
-429.6551292912206
 31
0.0000000000060347
  0
LINE
  5
2647E
  8
01
 10
162.8628820828702
 20
-431.013902857952
 30
0.0000000000060347
 11
162.7501125705201
 21
-431.4820013131019
 31
0.0000000000060347
  0
LINE
  5
2647F
  8
01
 10
173.3501208240874
 20
-427.9348174551607
 30
0.0000000000060347
 11
173.2501196606901
 21
-428.4348174551607
 31
0.0000000000060347
  0
LINE
  5
26480
  8
01
 10
174.1501115169099
 20
-431.9348174551607
 30
0.0000000000060347
 11
173.3501208240874
 21
-427.9348174551607
 31
0.0000000000060347
  0
LINE
  5
26481
  8
01
 10
191.0501196607071
 20
-428.4348174551607
 30
0.0000000000060347
 11
190.9501208241048
 21
-427.9348174551607
 31
0.0000000000060347
  0
LINE
  5
26482
  8
01
 10
190.1501115169187
 20
-431.9348174551607
 30
0.0000000000060347
 11
189.3501208241004
 21
-427.9348174551607
 31
0.0000000000060347
  0
LINE
  5
26483
  8
01
 10
186.9501115169186
 20
-431.9348174551607
 30
0.0000000000060347
 11
186.1501208241004
 21
-427.9348174551607
 31
0.0000000000060347
  0
LINE
  5
26484
  8
01
 10
186.1501208241004
 20
-427.9348174551607
 30
0.0000000000060347
 11
186.0501196607027
 21
-428.4348174551607
 31
0.0000000000060347
  0
LINE
  5
26485
  8
01
 10
189.3501208241004
 20
-427.9348174551607
 30
0.0000000000060347
 11
189.2501196607028
 21
-428.4348174551607
 31
0.0000000000060347
  0
LINE
  5
26486
  8
01
 10
188.6501126803165
 20
-431.4348174551607
 30
0.0000000000060347
 11
188.5501115169188
 21
-431.9348174551607
 31
0.0000000000060347
  0
LINE
  5
26487
  8
01
 10
187.7501208241005
 20
-427.9348174551607
 30
0.0000000000060347
 11
187.6501196607028
 21
-428.4348174551607
 31
0.0000000000060347
  0
LINE
  5
26488
  8
01
 10
188.5501115169188
 20
-431.9348174551607
 30
0.0000000000060347
 11
187.7501208241005
 21
-427.9348174551607
 31
0.0000000000060347
  0
LINE
  5
26489
  8
01
 10
187.0501126803163
 20
-431.4348174551607
 30
0.0000000000060347
 11
186.9501115169186
 21
-431.9348174551607
 31
0.0000000000060347
  0
LINE
  5
2648A
  8
01
 10
190.9501208241048
 20
-427.9348174551607
 30
0.0000000000060347
 11
190.8501196607071
 21
-428.4348174551607
 31
0.0000000000060347
  0
LINE
  5
2648B
  8
01
 10
190.2501126803164
 20
-431.4348174551607
 30
0.0000000000060347
 11
190.1501115169187
 21
-431.9348174551607
 31
0.0000000000060347
  0
LINE
  5
2648C
  8
01
 10
193.7501068631036
 20
-433.9348639910586
 30
0.0000000000060347
 11
193.7501254774626
 21
-425.9348639910586
 31
0.0000000000060347
  0
LINE
  5
2648D
  8
01
 10
185.450112680312
 20
-431.4348174551607
 30
0.0000000000060347
 11
185.3501115169143
 21
-431.9348174551607
 31
0.0000000000060347
  0
LINE
  5
2648E
  8
01
 10
183.8501126803076
 20
-431.4348174551607
 30
0.0000000000060347
 11
183.75011151691
 21
-431.9348174551607
 31
0.0000000000060347
  0
LINE
  5
2648F
  8
01
 10
184.550120824096
 20
-427.9348174551607
 30
0.0000000000060347
 11
184.4501196606984
 21
-428.4348174551607
 31
0.0000000000060347
  0
LINE
  5
26490
  8
01
 10
180.6501126803076
 20
-431.4348174551607
 30
0.0000000000060347
 11
180.5501115169099
 21
-431.9348174551607
 31
0.0000000000060347
  0
LINE
  5
26491
  8
01
 10
182.15011151691
 20
-431.9348174551607
 30
0.0000000000060347
 11
181.3501208240918
 21
-427.9348174551607
 31
0.0000000000060347
  0
LINE
  5
26492
  8
01
 10
181.3501208240918
 20
-427.9348174551607
 30
0.0000000000060347
 11
181.2501196606941
 21
-428.4348174551607
 31
0.0000000000060347
  0
LINE
  5
26493
  8
01
 10
182.2501126803077
 20
-431.4348174551607
 30
0.0000000000060347
 11
182.15011151691
 21
-431.9348174551607
 31
0.0000000000060347
  0
LINE
  5
26494
  8
01
 10
182.9501208240917
 20
-427.9348174551607
 30
0.0000000000060347
 11
182.850119660694
 21
-428.4348174551607
 31
0.0000000000060347
  0
LINE
  5
26495
  8
01
 10
178.1501208240873
 20
-427.9348174551607
 30
0.0000000000060347
 11
178.0501196606902
 21
-428.4348174551607
 31
0.0000000000060347
  0
LINE
  5
26496
  8
01
 10
179.7501208240917
 20
-427.9348174551607
 30
0.0000000000060347
 11
179.650119660694
 21
-428.4348174551607
 31
0.0000000000060347
  0
LINE
  5
26497
  8
01
 10
179.0501126803077
 20
-431.4348174551607
 30
0.0000000000060347
 11
178.9501115169099
 21
-431.9348174551607
 31
0.0000000000060347
  0
LINE
  5
26498
  8
01
 10
178.9501115169099
 20
-431.9348174551607
 30
0.0000000000060347
 11
178.1501208240873
 21
-427.9348174551607
 31
0.0000000000060347
  0
LINE
  5
26499
  8
01
 10
180.5501115169099
 20
-431.9348174551607
 30
0.0000000000060347
 11
179.7501208240917
 21
-427.9348174551607
 31
0.0000000000060347
  0
LINE
  5
2649A
  8
01
 10
183.75011151691
 20
-431.9348174551607
 30
0.0000000000060347
 11
182.9501208240917
 21
-427.9348174551607
 31
0.0000000000060347
  0
LINE
  5
2649B
  8
01
 10
185.3501115169143
 20
-431.9348174551607
 30
0.0000000000060347
 11
184.550120824096
 21
-427.9348174551607
 31
0.0000000000060347
  0
LINE
  5
2649D
  8
1CENTER
 10
157.5956199796461
 20
-389.9348639910586
 30
0.0000000000060347
 11
195.4287530270209
 21
-389.9348639910586
 31
0.0000000000060347
  0
LINE
  5
2649E
  8
01
 10
166.2501126803069
 20
-391.4348174551607
 30
0.0000000000060347
 11
166.1501115169098
 21
-391.9348174551607
 31
0.0000000000060347
  0
LINE
  5
2649F
  8
01
 10
166.1501115169098
 20
-391.9348174551607
 30
0.0000000000060347
 11
165.3501208240872
 21
-387.9348174551607
 31
0.0000000000060347
  0
LINE
  5
264A0
  8
01
 10
165.3501208240872
 20
-387.9348174551607
 30
0.0000000000060347
 11
165.2501196606901
 21
-388.4348174551607
 31
0.0000000000060347
  0
LINE
  5
264A1
  8
01
 10
167.8501126803069
 20
-391.4348174551607
 30
0.0000000000060347
 11
167.7501115169098
 21
-391.9348174551607
 31
0.0000000000060347
  0
LINE
  5
264A2
  8
01
 10
166.9501208240873
 20
-387.9348174551607
 30
0.0000000000060347
 11
166.8501196606902
 21
-388.4348174551607
 31
0.0000000000060347
  0
LINE
  5
264A3
  8
01
 10
167.7501115169098
 20
-391.9348174551607
 30
0.0000000000060347
 11
166.9501208240873
 21
-387.9348174551607
 31
0.0000000000060347
  0
LINE
  5
264A4
  8
01
 10
169.450112680307
 20
-391.4348174551607
 30
0.0000000000060347
 11
169.3501115169099
 21
-391.9348174551607
 31
0.0000000000060347
  0
LINE
  5
264A5
  8
01
 10
169.3501115169099
 20
-391.9348174551607
 30
0.0000000000060347
 11
168.5501208240873
 21
-387.9348174551607
 31
0.0000000000060347
  0
LINE
  5
264A6
  8
01
 10
168.5501208240873
 20
-387.9348174551607
 30
0.0000000000060347
 11
168.4501196606902
 21
-388.4348174551607
 31
0.0000000000060347
  0
LINE
  5
264A7
  8
01
 10
177.4501126803071
 20
-391.4348174551607
 30
0.0000000000060347
 11
177.35011151691
 21
-391.9348174551607
 31
0.0000000000060347
  0
LINE
  5
264A8
  8
01
 10
176.5501208240874
 20
-387.9348174551607
 30
0.0000000000060347
 11
176.4501196606902
 21
-388.4348174551607
 31
0.0000000000060347
  0
LINE
  5
264A9
  8
01
 10
174.9501208240873
 20
-387.9348174551607
 30
0.0000000000060347
 11
174.8501196606902
 21
-388.4348174551607
 31
0.0000000000060347
  0
LINE
  5
264AA
  8
01
 10
175.8501126803069
 20
-391.4348174551607
 30
0.0000000000060347
 11
175.7501115169098
 21
-391.9348174551607
 31
0.0000000000060347
  0
LINE
  5
264AB
  8
01
 10
174.250112680307
 20
-391.4348174551607
 30
0.0000000000060347
 11
174.1501115169099
 21
-391.9348174551607
 31
0.0000000000060347
  0
LINE
  5
264AC
  8
01
 10
175.7501115169098
 20
-391.9348174551607
 30
0.0000000000060347
 11
174.9501208240873
 21
-387.9348174551607
 31
0.0000000000060347
  0
LINE
  5
264AD
  8
01
 10
177.35011151691
 20
-391.9348174551607
 30
0.0000000000060347
 11
176.5501208240874
 21
-387.9348174551607
 31
0.0000000000060347
  0
LINE
  5
264AE
  8
01
 10
172.6501126803071
 20
-391.4348174551607
 30
0.0000000000060347
 11
172.5501115169099
 21
-391.9348174551607
 31
0.0000000000060347
  0
LINE
  5
264AF
  8
01
 10
164.4501126803071
 20
-391.4348174551607
 30
0.0000000000060347
 11
164.35011151691
 21
-391.9348174551607
 31
0.0000000000060347
  0
LINE
  5
264B0
  8
01
 10
164.35011151691
 20
-391.9348174551607
 30
0.0000000000060347
 11
163.5501202972847
 21
-388.1612245073646
 31
0.0000000000060347
  0
LINE
  5
264B1
  8
01
 10
163.5501202972847
 20
-388.1612245073646
 30
0.0000000000060347
 11
163.4208495996548
 21
-388.6978182426358
 31
0.0000000000060347
  0
LINE
  5
264B2
  8
01
 10
171.7501208240873
 20
-387.9348174551607
 30
0.0000000000060347
 11
171.6501196606903
 21
-388.4348174551607
 31
0.0000000000060347
  0
LINE
  5
264B3
  8
01
 10
170.1501208240873
 20
-387.9348174551607
 30
0.0000000000060347
 11
170.0501196606902
 21
-388.4348174551607
 31
0.0000000000060347
  0
LINE
  5
264B4
  8
01
 10
171.050112680307
 20
-391.4348174551607
 30
0.0000000000060347
 11
170.9501115169099
 21
-391.9348174551607
 31
0.0000000000060347
  0
LINE
  5
264B5
  8
01
 10
170.9501115169099
 20
-391.9348174551607
 30
0.0000000000060347
 11
170.1501208240873
 21
-387.9348174551607
 31
0.0000000000060347
  0
LINE
  5
264B6
  8
01
 10
172.5501115169099
 20
-391.9348174551607
 30
0.0000000000060347
 11
171.7501208240873
 21
-387.9348174551607
 31
0.0000000000060347
  0
LINE
  5
264B7
  8
01
 10
162.7501125705201
 20
-391.4820013131019
 30
0.0000000000060347
 11
161.950119243679
 21
-388.6140386117714
 31
0.0000000000060347
  0
LINE
  5
264B8
  8
01
 10
161.1501136241244
 20
-391.0291878050537
 30
0.0000000000060347
 11
160.3501181900734
 21
-389.0668527161782
 31
0.0000000000060347
  0
LINE
  5
264B9
  8
01
 10
161.950119243679
 20
-388.6140386117714
 30
0.0000000000060347
 11
161.767355101051
 21
-389.1657880755747
 31
0.0000000000060347
  0
LINE
  5
264BA
  8
01
 10
161.3015494205648
 20
-390.5720159644226
 30
0.0000000000060347
 11
161.1501136241244
 21
-391.0291878050537
 31
0.0000000000060347
  0
LINE
  5
264BB
  8
01
 10
160.3501181900734
 20
-389.0668527161782
 30
0.0000000000060347
 11
160.0383483338213
 21
-389.6551292912206
 31
0.0000000000060347
  0
LINE
  5
264BC
  8
01
 10
162.8628820828702
 20
-391.013902857952
 30
0.0000000000060347
 11
162.7501125705201
 21
-391.4820013131019
 31
0.0000000000060347
  0
LINE
  5
264BD
  8
01
 10
173.3501208240874
 20
-387.9348174551607
 30
0.0000000000060347
 11
173.2501196606901
 21
-388.4348174551607
 31
0.0000000000060347
  0
LINE
  5
264BE
  8
01
 10
174.1501115169099
 20
-391.9348174551607
 30
0.0000000000060347
 11
173.3501208240874
 21
-387.9348174551607
 31
0.0000000000060347
  0
LINE
  5
264BF
  8
01
 10
191.0501196607071
 20
-388.4348174551607
 30
0.0000000000060347
 11
190.9501208241048
 21
-387.9348174551607
 31
0.0000000000060347
  0
LINE
  5
264C0
  8
01
 10
190.1501115169187
 20
-391.9348174551607
 30
0.0000000000060347
 11
189.3501208241004
 21
-387.9348174551607
 31
0.0000000000060347
  0
LINE
  5
264C1
  8
01
 10
186.9501115169186
 20
-391.9348174551607
 30
0.0000000000060347
 11
186.1501208241004
 21
-387.9348174551607
 31
0.0000000000060347
  0
LINE
  5
264C2
  8
01
 10
186.1501208241004
 20
-387.9348174551607
 30
0.0000000000060347
 11
186.0501196607027
 21
-388.4348174551607
 31
0.0000000000060347
  0
LINE
  5
264C3
  8
01
 10
189.3501208241004
 20
-387.9348174551607
 30
0.0000000000060347
 11
189.2501196607028
 21
-388.4348174551607
 31
0.0000000000060347
  0
LINE
  5
264C4
  8
01
 10
188.6501126803165
 20
-391.4348174551607
 30
0.0000000000060347
 11
188.5501115169188
 21
-391.9348174551607
 31
0.0000000000060347
  0
LINE
  5
264C5
  8
01
 10
187.7501208241005
 20
-387.9348174551607
 30
0.0000000000060347
 11
187.6501196607028
 21
-388.4348174551607
 31
0.0000000000060347
  0
LINE
  5
264C6
  8
01
 10
188.5501115169188
 20
-391.9348174551607
 30
0.0000000000060347
 11
187.7501208241005
 21
-387.9348174551607
 31
0.0000000000060347
  0
LINE
  5
264C7
  8
01
 10
187.0501126803163
 20
-391.4348174551607
 30
0.0000000000060347
 11
186.9501115169186
 21
-391.9348174551607
 31
0.0000000000060347
  0
LINE
  5
264C8
  8
01
 10
190.9501208241048
 20
-387.9348174551607
 30
0.0000000000060347
 11
190.8501196607071
 21
-388.4348174551607
 31
0.0000000000060347
  0
LINE
  5
264C9
  8
01
 10
190.2501126803164
 20
-391.4348174551607
 30
0.0000000000060347
 11
190.1501115169187
 21
-391.9348174551607
 31
0.0000000000060347
  0
LINE
  5
264CA
  8
01
 10
193.7501068631036
 20
-393.9348639910586
 30
0.0000000000060347
 11
193.7501254774626
 21
-385.9348639910586
 31
0.0000000000060347
  0
LINE
  5
264CB
  8
01
 10
185.450112680312
 20
-391.4348174551607
 30
0.0000000000060347
 11
185.3501115169143
 21
-391.9348174551607
 31
0.0000000000060347
  0
LINE
  5
264CC
  8
01
 10
183.8501126803076
 20
-391.4348174551607
 30
0.0000000000060347
 11
183.75011151691
 21
-391.9348174551607
 31
0.0000000000060347
  0
LINE
  5
264CD
  8
01
 10
184.550120824096
 20
-387.9348174551607
 30
0.0000000000060347
 11
184.4501196606984
 21
-388.4348174551607
 31
0.0000000000060347
  0
LINE
  5
264CE
  8
01
 10
180.6501126803076
 20
-391.4348174551607
 30
0.0000000000060347
 11
180.5501115169099
 21
-391.9348174551607
 31
0.0000000000060347
  0
LINE
  5
264CF
  8
01
 10
182.15011151691
 20
-391.9348174551607
 30
0.0000000000060347
 11
181.3501208240918
 21
-387.9348174551607
 31
0.0000000000060347
  0
LINE
  5
264D0
  8
01
 10
181.3501208240918
 20
-387.9348174551607
 30
0.0000000000060347
 11
181.2501196606941
 21
-388.4348174551607
 31
0.0000000000060347
  0
LINE
  5
264D1
  8
01
 10
182.2501126803077
 20
-391.4348174551607
 30
0.0000000000060347
 11
182.15011151691
 21
-391.9348174551607
 31
0.0000000000060347
  0
LINE
  5
264D2
  8
01
 10
182.9501208240917
 20
-387.9348174551607
 30
0.0000000000060347
 11
182.850119660694
 21
-388.4348174551607
 31
0.0000000000060347
  0
LINE
  5
264D3
  8
01
 10
178.1501208240873
 20
-387.9348174551607
 30
0.0000000000060347
 11
178.0501196606902
 21
-388.4348174551607
 31
0.0000000000060347
  0
LINE
  5
264D4
  8
01
 10
179.7501208240917
 20
-387.9348174551607
 30
0.0000000000060347
 11
179.650119660694
 21
-388.4348174551607
 31
0.0000000000060347
  0
LINE
  5
264D5
  8
01
 10
179.0501126803077
 20
-391.4348174551607
 30
0.0000000000060347
 11
178.9501115169099
 21
-391.9348174551607
 31
0.0000000000060347
  0
LINE
  5
264D6
  8
01
 10
178.9501115169099
 20
-391.9348174551607
 30
0.0000000000060347
 11
178.1501208240873
 21
-387.9348174551607
 31
0.0000000000060347
  0
LINE
  5
264D7
  8
01
 10
180.5501115169099
 20
-391.9348174551607
 30
0.0000000000060347
 11
179.7501208240917
 21
-387.9348174551607
 31
0.0000000000060347
  0
LINE
  5
264D8
  8
01
 10
183.75011151691
 20
-391.9348174551607
 30
0.0000000000060347
 11
182.9501208240917
 21
-387.9348174551607
 31
0.0000000000060347
  0
LINE
  5
264D9
  8
01
 10
185.3501115169143
 20
-391.9348174551607
 30
0.0000000000060347
 11
184.550120824096
 21
-387.9348174551607
 31
0.0000000000060347
  0
LINE
  5
264DB
  8
1CENTER
 10
206.0001389481131
 20
-419.2607433620951
 30
0.0
 11
206.0001389481131
 21
-399.3841723489499
 31
0.0
  0
LINE
  5
264DC
  8
1HATCH
 10
207.6501389481131
 20
-418.2348629956609
 30
0.0
 11
207.6501389481131
 21
-403.2348629956609
 31
0.0
  0
LINE
  5
264DD
  8
1HATCH
 10
204.3501389481131
 20
-418.2348629956609
 30
0.0
 11
204.350138948113
 21
-403.2348629956609
 31
0.0
  0
LINE
  5
264DE
  8
1HATCH
 10
208.0001389481131
 20
-417.8848629956609
 30
0.0
 11
204.0001389481131
 21
-417.8848629956609
 31
0.0
  0
LINE
  5
264DF
  8
01
 10
208.0001389481131
 20
-403.234862995661
 30
0.0
 11
204.0001389481131
 21
-403.2348629956609
 31
0.0
  0
LINE
  5
264E1
  8
1CENTER
 10
221.0001395441595
 20
-419.2607433620951
 30
0.0
 11
221.0001395441595
 21
-399.3841723489499
 31
0.0
  0
LINE
  5
264E2
  8
1HATCH
 10
222.6501395441595
 20
-418.2348629956609
 30
0.0
 11
222.6501395441595
 21
-403.2348629956609
 31
0.0
  0
LINE
  5
264E3
  8
1HATCH
 10
219.3501395441596
 20
-418.2348629956609
 30
0.0
 11
219.3501395441594
 21
-403.2348629956609
 31
0.0
  0
LINE
  5
264E4
  8
1HATCH
 10
223.0001395441595
 20
-417.8848629956609
 30
0.0
 11
219.0001395441595
 21
-417.8848629956609
 31
0.0
  0
LINE
  5
264E5
  8
01
 10
223.0001395441595
 20
-403.234862995661
 30
0.0
 11
219.0001395441595
 21
-403.2348629956609
 31
0.0
  0
LINE
  5
264E7
  8
1CENTER
 10
156.5956199796464
 20
-551.0812045627281
 30
0.0
 11
194.4287530270212
 21
-551.0812045627281
 31
0.0
  0
LINE
  5
264E8
  8
01
 10
165.2501126803073
 20
-552.5811580268302
 30
0.0
 11
165.1501115169102
 21
-553.0811580268302
 31
0.0
  0
LINE
  5
264E9
  8
01
 10
165.1501115169102
 20
-553.0811580268302
 30
0.0
 11
164.3501208240876
 21
-549.0811580268302
 31
0.0
  0
LINE
  5
264EA
  8
01
 10
164.3501208240876
 20
-549.0811580268302
 30
0.0
 11
164.2501196606905
 21
-549.5811580268302
 31
0.0
  0
LINE
  5
264EB
  8
01
 10
166.8501126803073
 20
-552.5811580268302
 30
0.0
 11
166.7501115169102
 21
-553.0811580268302
 31
0.0
  0
LINE
  5
264EC
  8
01
 10
165.9501208240876
 20
-549.0811580268302
 30
0.0
 11
165.8501196606905
 21
-549.5811580268302
 31
0.0
  0
LINE
  5
264ED
  8
01
 10
166.7501115169102
 20
-553.0811580268302
 30
0.0
 11
165.9501208240876
 21
-549.0811580268302
 31
0.0
  0
LINE
  5
264EE
  8
01
 10
168.4501126803073
 20
-552.5811580268302
 30
0.0
 11
168.3501115169102
 21
-553.0811580268302
 31
0.0
  0
LINE
  5
264EF
  8
01
 10
168.3501115169102
 20
-553.0811580268302
 30
0.0
 11
167.5501208240876
 21
-549.0811580268302
 31
0.0
  0
LINE
  5
264F0
  8
01
 10
167.5501208240876
 20
-549.0811580268302
 30
0.0
 11
167.4501196606905
 21
-549.5811580268302
 31
0.0
  0
LINE
  5
264F1
  8
01
 10
176.4501126803074
 20
-552.5811580268302
 30
0.0
 11
176.3501115169103
 21
-553.0811580268302
 31
0.0
  0
LINE
  5
264F2
  8
01
 10
175.5501208240877
 20
-549.0811580268302
 30
0.0
 11
175.4501196606905
 21
-549.5811580268302
 31
0.0
  0
LINE
  5
264F3
  8
01
 10
173.9501208240876
 20
-549.0811580268302
 30
0.0
 11
173.8501196606905
 21
-549.5811580268302
 31
0.0
  0
LINE
  5
264F4
  8
01
 10
174.8501126803073
 20
-552.5811580268302
 30
0.0
 11
174.7501115169102
 21
-553.0811580268302
 31
0.0
  0
LINE
  5
264F5
  8
01
 10
173.2501126803074
 20
-552.5811580268302
 30
0.0
 11
173.1501115169103
 21
-553.0811580268302
 31
0.0
  0
LINE
  5
264F6
  8
01
 10
174.7501115169102
 20
-553.0811580268302
 30
0.0
 11
173.9501208240876
 21
-549.0811580268302
 31
0.0
  0
LINE
  5
264F7
  8
01
 10
176.3501115169103
 20
-553.0811580268302
 30
0.0
 11
175.5501208240877
 21
-549.0811580268302
 31
0.0
  0
LINE
  5
264F8
  8
01
 10
171.6501126803075
 20
-552.5811580268302
 30
0.0
 11
171.5501115169102
 21
-553.0811580268302
 31
0.0
  0
LINE
  5
264F9
  8
01
 10
163.4501126803074
 20
-552.5811580268302
 30
0.0
 11
163.3501115169103
 21
-553.0811580268302
 31
0.0
  0
LINE
  5
264FA
  8
01
 10
163.3501115169103
 20
-553.0811580268302
 30
0.0
 11
162.550120297285
 21
-549.3075650790341
 31
0.0
  0
LINE
  5
264FB
  8
01
 10
162.550120297285
 20
-549.3075650790341
 30
0.0
 11
162.4208495996552
 21
-549.8441588143053
 31
0.0
  0
LINE
  5
264FC
  8
01
 10
170.7501208240877
 20
-549.0811580268302
 30
0.0
 11
170.6501196606907
 21
-549.5811580268302
 31
0.0
  0
LINE
  5
264FD
  8
01
 10
169.1501208240877
 20
-549.0811580268302
 30
0.0
 11
169.0501196606905
 21
-549.5811580268302
 31
0.0
  0
LINE
  5
264FE
  8
01
 10
170.0501126803073
 20
-552.5811580268302
 30
0.0
 11
169.9501115169102
 21
-553.0811580268302
 31
0.0
  0
LINE
  5
264FF
  8
01
 10
169.9501115169102
 20
-553.0811580268302
 30
0.0
 11
169.1501208240877
 21
-549.0811580268302
 31
0.0
  0
LINE
  5
26500
  8
01
 10
171.5501115169102
 20
-553.0811580268302
 30
0.0
 11
170.7501208240877
 21
-549.0811580268302
 31
0.0
  0
LINE
  5
26501
  8
01
 10
161.7501125705205
 20
-552.6283418847714
 30
0.0
 11
160.9501192436794
 21
-549.7603791834409
 31
0.0
  0
LINE
  5
26502
  8
01
 10
160.1501136241247
 20
-552.1755283767232
 30
0.0
 11
159.3501181900737
 21
-550.2131932878477
 31
0.0
  0
LINE
  5
26503
  8
01
 10
160.9501192436794
 20
-549.7603791834409
 30
0.0
 11
160.7673551010514
 21
-550.3121286472442
 31
0.0
  0
LINE
  5
26504
  8
01
 10
160.3015494205651
 20
-551.7183565360921
 30
0.0
 11
160.1501136241247
 21
-552.1755283767232
 31
0.0
  0
LINE
  5
26505
  8
01
 10
159.3501181900737
 20
-550.2131932878477
 30
0.0
 11
159.0383483338216
 21
-550.8014698628901
 31
0.0
  0
LINE
  5
26506
  8
01
 10
161.8628820828705
 20
-552.1602434296215
 30
0.0
 11
161.7501125705205
 21
-552.6283418847714
 31
0.0
  0
LINE
  5
26507
  8
01
 10
172.3501208240877
 20
-549.0811580268302
 30
0.0
 11
172.2501196606905
 21
-549.5811580268302
 31
0.0
  0
LINE
  5
26508
  8
01
 10
173.1501115169103
 20
-553.0811580268302
 30
0.0
 11
172.3501208240877
 21
-549.0811580268302
 31
0.0
  0
LINE
  5
26509
  8
01
 10
190.0501196607074
 20
-549.5811580268302
 30
0.0
 11
189.9501208241051
 21
-549.0811580268302
 31
0.0
  0
LINE
  5
2650A
  8
01
 10
189.150111516919
 20
-553.0811580268302
 30
0.0
 11
188.3501208241008
 21
-549.0811580268302
 31
0.0
  0
LINE
  5
2650B
  8
01
 10
185.950111516919
 20
-553.0811580268302
 30
0.0
 11
185.1501208241007
 21
-549.0811580268302
 31
0.0
  0
LINE
  5
2650C
  8
01
 10
185.1501208241007
 20
-549.0811580268302
 30
0.0
 11
185.050119660703
 21
-549.5811580268302
 31
0.0
  0
LINE
  5
2650D
  8
01
 10
188.3501208241008
 20
-549.0811580268302
 30
0.0
 11
188.2501196607031
 21
-549.5811580268302
 31
0.0
  0
LINE
  5
2650E
  8
01
 10
187.6501126803168
 20
-552.5811580268302
 30
0.0
 11
187.5501115169191
 21
-553.0811580268302
 31
0.0
  0
LINE
  5
2650F
  8
01
 10
186.7501208241009
 20
-549.0811580268302
 30
0.0
 11
186.6501196607032
 21
-549.5811580268302
 31
0.0
  0
LINE
  5
26510
  8
01
 10
187.5501115169191
 20
-553.0811580268302
 30
0.0
 11
186.7501208241009
 21
-549.0811580268302
 31
0.0
  0
LINE
  5
26511
  8
01
 10
186.0501126803167
 20
-552.5811580268302
 30
0.0
 11
185.950111516919
 21
-553.0811580268302
 31
0.0
  0
LINE
  5
26512
  8
01
 10
189.9501208241051
 20
-549.0811580268302
 30
0.0
 11
189.8501196607074
 21
-549.5811580268302
 31
0.0
  0
LINE
  5
26513
  8
01
 10
189.2501126803167
 20
-552.5811580268302
 30
0.0
 11
189.150111516919
 21
-553.0811580268302
 31
0.0
  0
LINE
  5
26514
  8
01
 10
192.7501068631039
 20
-555.0812045627281
 30
0.0
 11
192.750125477463
 21
-547.0812045627281
 31
0.0
  0
LINE
  5
26515
  8
01
 10
184.4501126803123
 20
-552.5811580268302
 30
0.0
 11
184.3501115169146
 21
-553.0811580268302
 31
0.0
  0
LINE
  5
26516
  8
01
 10
182.850112680308
 20
-552.5811580268302
 30
0.0
 11
182.7501115169103
 21
-553.0811580268302
 31
0.0
  0
LINE
  5
26517
  8
01
 10
183.5501208240964
 20
-549.0811580268302
 30
0.0
 11
183.4501196606987
 21
-549.5811580268302
 31
0.0
  0
LINE
  5
26518
  8
01
 10
179.6501126803079
 20
-552.5811580268302
 30
0.0
 11
179.5501115169102
 21
-553.0811580268302
 31
0.0
  0
LINE
  5
26519
  8
01
 10
181.1501115169104
 20
-553.0811580268302
 30
0.0
 11
180.3501208240921
 21
-549.0811580268302
 31
0.0
  0
LINE
  5
2651A
  8
01
 10
180.3501208240921
 20
-549.0811580268302
 30
0.0
 11
180.2501196606945
 21
-549.5811580268302
 31
0.0
  0
LINE
  5
2651B
  8
01
 10
181.2501126803081
 20
-552.5811580268302
 30
0.0
 11
181.1501115169104
 21
-553.0811580268302
 31
0.0
  0
LINE
  5
2651C
  8
01
 10
181.950120824092
 20
-549.0811580268302
 30
0.0
 11
181.8501196606944
 21
-549.5811580268302
 31
0.0
  0
LINE
  5
2651D
  8
01
 10
177.1501208240877
 20
-549.0811580268302
 30
0.0
 11
177.0501196606905
 21
-549.5811580268302
 31
0.0
  0
LINE
  5
2651E
  8
01
 10
178.750120824092
 20
-549.0811580268302
 30
0.0
 11
178.6501196606943
 21
-549.5811580268302
 31
0.0
  0
LINE
  5
2651F
  8
01
 10
178.050112680308
 20
-552.5811580268302
 30
0.0
 11
177.9501115169102
 21
-553.0811580268302
 31
0.0
  0
LINE
  5
26520
  8
01
 10
177.9501115169102
 20
-553.0811580268302
 30
0.0
 11
177.1501208240877
 21
-549.0811580268302
 31
0.0
  0
LINE
  5
26521
  8
01
 10
179.5501115169102
 20
-553.0811580268302
 30
0.0
 11
178.750120824092
 21
-549.0811580268302
 31
0.0
  0
LINE
  5
26522
  8
01
 10
182.7501115169103
 20
-553.0811580268302
 30
0.0
 11
181.950120824092
 21
-549.0811580268302
 31
0.0
  0
LINE
  5
26523
  8
01
 10
184.3501115169146
 20
-553.0811580268302
 30
0.0
 11
183.5501208240964
 21
-549.0811580268302
 31
0.0
  0
LINE
  5
26524
  8
01
 10
1589.500045474935
 20
51.67533339288943
 30
0.0000000000060347
 11
1589.500045474935
 21
24.7753682947656
 31
0.0000000000060347
  0
LINE
  5
26525
  8
01
 10
1589.500045474935
 20
24.7753682947656
 30
0.0000000000060347
 11
1586.999998939037
 21
22.27533921009348
 31
0.0000000000060347
  0
LINE
  5
26526
  8
01
 10
1586.999998939037
 20
22.27533921009348
 30
0.0000000000060347
 11
1586.999998939037
 21
21.9753392100925
 31
0.0000000000060347
  0
LINE
  5
26527
  8
01
 10
1586.999998939037
 20
21.9753392100925
 30
0.0000000000060347
 11
1594.999998939037
 21
21.97532059573331
 31
0.0000000000060347
  0
LINE
  5
26528
  8
01
 10
1594.999998939037
 20
21.97532059573331
 30
0.0000000000060347
 11
1594.999998939037
 21
22.2753205957344
 31
0.0000000000060347
  0
LINE
  5
26529
  8
01
 10
1594.999998939037
 20
22.2753205957344
 30
0.0000000000060347
 11
1592.500045474935
 21
24.7753031444004
 31
0.0000000000060347
  0
LINE
  5
2652A
  8
01
 10
1592.500045474935
 20
24.7753031444004
 30
0.0000000000060347
 11
1592.500045474935
 21
51.67532641250514
 31
0.0000000000060347
  0
LINE
  5
2652B
  8
01
 10
1592.500045474935
 20
51.67532641250514
 30
0.0000000000060347
 11
1591.000045474935
 21
56.97532990275047
 31
0.0000000000060347
  0
LINE
  5
2652C
  8
01
 10
1591.000045474935
 20
56.97532990275047
 30
0.0000000000060347
 11
1589.500045474935
 21
51.67533339288943
 31
0.0000000000060347
  0
LINE
  5
2652D
  8
01
 10
1629.500045474935
 20
51.67533339288943
 30
0.0000000000060347
 11
1629.500045474935
 21
24.7753682947656
 31
0.0000000000060347
  0
LINE
  5
2652E
  8
01
 10
1629.500045474935
 20
24.7753682947656
 30
0.0000000000060347
 11
1626.999998939037
 21
22.27533921009348
 31
0.0000000000060347
  0
LINE
  5
2652F
  8
01
 10
1626.999998939037
 20
22.27533921009348
 30
0.0000000000060347
 11
1626.999998939037
 21
21.9753392100925
 31
0.0000000000060347
  0
LINE
  5
26530
  8
01
 10
1626.999998939037
 20
21.9753392100925
 30
0.0000000000060347
 11
1634.999998939037
 21
21.97532059573331
 31
0.0000000000060347
  0
LINE
  5
26531
  8
01
 10
1634.999998939037
 20
21.97532059573331
 30
0.0000000000060347
 11
1634.999998939037
 21
22.2753205957344
 31
0.0000000000060347
  0
LINE
  5
26532
  8
01
 10
1634.999998939037
 20
22.2753205957344
 30
0.0000000000060347
 11
1632.500045474935
 21
24.7753031444004
 31
0.0000000000060347
  0
LINE
  5
26533
  8
01
 10
1632.500045474935
 20
24.7753031444004
 30
0.0000000000060347
 11
1632.500045474935
 21
51.67532641250514
 31
0.0000000000060347
  0
LINE
  5
26534
  8
01
 10
1632.500045474935
 20
51.67532641250514
 30
0.0000000000060347
 11
1631.000045474935
 21
56.97532990275047
 31
0.0000000000060347
  0
LINE
  5
26535
  8
01
 10
1631.000045474935
 20
56.97532990275047
 30
0.0000000000060347
 11
1629.500045474935
 21
51.67533339288943
 31
0.0000000000060347
  0
LINE
  5
26536
  8
01
 10
3039.500063356329
 20
51.67533339288943
 30
0.0000000000060347
 11
3039.500063356329
 21
24.7753682947656
 31
0.0000000000060347
  0
LINE
  5
26537
  8
01
 10
3039.500063356329
 20
24.7753682947656
 30
0.0000000000060347
 11
3037.000016820431
 21
22.27533921009348
 31
0.0000000000060347
  0
LINE
  5
26538
  8
01
 10
3037.000016820431
 20
22.27533921009348
 30
0.0000000000060347
 11
3037.000016820431
 21
21.9753392100925
 31
0.0000000000060347
  0
LINE
  5
26539
  8
01
 10
3037.000016820431
 20
21.9753392100925
 30
0.0000000000060347
 11
3045.000016820431
 21
21.97532059573331
 31
0.0000000000060347
  0
LINE
  5
2653A
  8
01
 10
3045.000016820431
 20
21.97532059573331
 30
0.0000000000060347
 11
3045.000016820431
 21
22.2753205957344
 31
0.0000000000060347
  0
LINE
  5
2653B
  8
01
 10
3045.000016820431
 20
22.2753205957344
 30
0.0000000000060347
 11
3042.500063356329
 21
24.7753031444004
 31
0.0000000000060347
  0
LINE
  5
2653C
  8
01
 10
3042.500063356329
 20
24.7753031444004
 30
0.0000000000060347
 11
3042.500063356329
 21
51.67532641250514
 31
0.0000000000060347
  0
LINE
  5
2653D
  8
01
 10
3042.500063356329
 20
51.67532641250514
 30
0.0000000000060347
 11
3041.000063356329
 21
56.97532990275047
 31
0.0000000000060347
  0
LINE
  5
2653E
  8
01
 10
3041.000063356329
 20
56.97532990275047
 30
0.0000000000060347
 11
3039.500063356329
 21
51.67533339288943
 31
0.0000000000060347
  0
LINE
  5
2653F
  8
01
 10
3079.500063356329
 20
51.67533339288943
 30
0.0000000000060347
 11
3079.500063356329
 21
24.7753682947656
 31
0.0000000000060347
  0
LINE
  5
26540
  8
01
 10
3079.500063356329
 20
24.7753682947656
 30
0.0000000000060347
 11
3077.000016820431
 21
22.27533921009348
 31
0.0000000000060347
  0
LINE
  5
26541
  8
01
 10
3077.000016820431
 20
22.27533921009348
 30
0.0000000000060347
 11
3077.000016820431
 21
21.9753392100925
 31
0.0000000000060347
  0
LINE
  5
26542
  8
01
 10
3077.000016820431
 20
21.9753392100925
 30
0.0000000000060347
 11
3085.000016820431
 21
21.97532059573331
 31
0.0000000000060347
  0
LINE
  5
26543
  8
01
 10
3085.000016820431
 20
21.97532059573331
 30
0.0000000000060347
 11
3085.000016820431
 21
22.2753205957344
 31
0.0000000000060347
  0
LINE
  5
26544
  8
01
 10
3085.000016820431
 20
22.2753205957344
 30
0.0000000000060347
 11
3082.500063356329
 21
24.7753031444004
 31
0.0000000000060347
  0
LINE
  5
26545
  8
01
 10
3082.500063356329
 20
24.7753031444004
 30
0.0000000000060347
 11
3082.500063356329
 21
51.67532641250514
 31
0.0000000000060347
  0
LINE
  5
26546
  8
01
 10
3082.500063356329
 20
51.67532641250514
 30
0.0000000000060347
 11
3081.000063356329
 21
56.97532990275047
 31
0.0000000000060347
  0
LINE
  5
26547
  8
01
 10
3081.000063356329
 20
56.97532990275047
 30
0.0000000000060347
 11
3079.500063356329
 21
51.67533339288943
 31
0.0000000000060347
  0
LINE
  5
26548
  8
01
 10
3187.967272501493
 20
51.67533339288943
 30
0.0
 11
3187.967272501493
 21
24.7753682947656
 31
0.0
  0
LINE
  5
26549
  8
01
 10
3187.967272501493
 20
24.7753682947656
 30
0.0
 11
3185.467225965595
 21
22.27533921009348
 31
0.0
  0
LINE
  5
2654A
  8
01
 10
3185.467225965595
 20
22.27533921009348
 30
0.0
 11
3185.467225965595
 21
21.9753392100925
 31
0.0
  0
LINE
  5
2654B
  8
01
 10
3185.467225965595
 20
21.9753392100925
 30
0.0
 11
3193.467225965595
 21
21.97532059573331
 31
0.0
  0
LINE
  5
2654C
  8
01
 10
3193.467225965595
 20
21.97532059573331
 30
0.0
 11
3193.467225965595
 21
22.2753205957344
 31
0.0
  0
LINE
  5
2654D
  8
01
 10
3193.467225965595
 20
22.2753205957344
 30
0.0
 11
3190.967272501493
 21
24.7753031444004
 31
0.0
  0
LINE
  5
2654E
  8
01
 10
3190.967272501493
 20
24.7753031444004
 30
0.0
 11
3190.967272501493
 21
51.67532641250514
 31
0.0
  0
LINE
  5
2654F
  8
01
 10
3190.967272501493
 20
51.67532641250514
 30
0.0
 11
3189.467272501493
 21
56.97532990275047
 31
0.0
  0
LINE
  5
26550
  8
01
 10
3189.467272501493
 20
56.97532990275047
 30
0.0
 11
3187.967272501493
 21
51.67533339288943
 31
0.0
  0
LINE
  5
26551
  8
01
 10
1603.049999934435
 20
8.025307125084511
 30
0.0
 11
1617.699999934435
 21
8.02530712508451
 31
0.0
  0
LINE
  5
26552
  8
01
 10
1617.699999934435
 20
8.02530712508451
 30
0.0
 11
1617.699999934435
 21
6.525307125084566
 31
0.0
  0
LINE
  5
26553
  8
01
 10
1617.699999934435
 20
6.525307125084566
 30
0.0
 11
1618.299999934435
 21
6.525307125084566
 31
0.0
  0
ARC
  5
26554
  8
01
 10
1618.299999934435
 20
8.525307125084566
 30
0.0
 40
2.0
 50
270.0
 51
0.0
  0
LINE
  5
26555
  8
01
 10
1620.299999934435
 20
8.525307125084566
 30
0.0
 11
1620.299999934435
 21
11.52530712508451
 31
0.0
  0
ARC
  5
26556
  8
01
 10
1618.299999934435
 20
11.52530712508451
 30
0.0
 40
2.0
 50
0.0
 51
90.0
  0
LINE
  5
26557
  8
01
 10
1618.299999934435
 20
13.52530712508451
 30
0.0
 11
1617.699999934435
 21
13.52530712508451
 31
0.0
  0
LINE
  5
26558
  8
01
 10
1617.699999934435
 20
13.52530712508451
 30
0.0
 11
1617.699999934435
 21
12.02530712508451
 31
0.0
  0
LINE
  5
26559
  8
01
 10
1617.699999934435
 20
12.02530712508451
 30
0.0
 11
1603.049999934435
 21
12.02530712508451
 31
0.0
  0
LINE
  5
2655A
  8
01
 10
1603.049999934435
 20
12.02530712508451
 30
0.0
 11
1602.699999934435
 21
11.67530712508437
 31
0.0
  0
LINE
  5
2655B
  8
01
 10
1602.699999934435
 20
11.67530712508437
 30
0.0
 11
1602.699999934435
 21
8.375307125084534
 31
0.0
  0
LINE
  5
2655C
  8
01
 10
1602.699999934435
 20
8.375307125084534
 30
0.0
 11
1603.049999934435
 21
8.025307125084511
 31
0.0
  0
LINE
  5
2655D
  8
01
 10
1603.049999934435
 20
-6.974693470961936
 30
0.0
 11
1617.699999934435
 21
-6.974693470961938
 31
0.0
  0
LINE
  5
2655E
  8
01
 10
1617.699999934435
 20
-6.974693470961938
 30
0.0
 11
1617.699999934435
 21
-8.474693470961881
 31
0.0
  0
LINE
  5
2655F
  8
01
 10
1617.699999934435
 20
-8.474693470961881
 30
0.0
 11
1618.299999934435
 21
-8.474693470961881
 31
0.0
  0
ARC
  5
26560
  8
01
 10
1618.299999934435
 20
-6.474693470961881
 30
0.0
 40
2.0
 50
270.0
 51
0.0
  0
LINE
  5
26561
  8
01
 10
1620.299999934435
 20
-6.474693470961881
 30
0.0
 11
1620.299999934435
 21
-3.474693470961938
 31
0.0
  0
ARC
  5
26562
  8
01
 10
1618.299999934435
 20
-3.474693470961938
 30
0.0
 40
2.0
 50
0.0000000000000127
 51
90.0
  0
LINE
  5
26563
  8
01
 10
1618.299999934435
 20
-1.474693470961938
 30
0.0
 11
1617.699999934435
 21
-1.474693470961938
 31
0.0
  0
LINE
  5
26564
  8
01
 10
1617.699999934435
 20
-1.474693470961938
 30
0.0
 11
1617.699999934435
 21
-2.974693470961938
 31
0.0
  0
LINE
  5
26565
  8
01
 10
1617.699999934435
 20
-2.974693470961938
 30
0.0
 11
1603.049999934435
 21
-2.974693470961936
 31
0.0
  0
LINE
  5
26566
  8
01
 10
1603.049999934435
 20
-2.974693470961936
 30
0.0
 11
1602.699999934435
 21
-3.324693470962073
 31
0.0
  0
LINE
  5
26567
  8
01
 10
1602.699999934435
 20
-3.324693470962073
 30
0.0
 11
1602.699999934435
 21
-6.624693470961914
 31
0.0
  0
LINE
  5
26568
  8
01
 10
1602.699999934435
 20
-6.624693470961914
 30
0.0
 11
1603.049999934435
 21
-6.974693470961936
 31
0.0
  0
LINE
  5
26569
  8
01
 10
3054.2999514997
 20
8.02530712508451
 30
0.0
 11
3068.949951499701
 21
8.025307125084508
 31
0.0
  0
LINE
  5
2656A
  8
01
 10
3068.949951499701
 20
8.025307125084508
 30
0.0
 11
3069.2999514997
 21
8.37530712508453
 31
0.0
  0
LINE
  5
2656B
  8
01
 10
3069.2999514997
 20
8.37530712508453
 30
0.0
 11
3069.2999514997
 21
11.67530712508437
 31
0.0
  0
LINE
  5
2656C
  8
01
 10
3069.2999514997
 20
11.67530712508437
 30
0.0
 11
3068.949951499701
 21
12.02530712508451
 31
0.0
  0
LINE
  5
2656D
  8
01
 10
3068.949951499701
 20
12.02530712508451
 30
0.0
 11
3054.2999514997
 21
12.02530712508451
 31
0.0
  0
LINE
  5
2656E
  8
01
 10
3054.2999514997
 20
12.02530712508451
 30
0.0
 11
3054.2999514997
 21
13.52530712508451
 31
0.0
  0
LINE
  5
2656F
  8
01
 10
3054.2999514997
 20
13.52530712508451
 30
0.0
 11
3053.699951499701
 21
13.52530712508451
 31
0.0
  0
ARC
  5
26570
  8
01
 10
3053.699951499701
 20
11.52530712508451
 30
0.0
 40
2.0
 50
90.0
 51
180.0
  0
LINE
  5
26571
  8
01
 10
3051.699951499701
 20
11.52530712508451
 30
0.0
 11
3051.699951499701
 21
8.525307125084566
 31
0.0
  0
ARC
  5
26572
  8
01
 10
3053.699951499701
 20
8.525307125084566
 30
0.0
 40
2.0
 50
180.0
 51
270.0
  0
LINE
  5
26573
  8
01
 10
3053.699951499701
 20
6.525307125084566
 30
0.0
 11
3054.2999514997
 21
6.525307125084566
 31
0.0
  0
LINE
  5
26574
  8
01
 10
3054.2999514997
 20
6.525307125084566
 30
0.0
 11
3054.2999514997
 21
8.02530712508451
 31
0.0
  0
LINE
  5
26575
  8
01
 10
3054.2999514997
 20
-6.974693470961938
 30
0.0
 11
3068.949951499701
 21
-6.97469347096194
 31
0.0
  0
LINE
  5
26576
  8
01
 10
3068.949951499701
 20
-6.97469347096194
 30
0.0
 11
3069.2999514997
 21
-6.624693470961917
 31
0.0
  0
LINE
  5
26577
  8
01
 10
3069.2999514997
 20
-6.624693470961917
 30
0.0
 11
3069.2999514997
 21
-3.324693470962076
 31
0.0
  0
LINE
  5
26578
  8
01
 10
3069.2999514997
 20
-3.324693470962076
 30
0.0
 11
3068.949951499701
 21
-2.97469347096194
 31
0.0
  0
LINE
  5
26579
  8
01
 10
3068.949951499701
 20
-2.97469347096194
 30
0.0
 11
3054.2999514997
 21
-2.974693470961938
 31
0.0
  0
LINE
  5
2657A
  8
01
 10
3054.2999514997
 20
-2.974693470961938
 30
0.0
 11
3054.2999514997
 21
-1.474693470961938
 31
0.0
  0
LINE
  5
2657B
  8
01
 10
3054.2999514997
 20
-1.474693470961938
 30
0.0
 11
3053.699951499701
 21
-1.474693470961938
 31
0.0
  0
ARC
  5
2657C
  8
01
 10
3053.699951499701
 20
-3.474693470961938
 30
0.0
 40
2.0
 50
90.0
 51
180.0
  0
LINE
  5
2657D
  8
01
 10
3051.699951499701
 20
-3.474693470961938
 30
0.0
 11
3051.699951499701
 21
-6.474693470961881
 31
0.0
  0
ARC
  5
2657E
  8
01
 10
3053.699951499701
 20
-6.474693470961881
 30
0.0
 40
2.0
 50
180.0
 51
270.0
  0
LINE
  5
2657F
  8
01
 10
3053.699951499701
 20
-8.474693470961881
 30
0.0
 11
3054.2999514997
 21
-8.474693470961881
 31
0.0
  0
LINE
  5
26580
  8
01
 10
3054.2999514997
 20
-8.474693470961881
 30
0.0
 11
3054.2999514997
 21
-6.974693470961938
 31
0.0
  0
LINE
  5
26581
  8
01
 10
164.3501126803076
 20
-431.4348174551607
 30
0.0000000000060347
 11
191.2500777784314
 21
-431.4348174551607
 31
0.0000000000060347
  0
LINE
  5
26582
  8
01
 10
191.2500777784314
 20
-431.4348174551607
 30
0.0000000000060347
 11
193.7501068631036
 21
-433.9348639910586
 31
0.0000000000060347
  0
LINE
  5
26583
  8
01
 10
193.7501068631036
 20
-433.9348639910586
 30
0.0000000000060347
 11
194.0501068631045
 21
-433.9348639910586
 31
0.0000000000060347
  0
LINE
  5
26584
  8
01
 10
194.0501068631045
 20
-433.9348639910586
 30
0.0000000000060347
 11
194.0501254774637
 21
-425.9348639910586
 31
0.0000000000060347
  0
LINE
  5
26585
  8
01
 10
194.0501254774637
 20
-425.9348639910586
 30
0.0000000000060347
 11
193.7501254774626
 21
-425.9348639910586
 31
0.0000000000060347
  0
LINE
  5
26586
  8
01
 10
193.7501254774626
 20
-425.9348639910586
 30
0.0000000000060347
 11
191.2501429287966
 21
-428.4348174551607
 31
0.0000000000060347
  0
LINE
  5
26587
  8
01
 10
191.2501429287966
 20
-428.4348174551607
 30
0.0000000000060347
 11
164.3501196606919
 21
-428.4348174551607
 31
0.0000000000060347
  0
LINE
  5
26588
  8
01
 10
164.3501196606919
 20
-428.4348174551607
 30
0.0000000000060347
 11
159.0501161704466
 21
-429.9348174551607
 31
0.0000000000060347
  0
LINE
  5
26589
  8
01
 10
159.0501161704466
 20
-429.9348174551607
 30
0.0000000000060347
 11
164.3501126803076
 21
-431.4348174551607
 31
0.0000000000060347
  0
LINE
  5
2658A
  8
01
 10
164.3501126803076
 20
-391.4348174551607
 30
0.0000000000060347
 11
191.2500777784314
 21
-391.4348174551607
 31
0.0000000000060347
  0
LINE
  5
2658B
  8
01
 10
191.2500777784314
 20
-391.4348174551607
 30
0.0000000000060347
 11
193.7501068631036
 21
-393.9348639910586
 31
0.0000000000060347
  0
LINE
  5
2658C
  8
01
 10
193.7501068631036
 20
-393.9348639910586
 30
0.0000000000060347
 11
194.0501068631045
 21
-393.9348639910586
 31
0.0000000000060347
  0
LINE
  5
2658D
  8
01
 10
194.0501068631045
 20
-393.9348639910586
 30
0.0000000000060347
 11
194.0501254774637
 21
-385.9348639910586
 31
0.0000000000060347
  0
LINE
  5
2658E
  8
01
 10
194.0501254774637
 20
-385.9348639910586
 30
0.0000000000060347
 11
193.7501254774626
 21
-385.9348639910586
 31
0.0000000000060347
  0
LINE
  5
2658F
  8
01
 10
193.7501254774626
 20
-385.9348639910586
 30
0.0000000000060347
 11
191.2501429287966
 21
-388.4348174551607
 31
0.0000000000060347
  0
LINE
  5
26590
  8
01
 10
191.2501429287966
 20
-388.4348174551607
 30
0.0000000000060347
 11
164.3501196606919
 21
-388.4348174551607
 31
0.0000000000060347
  0
LINE
  5
26591
  8
01
 10
164.3501196606919
 20
-388.4348174551607
 30
0.0000000000060347
 11
159.0501161704466
 21
-389.9348174551607
 31
0.0000000000060347
  0
LINE
  5
26592
  8
01
 10
159.0501161704466
 20
-389.9348174551607
 30
0.0000000000060347
 11
164.3501126803076
 21
-391.4348174551607
 31
0.0000000000060347
  0
LINE
  5
26593
  8
01
 10
208.0001389481131
 20
-417.8848629956609
 30
0.0
 11
208.0001389481131
 21
-403.234862995661
 31
0.0
  0
LINE
  5
26594
  8
01
 10
208.0001389481131
 20
-403.234862995661
 30
0.0
 11
209.500138948113
 21
-403.2348629956609
 31
0.0
  0
LINE
  5
26595
  8
01
 10
209.500138948113
 20
-403.2348629956609
 30
0.0
 11
209.500138948113
 21
-402.634862995661
 31
0.0
  0
ARC
  5
26596
  8
01
 10
207.500138948113
 20
-402.634862995661
 30
0.0
 40
2.0
 50
0.0000000000016425
 51
90.00000000000328
  0
LINE
  5
26597
  8
01
 10
207.500138948113
 20
-400.634862995661
 30
0.0
 11
204.5001389481131
 21
-400.6348629956609
 31
0.0
  0
ARC
  5
26598
  8
01
 10
204.5001389481131
 20
-402.6348629956609
 30
0.0
 40
2.0
 50
89.99999999999999
 51
180.0
  0
LINE
  5
26599
  8
01
 10
202.5001389481131
 20
-402.6348629956609
 30
0.0
 11
202.5001389481131
 21
-403.2348629956609
 31
0.0
  0
LINE
  5
2659A
  8
01
 10
202.5001389481131
 20
-403.2348629956609
 30
0.0
 11
204.0001389481131
 21
-403.2348629956609
 31
0.0
  0
LINE
  5
2659B
  8
01
 10
204.0001389481131
 20
-403.2348629956609
 30
0.0
 11
204.0001389481131
 21
-417.8848629956609
 31
0.0
  0
LINE
  5
2659C
  8
01
 10
204.0001389481131
 20
-417.8848629956609
 30
0.0
 11
204.3501389481132
 21
-418.2348629956609
 31
0.0
  0
LINE
  5
2659D
  8
01
 10
204.3501389481132
 20
-418.2348629956609
 30
0.0
 11
207.6501389481131
 21
-418.2348629956609
 31
0.0
  0
LINE
  5
2659E
  8
01
 10
207.6501389481131
 20
-418.2348629956609
 30
0.0
 11
208.0001389481131
 21
-417.8848629956609
 31
0.0
  0
LINE
  5
2659F
  8
01
 10
223.0001395441595
 20
-417.8848629956609
 30
0.0
 11
223.0001395441595
 21
-403.234862995661
 31
0.0
  0
LINE
  5
265A0
  8
01
 10
223.0001395441595
 20
-403.234862995661
 30
0.0
 11
224.5001395441595
 21
-403.2348629956609
 31
0.0
  0
LINE
  5
265A1
  8
01
 10
224.5001395441595
 20
-403.2348629956609
 30
0.0
 11
224.5001395441595
 21
-402.634862995661
 31
0.0
  0
ARC
  5
265A2
  8
01
 10
222.5001395441595
 20
-402.634862995661
 30
0.0
 40
2.0
 50
0.0000000000016425
 51
90.00000000000328
  0
LINE
  5
265A3
  8
01
 10
222.5001395441595
 20
-400.634862995661
 30
0.0
 11
219.5001395441595
 21
-400.6348629956609
 31
0.0
  0
ARC
  5
265A4
  8
01
 10
219.5001395441595
 20
-402.6348629956609
 30
0.0
 40
2.0
 50
89.99999999999999
 51
180.0
  0
LINE
  5
265A5
  8
01
 10
217.5001395441595
 20
-402.6348629956609
 30
0.0
 11
217.5001395441595
 21
-403.2348629956609
 31
0.0
  0
LINE
  5
265A6
  8
01
 10
217.5001395441595
 20
-403.2348629956609
 30
0.0
 11
219.0001395441595
 21
-403.2348629956609
 31
0.0
  0
LINE
  5
265A7
  8
01
 10
219.0001395441595
 20
-403.2348629956609
 30
0.0
 11
219.0001395441595
 21
-417.8848629956609
 31
0.0
  0
LINE
  5
265A8
  8
01
 10
219.0001395441595
 20
-417.8848629956609
 30
0.0
 11
219.3501395441597
 21
-418.2348629956609
 31
0.0
  0
LINE
  5
265A9
  8
01
 10
219.3501395441597
 20
-418.2348629956609
 30
0.0
 11
222.6501395441595
 21
-418.2348629956609
 31
0.0
  0
LINE
  5
265AA
  8
01
 10
222.6501395441595
 20
-418.2348629956609
 30
0.0
 11
223.0001395441595
 21
-417.8848629956609
 31
0.0
  0
LINE
  5
265AB
  8
01
 10
163.3501126803079
 20
-552.5811580268302
 30
0.0
 11
190.2500777784318
 21
-552.5811580268302
 31
0.0
  0
LINE
  5
265AC
  8
01
 10
190.2500777784318
 20
-552.5811580268302
 30
0.0
 11
192.7501068631039
 21
-555.0812045627281
 31
0.0
  0
LINE
  5
265AD
  8
01
 10
192.7501068631039
 20
-555.0812045627281
 30
0.0
 11
193.0501068631049
 21
-555.0812045627281
 31
0.0
  0
LINE
  5
265AE
  8
01
 10
193.0501068631049
 20
-555.0812045627281
 30
0.0
 11
193.0501254774641
 21
-547.0812045627281
 31
0.0
  0
LINE
  5
265AF
  8
01
 10
193.0501254774641
 20
-547.0812045627281
 30
0.0
 11
192.750125477463
 21
-547.0812045627281
 31
0.0
  0
LINE
  5
265B0
  8
01
 10
192.750125477463
 20
-547.0812045627281
 30
0.0
 11
190.250142928797
 21
-549.5811580268302
 31
0.0
  0
LINE
  5
265B1
  8
01
 10
190.250142928797
 20
-549.5811580268302
 30
0.0
 11
163.3501196606922
 21
-549.5811580268302
 31
0.0
  0
LINE
  5
265B2
  8
01
 10
163.3501196606922
 20
-549.5811580268302
 30
0.0
 11
158.0501161704469
 21
-551.0811580268302
 31
0.0
  0
LINE
  5
265B3
  8
01
 10
158.0501161704469
 20
-551.0811580268302
 30
0.0
 11
163.3501126803079
 21
-552.5811580268302
 31
0.0
  0
LINE
  5
265B5
  8
1DIM
  6
BYBLOCK
 10
2988.118429425317
 20
-316.1028936341496
 30
0.0
 11
2755.285096091983
 21
-316.1028936341496
 31
0.0
  0
LINE
  5
265B7
  8
1DIM
  6
BYBLOCK
 10
3048.532752621732
 20
-386.9351254742176
 30
0.0
 11
2988.118429425317
 21
-316.1028936341496
 31
0.0
  0
LINE
  5
265B9
  8
1DIM
  6
BYBLOCK
 10
3015.423672984487
 20
-183.1608790172045
 30
0.0
 11
2888.173672984487
 21
-183.1608790172045
 31
0.0
  0
LINE
  5
265BB
  8
1DIM
  6
BYBLOCK
 10
3054.211285138326
 20
-229.122672634012
 30
0.0
 11
3015.423672984487
 21
-183.1608790172045
 31
0.0
  0
LINE
  5
265BD
  8
1DIM
  6
BYBLOCK
 10
2999.215572525248
 20
-240.2694086871963
 30
0.0
 11
2874.882239191914
 21
-240.2694086871963
 31
0.0
  0
LINE
  5
265BF
  8
1DIM
  6
BYBLOCK
 10
3039.947827741032
 20
-287.2319619040317
 30
0.0
 11
2999.215572525248
 21
-240.2694086871963
 31
0.0
  0
LINE
  5
265C1
  8
1DIM
  6
BYBLOCK
 10
3013.037371936267
 20
-26.60066848146198
 30
0.0
 11
2850.204038602933
 21
-26.60066848146198
 31
0.0
  0
LINE
  5
265C3
  8
1DIM
  6
BYBLOCK
 10
3045.585592379068
 20
12.87969465234179
 30
0.0
 11
3013.037371936267
 21
-26.60066848146198
 31
0.0
  0
LINE
  5
265C5
  8
1DIM
  6
BYBLOCK
 10
2717.909673982277
 20
-352.474139288827
 30
0.0
 11
2590.659673982277
 21
-352.474139288827
 31
0.0
  0
LINE
  5
265C7
  8
1DIM
  6
BYBLOCK
 10
2763.699244523155
 20
-403.9722603524721
 30
0.0
 11
2717.909673982277
 21
-352.474139288827
 31
0.0
  0
LINE
  5
265C9
  8
1DIM
  6
BYBLOCK
 10
2556.09126203483
 20
-352.6557273413799
 30
0.0
 11
2431.757928701496
 21
-352.6557273413799
 31
0.0
  0
LINE
  5
265CB
  8
1DIM
  6
BYBLOCK
 10
2587.205867949815
 20
-387.8162142714287
 30
0.0
 11
2556.09126203483
 21
-352.6557273413799
 31
0.0
  0
LINE
  5
265CC
  8
1DIM
 10
2955.562844395885
 20
-424.4348617432184
 30
0.0
 11
2950.562844395885
 21
-424.4348617432184
 31
0.0
1001
ACAD
1000
DSTYLE
1002
{
1070
    40
1040
5.0
1002
}
  0
LINE
  5
265CD
  8
1DIM
 10
2955.562844395885
 20
-395.4348625776835
 30
0.0
 11
2950.562844395885
 21
-395.4348625776835
 31
0.0
1001
ACAD
1000
DSTYLE
1002
{
1070
    40
1040
5.0
1002
}
  0
LINE
  5
265CE
  8
1DIM
 10
2955.562844395885
 20
-424.4348617432184
 30
0.0
 11
2955.562844395885
 21
-473.184862160451
 31
0.0
1001
ACAD
1000
DSTYLE
1002
{
1070
    40
1040
5.0
1002
}
  0
LINE
  5
265CF
  8
1DIM
 10
2955.562844395885
 20
-414.4348617432184
 30
0.0
 11
2955.562844395885
 21
-405.4348625776835
 31
0.0
1001
ACAD
1000
DSTYLE
1002
{
1070
    40
1040
5.0
1002
}
  0
LINE
  5
265D3
  8
1DIM
 10
3005.65
 20
-524.0812035995548
 30
0.0
 11
3000.65
 21
-524.0812035995548
 31
0.0
1001
ACAD
1000
DSTYLE
1002
{
1070
    40
1040
5.0
1002
}
  0
LINE
  5
265D4
  8
1DIM
 10
3005.65
 20
-538.0812035995548
 30
0.0
 11
3000.65
 21
-538.0812035995548
 31
0.0
1001
ACAD
1000
DSTYLE
1002
{
1070
    40
1040
5.0
1002
}
  0
LINE
  5
265D5
  8
1DIM
 10
3005.65
 20
-524.0812035995548
 30
0.0
 11
3005.65
 21
-465.3478702662212
 31
0.0
1001
ACAD
1000
DSTYLE
1002
{
1070
    40
1040
5.0
1002
}
  0
LINE
  5
265D6
  8
1DIM
 10
3005.65
 20
-524.0812035995548
 30
0.0
 11
3005.65
 21
-538.0812035995548
 31
0.0
1001
ACAD
1000
DSTYLE
1002
{
1070
    40
1040
5.0
1002
}
  0
LINE
  5
265D7
  8
1DIM
 10
3005.65
 20
-514.0812035995548
 30
0.0
 11
3005.65
 21
-504.0812035995548
 31
0.0
1001
ACAD
1000
DSTYLE
1002
{
1070
    40
1040
5.0
1002
}
  0
LINE
  5
265D8
  8
1DIM
 10
3005.65
 20
-548.0812035995548
 30
0.0
 11
3005.65
 21
-558.0812035995548
 31
0.0
1001
ACAD
1000
DSTYLE
1002
{
1070
    40
1040
5.0
1002
}
  0
LINE
  5
265DC
  8
1DIM
 10
3030.000018692017
 20
25.02532059573446
 30
0.0
 11
3030.000018692017
 21
99.83167215287548
 31
0.0
1001
ACAD
1000
DSTYLE
1002
{
1070
    40
1040
5.0
1002
}
  0
LINE
  5
265DD
  8
1DIM
 10
3092.000054931641
 20
25.02532059573446
 30
0.0
 11
3092.000054931641
 21
99.83167215287548
 31
0.0
1001
ACAD
1000
DSTYLE
1002
{
1070
    40
1040
5.0
1002
}
  0
LINE
  5
265DE
  8
1DIM
 10
3040.000018692017
 20
94.83167215287548
 30
0.0
 11
3082.000054931641
 21
94.83167215287548
 31
0.0
1001
ACAD
1000
DSTYLE
1002
{
1070
    40
1040
5.0
1002
}
  0
LINE
  5
265E2
  8
1DIM
 10
3172.967226637079
 20
25.02532059573446
 30
0.0
 11
3172.967226637079
 21
70.02532059573446
 31
0.0
1001
ACAD
1000
DSTYLE
1002
{
1070
    40
1040
5.0
1002
}
  0
LINE
  5
265E3
  8
1DIM
 10
3205.967225294112
 20
25.02532059573446
 30
0.0
 11
3205.967225294112
 21
70.02532059573446
 31
0.0
1001
ACAD
1000
DSTYLE
1002
{
1070
    40
1040
5.0
1002
}
  0
LINE
  5
265E4
  8
1DIM
 10
3182.967226637079
 20
65.02532059573446
 30
0.0
 11
3195.967225294112
 21
65.02532059573446
 31
0.0
1001
ACAD
1000
DSTYLE
1002
{
1070
    40
1040
5.0
1002
}
  0
LINE
  5
265E8
  8
1DIM
 10
3041.000016820431
 20
55.0548260935509
 30
0.0
 11
3041.000016820431
 21
70.95735768759268
 31
0.0
1001
ACAD
1000
DSTYLE
1002
{
1070
    40
1040
5.0
1002
}
  0
LINE
  5
265E9
  8
1DIM
 10
3081.000016820431
 20
55.0548260935509
 30
0.0
 11
3081.000016820431
 21
70.95735768759268
 31
0.0
1001
ACAD
1000
DSTYLE
1002
{
1070
    40
1040
5.0
1002
}
  0
LINE
  5
265EA
  8
1DIM
 10
3051.000016820431
 20
65.95735768759268
 30
0.0
 11
3071.000016820431
 21
65.95735768759268
 31
0.0
1001
ACAD
1000
DSTYLE
1002
{
1070
    40
1040
5.0
1002
}
  0
LINE
  5
265EE
  8
1DIM1
 10
3061.000016820431
 20
58.42982609355093
 30
0.0
 11
3061.000016820431
 21
162.3607786053619
 31
0.0
1001
ACAD
1000
DSTYLE
1002
{
1070
    70
1070
     0
1070
    69
1070
     0
1070
    40
1040
10.0
1002
}
  0
LINE
  5
265EF
  8
1DIM1
 10
1610.999998939037
 20
58.42982609355093
 30
0.0
 11
1610.999998939037
 21
162.3607786053619
 31
0.0
1001
ACAD
1000
DSTYLE
1002
{
1070
    70
1070
     0
1070
    69
1070
     0
1070
    40
1040
10.0
1002
}
  0
LINE
  5
265F0
  8
1DIM1
 10
3041.000016820431
 20
152.3607786053619
 30
0.0
 11
1630.999998939037
 21
152.3607786053619
 31
0.0
1001
ACAD
1000
DSTYLE
1002
{
1070
    70
1070
     0
1070
    69
1070
     0
1070
    40
1040
10.0
1002
}
  0
LINE
  5
265F4
  8
1DIM1
 10
191.0001254774629
 20
-378.9348631327516
 30
0.0
 11
191.0001254774629
 21
246.7944185784979
 31
0.0
1001
ACAD
1000
DSTYLE
1002
{
1070
    40
1040
10.0
1002
}
  0
LINE
  5
265F5
  8
1DIM1
 10
3092.000054931641
 20
25.02532059573446
 30
0.0
 11
3092.000054931641
 21
246.794418578498
 31
0.0
1001
ACAD
1000
DSTYLE
1002
{
1070
    40
1040
10.0
1002
}
  0
LINE
  5
265F6
  8
1DIM1
 10
211.0001254774629
 20
236.7944185784979
 30
0.0
 11
3072.000054931641
 21
236.794418578498
 31
0.0
1001
ACAD
1000
DSTYLE
1002
{
1070
    40
1040
10.0
1002
}
  0
LINE
  5
265FA
  8
1DIM1
 10
191.0001254774629
 20
-379.434863214708
 30
0.0
 11
191.000125477463
 21
102.929826093551
 31
0.0
1001
ACAD
1000
DSTYLE
1002
{
1070
    70
1070
     0
1070
    69
1070
     0
1070
    40
1040
10.0
1002
}
  0
LINE
  5
265FB
  8
1DIM1
 10
1590.999998939037
 20
58.42982609355093
 30
0.0
 11
1590.999998939037
 21
102.9298260935508
 31
0.0
1001
ACAD
1000
DSTYLE
1002
{
1070
    70
1070
     0
1070
    69
1070
     0
1070
    40
1040
10.0
1002
}
  0
LINE
  5
265FC
  8
1DIM1
 10
211.000125477463
 20
92.92982609355096
 30
0.0
 11
1570.999998939037
 21
92.92982609355082
 31
0.0
1001
ACAD
1000
DSTYLE
1002
{
1070
    70
1070
     0
1070
    69
1070
     0
1070
    40
1040
10.0
1002
}
  0
LINE
  5
26601
  8
1DIM
  6
BYBLOCK
 10
1681.381583997649
 20
-316.1028936341496
 30
0.0
 11
1914.214917330982
 21
-316.1028936341496
 31
0.0
  0
LINE
  5
26603
  8
1DIM
  6
BYBLOCK
 10
1620.967260801233
 20
-386.9351254742176
 30
0.0
 11
1681.381583997649
 21
-316.1028936341496
 31
0.0
  0
LINE
  5
26604
  8
1DIM
 10
3186.09222759541
 20
-389.9347592172694
 30
0.0
 11
3142.279276691509
 21
-389.9347592172694
 31
0.0
1001
ACAD
1000
DSTYLE
1002
{
1070
    40
1040
5.0
1002
}
  0
LINE
  5
26605
  8
1DIM
 10
3186.09222759541
 20
-429.9347592172694
 30
0.0
 11
3142.279276691509
 21
-429.9347592172694
 31
0.0
1001
ACAD
1000
DSTYLE
1002
{
1070
    40
1040
5.0
1002
}
  0
LINE
  5
26606
  8
1DIM
 10
3147.279276691509
 20
-399.9347592172694
 30
0.0
 11
3147.279276691509
 21
-419.9347592172694
 31
0.0
1001
ACAD
1000
DSTYLE
1002
{
1070
    40
1040
5.0
1002
}
  0
LINE
  5
2660A
  8
1DIM1
 10
1580.000000810623
 20
25.02532059573446
 30
0.0
 11
37.54996823072452
 21
25.02532059573455
 31
0.0
1001
ACAD
1000
DSTYLE
1002
{
1070
   271
1070
     0
1070
    40
1040
10.0
1002
}
  0
LINE
  5
2660B
  8
1DIM1
 10
191.0398702979087
 20
-440.9348616538114
 30
0.0
 11
37.54996823072449
 21
-440.9348616538114
 31
0.0
1001
ACAD
1000
DSTYLE
1002
{
1070
   271
1070
     0
1070
    40
1040
10.0
1002
}
  0
LINE
  5
2660C
  8
1DIM1
 10
47.54996823072452
 20
5.025320595734549
 30
0.0
 11
47.54996823072449
 21
-420.9348616538114
 31
0.0
1001
ACAD
1000
DSTYLE
1002
{
1070
   271
1070
     0
1070
    40
1040
10.0
1002
}
  0
LINE
  5
26610
  8
1DIM1
 10
1580.000000810623
 20
25.02532059573446
 30
0.0
 11
120.5499682307245
 21
25.02532059573455
 31
0.0
1001
ACAD
1000
DSTYLE
1002
{
1070
   271
1070
     0
1070
    40
1040
10.0
1002
}
  0
LINE
  5
26611
  8
1DIM1
 10
157.6353648000922
 20
-389.9348639910586
 30
0.0
 11
120.5499682307245
 21
-389.9348639910586
 31
0.0
1001
ACAD
1000
DSTYLE
1002
{
1070
   271
1070
     0
1070
    40
1040
10.0
1002
}
  0
LINE
  5
26612
  8
1DIM1
 10
130.5499682307245
 20
5.025320595734545
 30
0.0
 11
130.5499682307245
 21
-369.9348639910586
 31
0.0
1001
ACAD
1000
DSTYLE
1002
{
1070
   271
1070
     0
1070
    40
1040
10.0
1002
}
  0
LINE
  5
26616
  8
1DIM1
 10
3076.000056034326
 20
-423.4348634419507
 30
0.0
 11
3076.000056034326
 21
-511.0701724275089
 31
0.0
1001
ACAD
1000
DSTYLE
1002
{
1070
    70
1070
     0
1070
    69
1070
     0
1070
   271
1070
     0
1070
    40
1040
10.0
1002
}
  0
LINE
  5
26617
  8
1DIM1
 10
191.0001254774629
 20
-440.9348616538114
 30
0.0
 11
191.0001254774629
 21
-511.0701724275089
 31
0.0
1001
ACAD
1000
DSTYLE
1002
{
1070
    70
1070
     0
1070
    69
1070
     0
1070
   271
1070
     0
1070
    40
1040
10.0
1002
}
  0
LINE
  5
26618
  8
1DIM1
 10
3056.000056034326
 20
-501.0701724275089
 30
0.0
 11
211.0001254774629
 21
-501.0701724275089
 31
0.0
1001
ACAD
1000
DSTYLE
1002
{
1070
    70
1070
     0
1070
    69
1070
     0
1070
   271
1070
     0
1070
    40
1040
10.0
1002
}
  0
LINE
  5
2661C
  8
1DIM1
 10
3092.000054931641
 20
25.02532059573446
 30
0.0
 11
3145.550023365021
 21
25.02532059573445
 31
0.0
1001
ACAD
1000
DSTYLE
1002
{
1070
   271
1070
     0
1070
    40
1040
10.0
1002
}
  0
LINE
  5
2661D
  8
1DIM1
 10
3074.50005671978
 20
-424.9348627564973
 30
0.0
 11
3145.550023365021
 21
-424.9348627564973
 31
0.0
1001
ACAD
1000
DSTYLE
1002
{
1070
   271
1070
     0
1070
    40
1040
10.0
1002
}
  0
LINE
  5
2661E
  8
1DIM1
 10
3135.550023365021
 20
5.025320595734456
 30
0.0
 11
3135.550023365021
 21
-404.9348627564973
 31
0.0
1001
ACAD
1000
DSTYLE
1002
{
1070
   271
1070
     0
1070
    40
1040
10.0
1002
}
  0
LINE
  5
26622
  8
1DIM1
 10
1630.999998939037
 20
58.42982609355093
 30
0.0
 11
1630.999998939037
 21
100.3495972985257
 31
0.0
1001
ACAD
1000
DSTYLE
1002
{
1070
    40
1040
10.0
1002
}
  0
LINE
  5
26623
  8
1DIM1
 10
3041.000063356329
 20
56.97532990275047
 30
0.0
 11
3041.000063356329
 21
100.3495972985257
 31
0.0
1001
ACAD
1000
DSTYLE
1002
{
1070
    40
1040
10.0
1002
}
  0
LINE
  5
26624
  8
1DIM1
 10
1650.999998939037
 20
90.34959729852571
 30
0.0
 11
3021.000063356329
 21
90.34959729852571
 31
0.0
1001
ACAD
1000
DSTYLE
1002
{
1070
    40
1040
10.0
1002
}
  0
LINE
  5
26628
  8
1DIM1
 10
1610.999998939037
 20
58.42982609355093
 30
0.0
 11
1610.999998939037
 21
162.3607786053619
 31
0.0
1001
ACAD
1000
DSTYLE
1002
{
1070
    40
1040
10.0
1002
}
  0
LINE
  5
26629
  8
1DIM1
 10
191.0001254774629
 20
92.92982609355101
 30
0.0
 11
191.0001254774629
 21
162.3607786053619
 31
0.0
1001
ACAD
1000
DSTYLE
1002
{
1070
    40
1040
10.0
1002
}
  0
LINE
  5
2662A
  8
1DIM1
 10
1590.999998939037
 20
152.3607786053619
 30
0.0
 11
211.0001254774629
 21
152.3607786053619
 31
0.0
1001
ACAD
1000
DSTYLE
1002
{
1070
    40
1040
10.0
1002
}
  0
LINE
  5
2662F
  8
1DIM1
  6
BYBLOCK
 10
135.2969582121195
 20
-513.8932743592605
 30
0.0
 11
49.04695821211953
 21
-513.8932743592605
 31
0.0
  0
LINE
  5
26631
  8
1DIM1
  6
BYBLOCK
 10
176.1170144692986
 20
-486.12640002688
 30
0.0
 11
135.2969582121195
 21
-513.8932743592605
 31
0.0
  0
LINE
  5
26633
  8
1DIM1
  6
BYBLOCK
 10
175.1341267862049
 20
75.0390687749494
 30
0.0
 11
53.18412678620489
 21
75.0390687749494
 31
0.0
  0
LINE
  5
26635
  8
1DIM1
  6
BYBLOCK
 10
230.3637769296376
 20
35.50278694913182
 30
0.0
 11
175.1341267862049
 21
75.0390687749494
 31
0.0
  0
TEXT
  5
26636
  8
1DIM
  6
CONTINUOUS
 10
2754.118429425317
 20
-312.6028936341496
 30
0.0
 40
17.5
  1
材質：亜鉛ダイキャスト
  0
LINE
  5
26637
  8
0
  6
BYBLOCK
 10
3050.571420984346
 20
-385.1963016908962
 30
0.0
 11
3055.022131385376
 21
-394.5435394523064
 31
0.0
  0
LINE
  5
26638
  8
0
  6
BYBLOCK
 10
3055.022131385376
 20
-394.5435394523064
 30
0.0
 11
3046.494084259119
 21
-388.673949257539
 31
0.0
  0
LINE
  5
26639
  8
0
  6
BYBLOCK
 10
3055.022131385376
 20
-394.5435394523064
 30
0.0
 11
3048.532752621732
 21
-386.9351254742176
 31
0.0
  0
TEXT
  5
2663A
  8
1DIM
  6
CONTINUOUS
 10
2887.00700631782
 20
-179.6608790172045
 30
0.0
 40
17.5
  1
材質：アルミ
  0
LINE
  5
2663B
  8
0
  6
BYBLOCK
 10
3056.259036596791
 20
-227.3945549278013
 30
0.0
 11
3060.66070827788
 21
-236.7649851876169
 31
0.0
  0
LINE
  5
2663C
  8
0
  6
BYBLOCK
 10
3060.66070827788
 20
-236.7649851876169
 30
0.0
 11
3052.16353367986
 21
-230.8507903402227
 31
0.0
  0
LINE
  5
2663D
  8
0
  6
BYBLOCK
 10
3060.66070827788
 20
-236.7649851876169
 30
0.0
 11
3054.211285138326
 21
-229.122672634012
 31
0.0
  0
TEXT
  5
2663E
  8
1DIM
  6
CONTINUOUS
 10
2873.715572525248
 20
-236.7694086871963
 30
0.0
 40
17.5
  1
材質：PVC
  0
LINE
  5
2663F
  8
0
  6
BYBLOCK
 10
3041.972021051329
 20
-285.4763086681351
 30
0.0
 11
3046.500014877319
 21
-294.786354250943
 31
0.0
  0
LINE
  5
26640
  8
0
  6
BYBLOCK
 10
3046.500014877319
 20
-294.786354250943
 30
0.0
 11
3037.923634430735
 21
-288.9876151399283
 31
0.0
  0
LINE
  5
26641
  8
0
  6
BYBLOCK
 10
3046.500014877319
 20
-294.786354250943
 30
0.0
 11
3039.947827741032
 21
-287.2319619040317
 31
0.0
  0
TEXT
  5
26642
  8
1DIM
  6
CONTINUOUS
 10
2849.037371936267
 20
-23.10066848146198
 30
0.0
 40
17.5
  1
材質：ABS樹脂
  0
LINE
  5
26643
  8
0
  6
BYBLOCK
 10
3047.653073990617
 20
11.17523091612726
 30
0.0
 11
3051.946737699994
 21
20.59564114036617
 31
0.0
210
0.0
220
0.0
230
-1.0
  0
LINE
  5
26644
  8
0
  6
BYBLOCK
 10
3051.946737699994
 20
20.59564114036617
 30
0.0
 11
3043.518110767518
 21
14.58415838855631
 31
0.0
210
0.0
220
0.0
230
-1.0
  0
LINE
  5
26645
  8
0
  6
BYBLOCK
 10
3051.946737699994
 20
20.59564114036617
 30
0.0
 11
3045.585592379068
 21
12.87969465234179
 31
0.0
210
0.0
220
0.0
230
-1.0
  0
TEXT
  5
26646
  8
1DIM
  6
CONTINUOUS
 10
2589.493007315611
 20
-348.974139288827
 30
0.0
 40
17.5
  1
材質：アルミ
  0
LINE
  5
26647
  8
0
  6
BYBLOCK
 10
2765.70166178072
 20
-402.1918104181098
 30
0.0
 11
2770.343974198816
 21
-411.4453833634622
 31
0.0
  0
LINE
  5
26648
  8
0
  6
BYBLOCK
 10
2770.343974198816
 20
-411.4453833634622
 30
0.0
 11
2761.69682726559
 21
-405.7527102868344
 31
0.0
  0
LINE
  5
26649
  8
0
  6
BYBLOCK
 10
2770.343974198816
 20
-411.4453833634622
 30
0.0
 11
2763.699244523155
 21
-403.9722603524721
 31
0.0
  0
TEXT
  5
2664A
  8
1DIM
  6
CONTINUOUS
 10
2430.59126203483
 20
-349.1557273413799
 30
0.0
 40
17.5
  1
材質：PVC
  0
LINE
  5
2664B
  8
0
  6
BYBLOCK
 10
2589.212483816459
 20
-386.0404976257062
 30
0.0
 11
2593.832932751625
 21
-395.3050067049662
 31
0.0
  0
LINE
  5
2664C
  8
0
  6
BYBLOCK
 10
2593.832932751625
 20
-395.3050067049662
 30
0.0
 11
2585.19925208317
 21
-389.5919309171513
 31
0.0
  0
LINE
  5
2664D
  8
0
  6
BYBLOCK
 10
2593.832932751625
 20
-395.3050067049662
 30
0.0
 11
2587.205867949815
 21
-387.8162142714287
 31
0.0
  0
LINE
  5
2664E
  8
0
  6
BYBLOCK
 10
2958.242336295885
 20
-414.4348617432184
 30
0.0
 11
2955.562844395885
 21
-424.4348617432184
 31
0.0
  0
LINE
  5
2664F
  8
0
  6
BYBLOCK
 10
2955.562844395885
 20
-424.4348617432184
 30
0.0
 11
2952.883352495885
 21
-414.4348617432184
 31
0.0
  0
LINE
  5
26650
  8
0
  6
BYBLOCK
 10
2955.562844395885
 20
-424.4348617432184
 30
0.0
 11
2955.562844395885
 21
-414.4348617432184
 31
0.0
  0
LINE
  5
26651
  8
0
  6
BYBLOCK
 10
2952.883352495885
 20
-405.4348625776835
 30
0.0
 11
2955.562844395885
 21
-395.4348625776835
 31
0.0
  0
LINE
  5
26652
  8
0
  6
BYBLOCK
 10
2955.562844395885
 20
-395.4348625776835
 30
0.0
 11
2958.242336295885
 21
-405.4348625776835
 31
0.0
  0
LINE
  5
26653
  8
0
  6
BYBLOCK
 10
2955.562844395885
 20
-395.4348625776835
 30
0.0
 11
2955.562844395885
 21
-405.4348625776835
 31
0.0
  0
TEXT
  5
26654
  8
1DIM
  6
CONTINUOUS
 10
2952.062844395885
 20
-470.52224641971
 30
0.0
 40
17.5
  1
29
 50
90.0
1001
ACAD
1000
DSTYLE
1002
{
1070
    40
1040
5.0
1002
}
  0
LINE
  5
26655
  8
0
  6
BYBLOCK
 10
3008.3294919
 20
-514.0812035995548
 30
0.0
 11
3005.65
 21
-524.0812035995548
 31
0.0
  0
LINE
  5
26656
  8
0
  6
BYBLOCK
 10
3005.65
 20
-524.0812035995548
 30
0.0
 11
3002.9705081
 21
-514.0812035995548
 31
0.0
  0
LINE
  5
26657
  8
0
  6
BYBLOCK
 10
3005.65
 20
-524.0812035995548
 30
0.0
 11
3005.65
 21
-514.0812035995548
 31
0.0
  0
LINE
  5
26658
  8
0
  6
BYBLOCK
 10
3002.9705081
 20
-548.0812035995548
 30
0.0
 11
3005.65
 21
-538.0812035995548
 31
0.0
  0
LINE
  5
26659
  8
0
  6
BYBLOCK
 10
3005.65
 20
-538.0812035995548
 30
0.0
 11
3008.3294919
 21
-548.0812035995548
 31
0.0
  0
LINE
  5
2665A
  8
0
  6
BYBLOCK
 10
3005.65
 20
-538.0812035995548
 30
0.0
 11
3005.65
 21
-548.0812035995548
 31
0.0
  0
TEXT
  5
2665B
  8
1DIM
  6
CONTINUOUS
 10
3002.15
 20
-493.8478702662214
 30
0.0
 40
17.5
  1
14
 50
90.0
1001
ACAD
1000
DSTYLE
1002
{
1070
    40
1040
5.0
1002
}
  0
LINE
  5
2665C
  8
0
  6
BYBLOCK
 10
3040.000018692017
 20
92.15218025287548
 30
0.0
 11
3030.000018692017
 21
94.83167215287548
 31
0.0
  0
LINE
  5
2665D
  8
0
  6
BYBLOCK
 10
3030.000018692017
 20
94.83167215287548
 30
0.0
 11
3040.000018692017
 21
97.51116405287549
 31
0.0
  0
LINE
  5
2665E
  8
0
  6
BYBLOCK
 10
3030.000018692017
 20
94.83167215287548
 30
0.0
 11
3040.000018692017
 21
94.83167215287548
 31
0.0
  0
LINE
  5
2665F
  8
0
  6
BYBLOCK
 10
3082.000054931641
 20
97.51116405287549
 30
0.0
 11
3092.000054931641
 21
94.83167215287548
 31
0.0
  0
LINE
  5
26660
  8
0
  6
BYBLOCK
 10
3092.000054931641
 20
94.83167215287548
 30
0.0
 11
3082.000054931641
 21
92.15218025287548
 31
0.0
  0
LINE
  5
26661
  8
0
  6
BYBLOCK
 10
3092.000054931641
 20
94.83167215287548
 30
0.0
 11
3082.000054931641
 21
94.83167215287548
 31
0.0
  0
TEXT
  5
26662
  8
1DIM
  6
CONTINUOUS
 10
3046.355939589606
 20
98.33167215287548
 30
0.0
 40
17.5
  1
62
1001
ACAD
1000
DSTYLE
1002
{
1070
    40
1040
5.0
1002
}
  0
LINE
  5
26663
  8
0
  6
BYBLOCK
 10
3182.967226637079
 20
62.34582869573445
 30
0.0
 11
3172.967226637079
 21
65.02532059573446
 31
0.0
  0
LINE
  5
26664
  8
0
  6
BYBLOCK
 10
3172.967226637079
 20
65.02532059573446
 30
0.0
 11
3182.967226637079
 21
67.70481249573446
 31
0.0
  0
LINE
  5
26665
  8
0
  6
BYBLOCK
 10
3172.967226637079
 20
65.02532059573446
 30
0.0
 11
3182.967226637079
 21
65.02532059573446
 31
0.0
  0
LINE
  5
26666
  8
0
  6
BYBLOCK
 10
3195.967225294112
 20
67.70481249573446
 30
0.0
 11
3205.967225294112
 21
65.02532059573446
 31
0.0
  0
LINE
  5
26667
  8
0
  6
BYBLOCK
 10
3205.967225294112
 20
65.02532059573446
 30
0.0
 11
3195.967225294112
 21
62.34582869573445
 31
0.0
  0
LINE
  5
26668
  8
0
  6
BYBLOCK
 10
3205.967225294112
 20
65.02532059573446
 30
0.0
 11
3195.967225294112
 21
65.02532059573446
 31
0.0
  0
TEXT
  5
26669
  8
1DIM
  6
CONTINUOUS
 10
3174.883892632262
 20
68.52532059573446
 30
0.0
 40
17.5
  1
33
1001
ACAD
1000
DSTYLE
1002
{
1070
    40
1040
5.0
1002
}
  0
LINE
  5
2666A
  8
0
  6
BYBLOCK
 10
3051.000016820431
 20
63.27786578759267
 30
0.0
 11
3041.000016820431
 21
65.95735768759268
 31
0.0
  0
LINE
  5
2666B
  8
0
  6
BYBLOCK
 10
3041.000016820431
 20
65.95735768759268
 30
0.0
 11
3051.000016820431
 21
68.63684958759268
 31
0.0
  0
LINE
  5
2666C
  8
0
  6
BYBLOCK
 10
3041.000016820431
 20
65.95735768759268
 30
0.0
 11
3051.000016820431
 21
65.95735768759268
 31
0.0
  0
LINE
  5
2666D
  8
0
  6
BYBLOCK
 10
3071.000016820431
 20
68.63684958759268
 30
0.0
 11
3081.000016820431
 21
65.95735768759268
 31
0.0
  0
LINE
  5
2666E
  8
0
  6
BYBLOCK
 10
3081.000016820431
 20
65.95735768759268
 30
0.0
 11
3071.000016820431
 21
63.27786578759267
 31
0.0
  0
LINE
  5
2666F
  8
0
  6
BYBLOCK
 10
3081.000016820431
 20
65.95735768759268
 30
0.0
 11
3071.000016820431
 21
65.95735768759268
 31
0.0
  0
TEXT
  5
26670
  8
1DIM
  6
CONTINUOUS
 10
3038.760433487097
 20
69.45735768759268
 30
0.0
 40
17.5
  1
P40
1001
ACAD
1000
DSTYLE
1002
{
1070
    40
1040
5.0
1002
}
  0
LINE
  5
26671
  8
0
  6
BYBLOCK
 10
3041.000016820431
 20
157.7197624053619
 30
0.0
 11
3061.000016820431
 21
152.3607786053619
 31
0.0
  0
LINE
  5
26672
  8
0
  6
BYBLOCK
 10
3061.000016820431
 20
152.3607786053619
 30
0.0
 11
3041.000016820431
 21
147.0017948053619
 31
0.0
  0
LINE
  5
26673
  8
0
  6
BYBLOCK
 10
3061.000016820431
 20
152.3607786053619
 30
0.0
 11
3041.000016820431
 21
152.3607786053619
 31
0.0
  0
LINE
  5
26674
  8
0
  6
BYBLOCK
 10
1630.999998939037
 20
147.0017948053619
 30
0.0
 11
1610.999998939037
 21
152.3607786053619
 31
0.0
  0
LINE
  5
26675
  8
0
  6
BYBLOCK
 10
1610.999998939037
 20
152.3607786053619
 30
0.0
 11
1630.999998939037
 21
157.7197624053619
 31
0.0
  0
LINE
  5
26676
  8
0
  6
BYBLOCK
 10
1610.999998939037
 20
152.3607786053619
 30
0.0
 11
1630.999998939037
 21
152.3607786053619
 31
0.0
  0
TEXT
  5
26677
  8
1DIM1
  6
CONTINUOUS
 10
2265.129963276378
 20
159.3607786053619
 30
0.0
 40
35.0
  1
P1450
1001
ACAD
1000
DSTYLE
1002
{
1070
    70
1070
     0
1070
    69
1070
     0
1070
    40
1040
10.0
1002
}
  0
LINE
  5
26678
  8
0
  6
BYBLOCK
 10
211.0001254774629
 20
231.4354347784979
 30
0.0
 11
191.0001254774629
 21
236.7944185784979
 31
0.0
  0
LINE
  5
26679
  8
0
  6
BYBLOCK
 10
191.0001254774629
 20
236.7944185784979
 30
0.0
 11
211.0001254774629
 21
242.1534023784979
 31
0.0
  0
LINE
  5
2667A
  8
0
  6
BYBLOCK
 10
191.0001254774629
 20
236.7944185784979
 30
0.0
 11
211.0001254774629
 21
236.7944185784979
 31
0.0
  0
LINE
  5
2667B
  8
0
  6
BYBLOCK
 10
3072.000054931641
 20
242.153402378498
 30
0.0
 11
3092.000054931641
 21
236.794418578498
 31
0.0
  0
LINE
  5
2667C
  8
0
  6
BYBLOCK
 10
3092.000054931641
 20
236.794418578498
 30
0.0
 11
3072.000054931641
 21
231.4354347784979
 31
0.0
  0
LINE
  5
2667D
  8
0
  6
BYBLOCK
 10
3092.000054931641
 20
236.794418578498
 30
0.0
 11
3072.000054931641
 21
236.794418578498
 31
0.0
  0
TEXT
  5
2667E
  8
1DIM1
  6
CONTINUOUS
 10
1549.476566708134
 20
243.7944185784979
 30
0.0
 40
35.0
  1
2901
 50
0.0000000000000006
1001
ACAD
1000
DSTYLE
1002
{
1070
    40
1040
10.0
1002
}
  0
LINE
  5
2667F
  8
0
  6
BYBLOCK
 10
211.000125477463
 20
87.57084229355095
 30
0.0
 11
191.000125477463
 21
92.92982609355096
 31
0.0
  0
LINE
  5
26680
  8
0
  6
BYBLOCK
 10
191.000125477463
 20
92.92982609355096
 30
0.0
 11
211.000125477463
 21
98.28880989355096
 31
0.0
  0
LINE
  5
26681
  8
0
  6
BYBLOCK
 10
191.000125477463
 20
92.92982609355096
 30
0.0
 11
211.000125477463
 21
92.92982609355096
 31
0.0
  0
LINE
  5
26682
  8
0
  6
BYBLOCK
 10
1570.999998939037
 20
98.28880989355082
 30
0.0
 11
1590.999998939037
 21
92.92982609355082
 31
0.0
  0
LINE
  5
26683
  8
0
  6
BYBLOCK
 10
1590.999998939037
 20
92.92982609355082
 30
0.0
 11
1570.999998939037
 21
87.57084229355083
 31
0.0
  0
LINE
  5
26684
  8
0
  6
BYBLOCK
 10
1590.999998939037
 20
92.92982609355082
 30
0.0
 11
1570.999998939037
 21
92.92982609355082
 31
0.0
  0
TEXT
  5
26685
  8
1DIM1
  6
CONTINUOUS
 10
837.7708955415834
 20
99.9298260935509
 30
0.0
 40
35.0
  1
1400
 50
0.0000000000000058
1001
ACAD
1000
DSTYLE
1002
{
1070
    70
1070
     0
1070
    69
1070
     0
1070
    40
1040
10.0
1002
}
  0
TEXT
  5
26686
  8
1DIM
  6
CONTINUOUS
 10
1690.214917330982
 20
-312.6028936341496
 30
0.0
 40
17.5
  1
材質：亜鉛ダイキャスト
  0
LINE
  5
26687
  8
0
  6
BYBLOCK
 10
1623.005929163847
 20
-388.673949257539
 30
0.0
 11
1614.47788203759
 21
-394.5435394523064
 31
0.0
  0
LINE
  5
26688
  8
0
  6
BYBLOCK
 10
1614.47788203759
 20
-394.5435394523064
 30
0.0
 11
1618.92859243862
 21
-385.1963016908962
 31
0.0
  0
LINE
  5
26689
  8
0
  6
BYBLOCK
 10
1614.47788203759
 20
-394.5435394523064
 30
0.0
 11
1620.967260801233
 21
-386.9351254742176
 31
0.0
  0
LINE
  5
2668A
  8
0
  6
BYBLOCK
 10
3144.59978479151
 20
-399.9347592172694
 30
0.0
 11
3147.279276691509
 21
-389.9347592172694
 31
0.0
  0
LINE
  5
2668B
  8
0
  6
BYBLOCK
 10
3147.279276691509
 20
-389.9347592172694
 30
0.0
 11
3149.958768591509
 21
-399.9347592172694
 31
0.0
  0
LINE
  5
2668C
  8
0
  6
BYBLOCK
 10
3147.279276691509
 20
-389.9347592172694
 30
0.0
 11
3147.279276691509
 21
-399.9347592172694
 31
0.0
  0
LINE
  5
2668D
  8
0
  6
BYBLOCK
 10
3149.958768591509
 20
-419.9347592172694
 30
0.0
 11
3147.279276691509
 21
-429.9347592172694
 31
0.0
  0
LINE
  5
2668E
  8
0
  6
BYBLOCK
 10
3147.279276691509
 20
-429.9347592172694
 30
0.0
 11
3144.59978479151
 21
-419.9347592172694
 31
0.0
  0
LINE
  5
2668F
  8
0
  6
BYBLOCK
 10
3147.279276691509
 20
-429.9347592172694
 30
0.0
 11
3147.279276691509
 21
-419.9347592172694
 31
0.0
  0
TEXT
  5
26690
  8
1DIM
  6
CONTINUOUS
 10
3143.779276691509
 20
-432.1743425506029
 30
0.0
 40
17.5
  1
P40
 50
90.0
1001
ACAD
1000
DSTYLE
1002
{
1070
    40
1040
5.0
1002
}
  0
LINE
  5
26691
  8
0
  6
BYBLOCK
 10
42.19098443072451
 20
5.025320595734549
 30
0.0
 11
47.54996823072452
 21
25.02532059573455
 31
0.0
  0
LINE
  5
26692
  8
0
  6
BYBLOCK
 10
47.54996823072452
 20
25.02532059573455
 30
0.0
 11
52.90895203072451
 21
5.025320595734549
 31
0.0
  0
LINE
  5
26693
  8
0
  6
BYBLOCK
 10
47.54996823072452
 20
25.02532059573455
 30
0.0
 11
47.54996823072452
 21
5.025320595734549
 31
0.0
  0
LINE
  5
26694
  8
0
  6
BYBLOCK
 10
52.90895203072449
 20
-420.9348616538114
 30
0.0
 11
47.54996823072449
 21
-440.9348616538114
 31
0.0
  0
LINE
  5
26695
  8
0
  6
BYBLOCK
 10
47.54996823072449
 20
-440.9348616538114
 30
0.0
 11
42.19098443072449
 21
-420.9348616538114
 31
0.0
  0
LINE
  5
26696
  8
0
  6
BYBLOCK
 10
47.54996823072449
 20
-440.9348616538114
 30
0.0
 11
47.5499682307245
 21
-420.9348616538114
 31
0.0
  0
TEXT
  5
26697
  8
1DIM1
  6
CONTINUOUS
 10
40.54996823072452
 20
-246.7429657372739
 30
0.0
 40
35.0
  1
466
 50
90.0
1001
ACAD
1000
DSTYLE
1002
{
1070
   271
1070
     0
1070
    40
1040
10.0
1002
}
  0
LINE
  5
26698
  8
0
  6
BYBLOCK
 10
125.1909844307245
 20
5.025320595734545
 30
0.0
 11
130.5499682307245
 21
25.02532059573455
 31
0.0
  0
LINE
  5
26699
  8
0
  6
BYBLOCK
 10
130.5499682307245
 20
25.02532059573455
 30
0.0
 11
135.9089520307245
 21
5.025320595734545
 31
0.0
  0
LINE
  5
2669A
  8
0
  6
BYBLOCK
 10
130.5499682307245
 20
25.02532059573455
 30
0.0
 11
130.5499682307245
 21
5.025320595734545
 31
0.0
  0
LINE
  5
2669B
  8
0
  6
BYBLOCK
 10
135.9089520307245
 20
-369.9348639910586
 30
0.0
 11
130.5499682307245
 21
-389.9348639910586
 31
0.0
  0
LINE
  5
2669C
  8
0
  6
BYBLOCK
 10
130.5499682307245
 20
-389.9348639910586
 30
0.0
 11
125.1909844307245
 21
-369.9348639910586
 31
0.0
  0
LINE
  5
2669D
  8
0
  6
BYBLOCK
 10
130.5499682307245
 20
-389.9348639910586
 30
0.0
 11
130.5499682307245
 21
-369.9348639910586
 31
0.0
  0
TEXT
  5
2669E
  8
1DIM1
  6
CONTINUOUS
 10
123.5499682307245
 20
-240.7881046261628
 30
0.0
 40
35.0
  1
415
 50
90.0
1001
ACAD
1000
DSTYLE
1002
{
1070
   271
1070
     0
1070
    40
1040
10.0
1002
}
  0
LINE
  5
2669F
  8
0
  6
BYBLOCK
 10
3056.000056034326
 20
-495.7111886275089
 30
0.0
 11
3076.000056034326
 21
-501.0701724275089
 31
0.0
  0
LINE
  5
266A0
  8
0
  6
BYBLOCK
 10
3076.000056034326
 20
-501.0701724275089
 30
0.0
 11
3056.000056034326
 21
-506.4291562275088
 31
0.0
  0
LINE
  5
266A1
  8
0
  6
BYBLOCK
 10
3076.000056034326
 20
-501.0701724275089
 30
0.0
 11
3056.000056034326
 21
-501.0701724275089
 31
0.0
  0
LINE
  5
266A2
  8
0
  6
BYBLOCK
 10
211.0001254774629
 20
-506.4291562275088
 30
0.0
 11
191.0001254774629
 21
-501.0701724275089
 31
0.0
  0
LINE
  5
266A3
  8
0
  6
BYBLOCK
 10
191.0001254774629
 20
-501.0701724275089
 30
0.0
 11
211.0001254774629
 21
-495.7111886275089
 31
0.0
  0
LINE
  5
266A4
  8
0
  6
BYBLOCK
 10
191.0001254774629
 20
-501.0701724275089
 30
0.0
 11
211.0001254774629
 21
-501.0701724275089
 31
0.0
  0
TEXT
  5
266A5
  8
1DIM1
  6
CONTINUOUS
 10
1569.333424089228
 20
-494.0701724275089
 30
0.0
 40
35.0
  1
2885
1001
ACAD
1000
DSTYLE
1002
{
1070
    70
1070
     0
1070
    69
1070
     0
1070
   271
1070
     0
1070
    40
1040
10.0
1002
}
  0
LINE
  5
266A6
  8
0
  6
BYBLOCK
 10
3130.191039565021
 20
5.025320595734453
 30
0.0
 11
3135.550023365021
 21
25.02532059573445
 31
0.0
  0
LINE
  5
266A7
  8
0
  6
BYBLOCK
 10
3135.550023365021
 20
25.02532059573445
 30
0.0
 11
3140.909007165021
 21
5.025320595734453
 31
0.0
  0
LINE
  5
266A8
  8
0
  6
BYBLOCK
 10
3135.550023365021
 20
25.02532059573445
 30
0.0
 11
3135.550023365021
 21
5.025320595734453
 31
0.0
  0
LINE
  5
266A9
  8
0
  6
BYBLOCK
 10
3140.909007165021
 20
-404.9348627564973
 30
0.0
 11
3135.550023365021
 21
-424.9348627564973
 31
0.0
  0
LINE
  5
266AA
  8
0
  6
BYBLOCK
 10
3135.550023365021
 20
-424.9348627564973
 30
0.0
 11
3130.191039565021
 21
-404.9348627564973
 31
0.0
  0
LINE
  5
266AB
  8
0
  6
BYBLOCK
 10
3135.550023365021
 20
-424.9348627564973
 30
0.0
 11
3135.550023365021
 21
-404.9348627564973
 31
0.0
  0
TEXT
  5
266AC
  8
1DIM1
  6
CONTINUOUS
 10
3128.550023365021
 20
-244.5554657372741
 30
0.0
 40
35.0
  1
450
 50
90.0
1001
ACAD
1000
DSTYLE
1002
{
1070
   271
1070
     0
1070
    40
1040
10.0
1002
}
  0
LINE
  5
266AD
  8
0
  6
BYBLOCK
 10
1650.999998939037
 20
84.9906134985257
 30
0.0
 11
1630.999998939037
 21
90.34959729852571
 31
0.0
  0
LINE
  5
266AE
  8
0
  6
BYBLOCK
 10
1630.999998939037
 20
90.34959729852571
 30
0.0
 11
1650.999998939037
 21
95.70858109852571
 31
0.0
  0
LINE
  5
266AF
  8
0
  6
BYBLOCK
 10
1630.999998939037
 20
90.34959729852571
 30
0.0
 11
1650.999998939037
 21
90.34959729852571
 31
0.0
  0
LINE
  5
266B0
  8
0
  6
BYBLOCK
 10
3021.000063356329
 20
95.70858109852571
 30
0.0
 11
3041.000063356329
 21
90.34959729852571
 31
0.0
  0
LINE
  5
266B1
  8
0
  6
BYBLOCK
 10
3041.000063356329
 20
90.34959729852571
 30
0.0
 11
3021.000063356329
 21
84.9906134985257
 31
0.0
  0
LINE
  5
266B2
  8
0
  6
BYBLOCK
 10
3041.000063356329
 20
90.34959729852571
 30
0.0
 11
3021.000063356329
 21
90.34959729852571
 31
0.0
  0
TEXT
  5
266B3
  8
1DIM1
  6
CONTINUOUS
 10
2285.687531147683
 20
97.34959729852571
 30
0.0
 40
35.0
  1
1410
1001
ACAD
1000
DSTYLE
1002
{
1070
    40
1040
10.0
1002
}
  0
LINE
  5
266B4
  8
0
  6
BYBLOCK
 10
1590.999998939037
 20
157.7197624053619
 30
0.0
 11
1610.999998939037
 21
152.3607786053619
 31
0.0
  0
LINE
  5
266B5
  8
0
  6
BYBLOCK
 10
1610.999998939037
 20
152.3607786053619
 30
0.0
 11
1590.999998939037
 21
147.0017948053619
 31
0.0
  0
LINE
  5
266B6
  8
0
  6
BYBLOCK
 10
1610.999998939037
 20
152.3607786053619
 30
0.0
 11
1590.999998939037
 21
152.3607786053619
 31
0.0
  0
LINE
  5
266B7
  8
0
  6
BYBLOCK
 10
211.0001254774629
 20
147.0017948053619
 30
0.0
 11
191.0001254774629
 21
152.3607786053619
 31
0.0
  0
LINE
  5
266B8
  8
0
  6
BYBLOCK
 10
191.0001254774629
 20
152.3607786053619
 30
0.0
 11
211.0001254774629
 21
157.7197624053619
 31
0.0
  0
LINE
  5
266B9
  8
0
  6
BYBLOCK
 10
191.0001254774629
 20
152.3607786053619
 30
0.0
 11
211.0001254774629
 21
152.3607786053619
 31
0.0
  0
TEXT
  5
266BA
  8
1DIM1
  6
CONTINUOUS
 10
844.8542288749167
 20
159.3607786053619
 30
0.0
 40
35.0
  1
1420
1001
ACAD
1000
DSTYLE
1002
{
1070
    40
1040
10.0
1002
}
  0
TEXT
  5
266BB
  8
1DIM1
  6
CONTINUOUS
 10
49.04695821211953
 20
-507.5932743592606
 30
0.0
 40
31.5
  1
壁面
  0
LINE
  5
266BC
  8
0
  6
BYBLOCK
 10
173.4043282234864
 20
-482.1384824875623
 30
0.0
 11
191.0001254774629
 21
-476.0025170406608
 31
0.0
  0
LINE
  5
266BD
  8
0
  6
BYBLOCK
 10
191.0001254774629
 20
-476.0025170406608
 30
0.0
 11
178.8297007151108
 21
-490.1143175661977
 31
0.0
  0
LINE
  5
266BE
  8
0
  6
BYBLOCK
 10
191.0001254774629
 20
-476.0025170406608
 30
0.0
 11
176.1170144692986
 21
-486.12640002688
 31
0.0
  0
TEXT
  5
266BF
  8
1DIM1
  6
CONTINUOUS
 10
51.08412678620487
 20
81.3390687749494
 30
0.0
 40
31.5
  1
天井面
  0
LINE
  5
266C0
  8
0
  6
BYBLOCK
 10
233.1712055522826
 20
39.42458468707929
 30
0.0
 11
245.0001254774629
 21
25.02532059573457
 31
0.0
  0
LINE
  5
266C1
  8
0
  6
BYBLOCK
 10
245.0001254774629
 20
25.02532059573457
 30
0.0
 11
227.5563483069925
 21
31.58098921118435
 31
0.0
  0
LINE
  5
266C2
  8
0
  6
BYBLOCK
 10
245.0001254774629
 20
25.02532059573457
 30
0.0
 11
230.3637769296376
 21
35.50278694913182
 31
0.0
  0
VIEWPORT
  5
57
 67
     1
  8
0
 10
0.0
 20
0.0
 30
0.0
 40
544.3287197231834
 41
297.0000000000001
 68
     1
 69
     1
1001
ACAD
1000
MVIEW
1002
{
1070
    16
1010
0.0
1020
0.0
1030
0.0
1010
0.0
1020
0.0
1030
1.0
1040
0.0
1040
297.0000000000001
1040
-4.171999999925333
1040
12.83903210976956
1040
50.0
1040
0.0
1040
0.0
1070
    16
1070
    20
1070
     0
1070
     1
1070
     0
1070
     0
1070
     0
1070
     0
1040
0.0
1040
0.0
1040
0.0
1040
10.0
1040
10.0
1040
10.0
1040
10.0
1070
     0
1002
{
1002
}
1002
}
  0
ENDSEC
  0
EOF
