  0
SECTION
  2
HEADER
  9
$ACADVER
  1
AC1009
  9
$DWGCODEPAGE
  3
ansi_932
  9
$INSBASE
 10
0.0
 20
0.0
 30
0.0
  9
$EXTMIN
 10
2094.077130121153
 20
-578.0812035995548
 30
0.0
  9
$EXTMAX
 10
3632.692519676551
 20
-96.13936867920847
 30
0.0
  9
$LIMMIN
 10
0.0
 20
0.0
  9
$LIMMAX
 10
420.0
 20
297.0
  9
$ORTHOMODE
 70
     0
  9
$REGENMODE
 70
     1
  9
$FILLMODE
 70
     1
  9
$QTEXTMODE
 70
     0
  9
$MIRRTEXT
 70
     0
  9
$DRAGMODE
 70
     2
  9
$LTSCALE
 40
0.5
  9
$OSMODE
 70
  2175
  9
$ATTMODE
 70
     1
  9
$TEXTSIZE
 40
4.0
  9
$TRACEWID
 40
1.0
  9
$TEXTSTYLE
  7
STANDARD
  9
$CLAYER
  8
1TEXT
  9
$CELTYPE
  6
BYLAYER
  9
$CECOLOR
 62
   256
  9
$DIMSCALE
 40
1.0
  9
$DIMASZ
 40
2.0
  9
$DIMEXO
 40
0.0
  9
$DIMDLI
 40
7.0
  9
$DIMRND
 40
0.0
  9
$DIMDLE
 40
0.0
  9
$DIMEXE
 40
1.0
  9
$DIMTP
 40
0.0
  9
$DIMTM
 40
0.0
  9
$DIMTXT
 40
3.5
  9
$DIMCEN
 40
0.0
  9
$DIMTSZ
 40
0.0
  9
$DIMTOL
 70
     0
  9
$DIMLIM
 70
     0
  9
$DIMTIH
 70
     0
  9
$DIMTOH
 70
     0
  9
$DIMSE1
 70
     0
  9
$DIMSE2
 70
     0
  9
$DIMTAD
 70
     1
  9
$DIMZIN
 70
     8
  9
$DIMBLK
  1

  9
$DIMASO
 70
     1
  9
$DIMSHO
 70
     1
  9
$DIMPOST
  1
 
  9
$DIMAPOST
  1

  9
$DIMALT
 70
     0
  9
$DIMALTD
 70
     2
  9
$DIMALTF
 40
25.4
  9
$DIMLFAC
 40
1.0
  9
$DIMTOFL
 70
     1
  9
$DIMTVP
 40
0.0
  9
$DIMTIX
 70
     0
  9
$DIMSOXD
 70
     0
  9
$DIMSAH
 70
     1
  9
$DIMBLK1
  1
OPEN30
  9
$DIMBLK2
  1
OPEN30
  9
$DIMSTYLE
  2
NEWX10
  9
$DIMCLRD
 70
     0
  9
$DIMCLRE
 70
     0
  9
$DIMCLRT
 70
   201
  9
$DIMTFAC
 40
0.7
  9
$DIMGAP
 40
0.7
  9
$LUNITS
 70
     2
  9
$LUPREC
 70
     4
  9
$SKETCHINC
 40
1.0
  9
$FILLETRAD
 40
0.0
  9
$AUNITS
 70
     0
  9
$AUPREC
 70
     2
  9
$MENU
  1
acad
  9
$ELEVATION
 40
0.0
  9
$PELEVATION
 40
0.0
  9
$THICKNESS
 40
0.0
  9
$LIMCHECK
 70
     0
  9
$CHAMFERA
 40
1.0
  9
$CHAMFERB
 40
1.0
  9
$SKPOLY
 70
     0
  9
$TDCREATE
 40
2453033.732663484
  9
$TDUPDATE
 40
2460586.380080961
  9
$TDINDWG
 40
3.1252256829
  9
$TDUSRTIMER
 40
3.1252256944
  9
$USRTIMER
 70
     1
  9
$ANGBASE
 50
0.0
  9
$ANGDIR
 70
     0
  9
$PDMODE
 70
     0
  9
$PDSIZE
 40
0.0
  9
$PLINEWID
 40
0.0
  9
$COORDS
 70
     2
  9
$SPLFRAME
 70
     0
  9
$SPLINETYPE
 70
     6
  9
$SPLINESEGS
 70
     8
  9
$ATTDIA
 70
     0
  9
$ATTREQ
 70
     1
  9
$HANDLING
 70
     1
  9
$HANDSEED
  5
26500
  9
$SURFTAB1
 70
     6
  9
$SURFTAB2
 70
     6
  9
$SURFTYPE
 70
     6
  9
$SURFU
 70
     6
  9
$SURFV
 70
     6
  9
$UCSNAME
  2

  9
$UCSORG
 10
0.0
 20
0.0
 30
0.0
  9
$UCSXDIR
 10
1.0
 20
0.0
 30
0.0
  9
$UCSYDIR
 10
0.0
 20
1.0
 30
0.0
  9
$PUCSNAME
  2

  9
$PUCSORG
 10
0.0
 20
0.0
 30
0.0
  9
$PUCSXDIR
 10
1.0
 20
0.0
 30
0.0
  9
$PUCSYDIR
 10
0.0
 20
1.0
 30
0.0
  9
$USERI1
 70
     0
  9
$USERI2
 70
     0
  9
$USERI3
 70
     0
  9
$USERI4
 70
     0
  9
$USERI5
 70
     0
  9
$USERR1
 40
0.0
  9
$USERR2
 40
0.0
  9
$USERR3
 40
0.0
  9
$USERR4
 40
0.0
  9
$USERR5
 40
0.0
  9
$WORLDVIEW
 70
     1
  9
$SHADEDGE
 70
     3
  9
$SHADEDIF
 70
    70
  9
$TILEMODE
 70
     1
  9
$MAXACTVP
 70
    48
  9
$PLIMCHECK
 70
     0
  9
$PEXTMIN
 10
1.000000000000000E+20
 20
1.000000000000000E+20
 30
1.000000000000000E+20
  9
$PEXTMAX
 10
-1.000000000000000E+20
 20
-1.000000000000000E+20
 30
-1.000000000000000E+20
  9
$PLIMMIN
 10
0.0
 20
0.0
  9
$PLIMMAX
 10
420.0
 20
297.0
  9
$UNITMODE
 70
     0
  9
$VISRETAIN
 70
     1
  9
$PLINEGEN
 70
     0
  9
$PSLTSCALE
 70
     1
  0
ENDSEC
  0
SECTION
  2
TABLES
  0
TABLE
  2
VPORT
 70
     1
  0
VPORT
  2
*ACTIVE
 70
     0
 10
0.0
 20
0.0
 11
1.0
 21
1.0
 12
2863.384824898852
 22
-337.1102861393816
 13
0.0
 23
0.0
 14
10.0
 24
10.0
 15
10.0
 25
10.0
 16
0.0
 26
0.0
 36
1.0
 17
0.0
 27
0.0
 37
0.0
 40
901.3673833920175
 41
1.83275663206459
 42
50.0
 43
0.0
 44
0.0
 50
0.0
 51
0.0
 71
    16
 72
    20
 73
     1
 74
     1
 75
     0
 76
     0
 77
     0
 78
     0
  0
ENDTAB
  0
TABLE
  2
LTYPE
 70
    19
  0
LTYPE
  2
CONTINUOUS
 70
     0
  3
Solid line
 72
    65
 73
     0
 40
0.0
  0
LTYPE
  2
CENTER2
 70
     0
  3
Center (.5x) ___ _ ___ _ ___ _ ___ _ ___ _ ___
 72
    65
 73
     4
 40
28.575
 49
19.05
 49
-3.175
 49
3.175
 49
-3.175
  0
ENDTAB
  0
TABLE
  2
LAYER
 70
    45
  0
LAYER
  2
0
 70
     0
 62
     7
  6
CONTINUOUS
  0
LAYER
  2
1CENTER
 70
     0
 62
     7
  6
CENTER2
  0
LAYER
  2
1TEXT
 70
     0
 62
     7
  6
CONTINUOUS
  0
LAYER
  2
1DIM
 70
     0
 62
     7
  6
CONTINUOUS
  0
LAYER
  2
01
 70
     0
 62
     1
  6
CONTINUOUS
  0
LAYER
  2
1DIM1
 70
     0
 62
     7
  6
CONTINUOUS
  0
LAYER
  2
1HATCH
 70
     0
 62
     7
  6
CONTINUOUS
  0
ENDTAB
  0
TABLE
  2
STYLE
 70
    28
  0
STYLE
  2
STANDARD
 70
     0
 40
0.0
 41
1.0
 50
0.0
 71
     0
 42
4.0
  3
txt.shx
  4
extfont.shx
  0
ENDTAB
  0
TABLE
  2
VIEW
 70
     0
  0
ENDTAB
  0
TABLE
  2
UCS
 70
     5
  0
UCS
  2
U
 70
     0
 10
0.0
 20
0.0
 30
0.0
 11
1.0
 21
0.0
 31
0.0
 12
0.0
 22
6.123233995736766E-17
 32
1.0
  0
UCS
  2
L
 70
     0
 10
0.0
 20
0.0
 30
0.0
 11
-1.836970198721030E-16
 21
-1.0
 31
6.123233995736766E-17
 12
0.0
 22
6.123233995736766E-17
 32
1.0
  0
UCS
  2
R
 70
     0
 10
0.0
 20
0.0
 30
0.0
 11
3.061616997868383E-16
 21
1.0
 31
-6.123233995736766E-17
 12
0.0
 22
6.123233995736766E-17
 32
1.0
  0
UCS
  2
ISOME
 70
     0
 10
0.0
 20
0.0
 30
0.0
 11
0.7071450863198264
 21
-0.7070684729403536
 31
-3.830824619471818E-5
 12
0.4082704059428736
 22
0.408270407740115
 32
0.8164744636514737
  0
UCS
  2
PERSPECTIVE
 70
     0
 10
0.0
 20
0.0
 30
0.0
 11
0.8191477691768962
 21
-0.5735823260466401
 31
-0.0004974931557765738
 12
0.1584844715982971
 22
0.2255020289861079
 32
0.961265575782966
  0
ENDTAB
  0
TABLE
  2
APPID
 70
    31
  0
APPID
  2
ACAD
 70
     0
  0
APPID
  2
DRAWINGVARIABLESXDATA
 70
     0
  0
APPID
  2
CONTENTTABDATA
 70
     0
  0
APPID
  2
CONTENTCURRENTTAB
 70
     0
  0
APPID
  2
CONTENTBLOCKDESCRIPTION
 70
     0
  0
APPID
  2
CONTENTBLOCKICON
 70
     0
  0
APPID
  2
CONTENTLONGBLOCKNAME
 70
     0
  0
APPID
  2
ACAD_PSEXT
 70
     0
  0
APPID
  2
ACAD_DSTYLE_DIMTEXT_FILL
 70
     0
  0
APPID
  2
ACAD_MLEADERVER
 70
     0
  0
APPID
  2
ACAD_DSTYLE_DIMRADIAL_EXTE
 70
     0
  0
APPID
  2
ACADANNOTATIVE
 70
     0
  0
APPID
  2
ACAD_EXEMPT_FROM_CAD_STAND
 70
     0
  0
APPID
  2
ACDBBLOCKREPETAG
 70
     0
  0
APPID
  2
ACAD_OBJECT_CHANGE_GUID
 70
     0
  0
APPID
  2
ACAD_NAV_VCDISPLAY
 70
     0
  0
APPID
  2
ACLAYERTOOLS
 70
     0
  0
APPID
  2
ACDBDYNAMICBLOCKGUID
 70
     0
  0
APPID
  2
ACDBDYNAMICBLOCKTRUENAME
 70
     0
  0
APPID
  2
ACDBBLOCKREPBTAG
 70
     0
  0
APPID
  2
ACAUTHENVIRON
 70
     0
  0
APPID
  2
ACADANNOPO
 70
     0
  0
APPID
  2
ACAECLAYERSTANDARD
 70
     0
  0
APPID
  2
ACAD_DSTYLE_DIMJOGGED_JOGA
 70
     0
  0
APPID
  2
ACAD_DSTYLE_DIM_LINETYPE
 70
     0
  0
APPID
  2
ACAD_DSTYLE_DIM_EXT1_LINET
 70
     0
  0
APPID
  2
ACAD_DSTYLE_DIM_EXT2_LINET
 70
     0
  0
APPID
  2
ACAD_DIMASSOC_CALC_DIMLFAC
 70
     0
  0
APPID
  2
ACAD_DIMASSOC_DIMLFAC
 70
     0
  0
APPID
  2
ACAD_DIMASSOC_OVERRIDDEN_D
 70
     0
  0
APPID
  2
ACADANNOTATIVEDECOMPOSITIO
 70
     0
  0
ENDTAB
  0
TABLE
  2
DIMSTYLE
 70
    11
  0
DIMSTYLE
  2
NEWX10
 70
     0
  3
 
  4

  5

  6
OPEN30
  7
OPEN30
 40
1.0
 41
2.0
 42
0.0
 43
7.0
 44
1.0
 45
0.0
 46
0.0
 47
0.0
 48
0.0
140
3.5
141
0.0
142
0.0
143
25.4
144
1.0
145
0.0
146
0.7
147
0.7
 71
     0
 72
     0
 73
     0
 74
     0
 75
     0
 76
     0
 77
     1
 78
     8
170
     0
171
     2
172
     1
173
     1
174
     0
175
     0
176
     0
177
     0
178
   201
  0
DIMSTYLE
  2
ISO-25
 70
     0
  3

  4

  5

  6

  7

 40
1.0
 41
20.0
 42
3.0
 43
3.75
 44
2.0
 45
0.0
 46
0.0
 47
0.0
 48
0.0
140
30.0
141
5.0
142
0.0
143
0.03937
144
1.0
145
0.0
146
1.0
147
8.0
 71
     0
 72
     0
 73
     0
 74
     0
 75
     0
 76
     0
 77
     1
 78
     8
170
     0
171
     3
172
     1
173
     0
174
     0
175
     0
176
     1
177
     1
178
     1
  0
ENDTAB
  0
ENDSEC
  0
SECTION
  2
BLOCKS
  0
BLOCK
  8
0
  2
$MODEL_SPACE
 70
     0
 10
0.0
 20
0.0
 30
0.0
  3
$MODEL_SPACE
  1

  0
ENDBLK
  5
1A
  8
0
  0
BLOCK
 67
     1
  8
0
  2
$PAPER_SPACE
 70
     0
 10
0.0
 20
0.0
 30
0.0
  3
$PAPER_SPACE
  1

  0
ENDBLK
  5
17
 67
     1
  8
0
  0
BLOCK
  8
0
  2
_OPEN30
 70
     0
 10
0.0
 20
0.0
 30
0.0
  3
_OPEN30
  1

  0
LINE
  5
44
  8
0
  6
BYBLOCK
 62
     0
 10
-1.0
 20
0.26794919
 30
0.0
 11
0.0
 21
0.0
 31
0.0
  0
LINE
  5
45
  8
0
  6
BYBLOCK
 62
     0
 10
0.0
 20
0.0
 30
0.0
 11
-1.0
 21
-0.26794919
 31
0.0
  0
LINE
  5
46
  8
0
  6
BYBLOCK
 62
     0
 10
0.0
 20
0.0
 30
0.0
 11
-1.0
 21
0.0
 31
0.0
  0
ENDBLK
  5
47
  8
0
  0
BLOCK
  8
0
  2
A3WAKUKAWAJUN2017_HYOUDAI_
 70
     0
 10
0.0
 20
0.0
 30
0.0
  3
A3WAKUKAWAJUN2017_HYOUDAI_
  1

  0
LINE
  5
20318
  8
0
 10
13.26299999998673
 20
-0.0001000000000317
 30
0.0
 11
9.236999999990758
 21
8.999899999990987
 31
0.0
1001
ACAD
1000
ASC_BOUNDS
1002
{
1070
    19
1005
20359
1002
}
  0
LINE
  5
20319
  8
0
 10
5.657999999994331
 20
0.9999999999989768
 30
0.0
 11
9.236999999990758
 21
8.999999999991019
 31
0.0
1001
ACAD
1000
ASC_BOUNDS
1002
{
1070
    19
1005
20359
1002
}
  0
LINE
  5
2031A
  8
0
 10
18.59199999998134
 20
-0.2368999999997641
 30
0.0
 11
16.46099999998353
 21
5.432899999994561
 31
0.0
1001
ACAD
1000
ASC_BOUNDS
1002
{
1070
    19
1005
2035A
1002
}
  0
LINE
  5
2031B
  8
0
 10
18.59199999998134
 20
-0.2368999999997641
 30
0.0
 11
22.38199999997767
 21
8.763099999991255
 31
0.0
1001
ACAD
1000
ASC_BOUNDS
1002
{
1070
    19
1005
2035A
1002
}
  0
LINE
  5
2031C
  8
0
 10
14.32899999998563
 20
-0.2368999999997641
 30
0.0
 11
16.46099999998353
 21
5.432899999994561
 31
0.0
1001
ACAD
1000
ASC_BOUNDS
1002
{
1070
    19
1005
2035A
1002
}
  0
LINE
  5
2031D
  8
0
 10
14.32899999998563
 20
-0.2368999999997641
 30
0.0
 11
10.53899999998941
 21
8.763099999991255
 31
0.0
1001
ACAD
1000
ASC_BOUNDS
1002
{
1070
    19
1005
2035A
1002
}
  0
LINE
  5
2031E
  8
0
 10
19.53899999998043
 20
-0.0001000000000317
 30
0.0
 11
23.56599999997638
 21
8.999899999990987
 31
0.0
1001
ACAD
1000
ASC_BOUNDS
1002
{
1070
    19
1005
2035B
1002
}
  0
LINE
  5
2031F
  8
0
 10
26.97358892824991
 20
1.383099999991202
 30
0.0
 11
23.56599999997638
 21
8.999899999990987
 31
0.0
1001
ACAD
1000
ASC_BOUNDS
1002
{
1070
    19
1005
2035B
1002
}
  0
LINE
  5
20320
  8
0
 10
5.657999999994331
 20
0.9999999999989768
 30
0.0
 11
3.181999999996833
 21
4.668599999995308
 31
0.0
1001
ACAD
1000
ASC_BOUNDS
1002
{
1070
    19
1005
20359
1002
}
  0
LINE
  5
20321
  8
0
 10
4.617999999995391
 20
-0.0001000000000317
 30
0.0
 11
1.420999999998571
 21
4.736799999995242
 31
0.0
1001
ACAD
1000
ASC_BOUNDS
1002
{
1070
    19
1005
20359
1002
}
  0
LINE
  5
20322
  8
0
 10
1.420999999998571
 20
8.763099999991255
 30
0.0
 11
1.420999999998571
 21
0.0
 31
0.0
1001
ACAD
1000
ASC_BOUNDS
1002
{
1070
    19
1005
2035E
1002
}
  0
LINE
  5
20323
  8
0
 10
0.0
 20
8.763099999991255
 30
0.0
 11
0.0
 21
0.0
 31
0.0
1001
ACAD
1000
ASC_BOUNDS
1002
{
1070
    19
1005
2035E
1002
}
  0
LINE
  5
20324
  8
0
 10
6.766999999993232
 20
-0.0001000000000317
 30
0.0
 11
7.826999999992154
 21
2.368399999997621
 31
0.0
1001
ACAD
1000
ASC_BOUNDS
1002
{
1070
    19
1005
20359
1002
}
  0
LINE
  5
20325
  8
0
 10
0.0
 20
0.0
 30
0.0
 11
1.420999999998571
 21
0.0
 31
0.0
1001
ACAD
1000
ASC_BOUNDS
1002
{
1070
    19
1005
2035E
1002
}
  0
LINE
  5
20326
  8
0
 10
4.617999999995391
 20
0.0
 30
0.0
 11
6.766999999993232
 21
0.0
 31
0.0
1001
ACAD
1000
ASC_BOUNDS
1002
{
1070
    19
1005
20359
1002
}
  0
LINE
  5
20327
  8
0
 10
11.70599999998831
 20
-0.0001000000000317
 30
0.0
 11
10.64699999998936
 21
2.368399999997621
 31
0.0
1001
ACAD
1000
ASC_BOUNDS
1002
{
1070
    19
1005
20359
1002
}
  0
LINE
  5
20328
  8
0
 10
7.826999999992154
 20
2.368399999997621
 30
0.0
 11
10.64699999998936
 21
2.368399999997621
 31
0.0
1001
ACAD
1000
ASC_BOUNDS
1002
{
1070
    19
1005
20359
1002
}
  0
LINE
  5
20329
  8
0
 10
11.70599999998831
 20
0.0
 30
0.0
 11
13.26299999998673
 21
0.0
 31
0.0
1001
ACAD
1000
ASC_BOUNDS
1002
{
1070
    19
1005
20359
1002
}
  0
LINE
  5
2032A
  8
0
 10
22.15599999997789
 20
2.368399999997621
 30
0.0
 11
24.97599999997499
 21
2.368399999997621
 31
0.0
1001
ACAD
1000
ASC_BOUNDS
1002
{
1070
    19
1005
2035B
1002
}
  0
LINE
  5
2032B
  8
0
 10
19.53899999998043
 20
0.0
 30
0.0
 11
21.09599999997886
 21
0.0
 31
0.0
1001
ACAD
1000
ASC_BOUNDS
1002
{
1070
    19
1005
2035B
1002
}
  0
LINE
  5
2032C
  8
0
 10
21.09599999997886
 20
-0.0001000000000317
 30
0.0
 11
22.15599999997789
 21
2.368399999997621
 31
0.0
1001
ACAD
1000
ASC_BOUNDS
1002
{
1070
    19
1005
2035B
1002
}
  0
LINE
  5
2032D
  8
0
 10
26.02015566812236
 20
0.0330999999912365
 30
0.0
 11
24.97599999997499
 21
2.368399999997621
 31
0.0
1001
ACAD
1000
ASC_BOUNDS
1002
{
1070
    19
1005
2035B
1002
}
  0
LINE
  5
2032E
  8
0
 10
14.32399999998563
 20
3.315799999996671
 30
0.0
 11
16.46099999998353
 21
8.999899999990987
 31
0.0
1001
ACAD
1000
ASC_BOUNDS
1002
{
1070
    19
1005
2035A
1002
}
  0
LINE
  5
2032F
  8
0
 10
6.432999999993513
 20
8.763099999991255
 30
0.0
 11
3.181999999996833
 21
4.668599999995308
 31
0.0
1001
ACAD
1000
ASC_BOUNDS
1002
{
1070
    19
1005
20359
1002
}
  0
LINE
  5
20330
  8
0
 10
4.617999999995391
 20
8.763099999991255
 30
0.0
 11
1.420999999998571
 21
4.736799999995242
 31
0.0
1001
ACAD
1000
ASC_BOUNDS
1002
{
1070
    19
1005
20359
1002
}
  0
LINE
  5
20331
  8
0
 10
0.0
 20
8.763099999991255
 30
0.0
 11
1.420999999998571
 21
8.763099999991255
 31
0.0
1001
ACAD
1000
ASC_BOUNDS
1002
{
1070
    19
1005
2035E
1002
}
  0
LINE
  5
20332
  8
0
 10
4.617999999995391
 20
8.763099999991255
 30
0.0
 11
6.432999999993513
 21
8.763099999991255
 31
0.0
1001
ACAD
1000
ASC_BOUNDS
1002
{
1070
    19
1005
20359
1002
}
  0
LINE
  5
20333
  8
0
 10
14.32399999998563
 20
3.315799999996671
 30
0.0
 11
12.02999999998792
 21
8.763099999991255
 31
0.0
1001
ACAD
1000
ASC_BOUNDS
1002
{
1070
    19
1005
2035A
1002
}
  0
LINE
  5
20334
  8
0
 10
10.06399999998996
 20
3.670999999996297
 30
0.0
 11
9.236999999990758
 21
5.5200999999945
 31
0.0
1001
ACAD
1000
ASC_BOUNDS
1002
{
1070
    19
1005
20359
1002
}
  0
LINE
  5
20335
  8
0
 10
8.409999999991555
 20
3.670999999996297
 30
0.0
 11
9.236999999990758
 21
5.5200999999945
 31
0.0
1001
ACAD
1000
ASC_BOUNDS
1002
{
1070
    19
1005
20359
1002
}
  0
LINE
  5
20336
  8
0
 10
8.409999999991555
 20
3.670999999996297
 30
0.0
 11
10.06399999998996
 21
3.670999999996297
 31
0.0
1001
ACAD
1000
ASC_BOUNDS
1002
{
1070
    19
1005
20359
1002
}
  0
LINE
  5
20337
  8
0
 10
10.53899999998941
 20
8.763099999991255
 30
0.0
 11
12.02999999998792
 21
8.763099999991255
 31
0.0
1001
ACAD
1000
ASC_BOUNDS
1002
{
1070
    19
1005
2035A
1002
}
  0
LINE
  5
20338
  8
0
 10
22.7389999999773
 20
3.670999999996297
 30
0.0
 11
23.56599999997638
 21
5.5200999999945
 31
0.0
1001
ACAD
1000
ASC_BOUNDS
1002
{
1070
    19
1005
2035B
1002
}
  0
LINE
  5
20339
  8
0
 10
22.7389999999773
 20
3.670999999996297
 30
0.0
 11
24.39299999997559
 21
3.670999999996297
 31
0.0
1001
ACAD
1000
ASC_BOUNDS
1002
{
1070
    19
1005
2035B
1002
}
  0
LINE
  5
2033A
  8
0
 10
18.59799999998143
 20
3.315799999996671
 30
0.0
 11
20.89099999997916
 21
8.763099999991255
 31
0.0
1001
ACAD
1000
ASC_BOUNDS
1002
{
1070
    19
1005
2035A
1002
}
  0
LINE
  5
2033B
  8
0
 10
18.59799999998143
 20
3.315799999996671
 30
0.0
 11
16.46099999998353
 21
8.999899999990987
 31
0.0
1001
ACAD
1000
ASC_BOUNDS
1002
{
1070
    19
1005
2035A
1002
}
  0
LINE
  5
2033C
  8
0
 10
20.89099999997916
 20
8.763099999991255
 30
0.0
 11
22.38199999997767
 21
8.763099999991255
 31
0.0
1001
ACAD
1000
ASC_BOUNDS
1002
{
1070
    19
1005
2035A
1002
}
  0
LINE
  5
2033D
  8
0
 10
24.39299999997559
 20
3.670999999996297
 30
0.0
 11
23.56599999997638
 21
5.5200999999945
 31
0.0
1001
ACAD
1000
ASC_BOUNDS
1002
{
1070
    19
1005
2035B
1002
}
  0
LINE
  5
2033E
  8
0
 10
44.99999999995498
 20
-0.2368999999997641
 30
0.0
 11
40.02599999995994
 21
5.341799999994635
 31
0.0
1001
ACAD
1000
ASC_BOUNDS
1002
{
1070
    19
1005
2035D
1002
}
  0
LINE
  5
2033F
  8
0
 10
40.02599999995994
 20
5.341799999994635
 30
0.0
 11
40.02599999995994
 21
0.0
 31
0.0
1001
ACAD
1000
ASC_BOUNDS
1002
{
1070
    19
1005
2035D
1002
}
  0
LINE
  5
20340
  8
0
 10
38.60499999996136
 20
8.999999999991019
 30
0.0
 11
38.60499999996136
 21
0.0
 31
0.0
1001
ACAD
1000
ASC_BOUNDS
1002
{
1070
    19
1005
2035D
1002
}
  0
LINE
  5
20341
  8
0
 10
44.99999999995498
 20
8.763099999991255
 30
0.0
 11
44.99999999995498
 21
-0.2368999999997641
 31
0.0
1001
ACAD
1000
ASC_BOUNDS
1002
{
1070
    19
1005
2035D
1002
}
  0
LINE
  5
20342
  8
0
 10
38.60499999996136
 20
0.0
 30
0.0
 11
40.02599999995994
 21
0.0
 31
0.0
1001
ACAD
1000
ASC_BOUNDS
1002
{
1070
    19
1005
2035D
1002
}
  0
LINE
  5
20343
  8
0
 10
43.57899999995641
 20
3.421199999996588
 30
0.0
 11
38.60499999996136
 21
8.999899999990987
 31
0.0
1001
ACAD
1000
ASC_BOUNDS
1002
{
1070
    19
1005
2035D
1002
}
  0
LINE
  5
20344
  8
0
 10
43.57899999995641
 20
8.763099999991255
 30
0.0
 11
43.57899999995641
 21
3.421199999996588
 31
0.0
1001
ACAD
1000
ASC_BOUNDS
1002
{
1070
    19
1005
2035D
1002
}
  0
LINE
  5
20345
  8
0
 10
43.57899999995641
 20
8.763099999991255
 30
0.0
 11
44.99999999995498
 21
8.763099999991255
 31
0.0
1001
ACAD
1000
ASC_BOUNDS
1002
{
1070
    19
1005
2035D
1002
}
  0
LINE
  5
20346
  8
0
 10
37.67199999996831
 20
8.763099999991255
 30
0.0
 11
36.23199999996837
 21
8.763099999991255
 31
0.0
  0
LINE
  5
20347
  8
0
 10
31.64199999996833
 20
8.763099999991255
 30
0.0
 11
31.64199999996833
 21
2.481619422925121
 31
0.0
  0
LINE
  5
20348
  8
0
 10
37.67199999996831
 20
8.763099999991255
 30
0.0
 11
37.67199999996831
 21
2.481619422925121
 31
0.0
  0
LINE
  5
20349
  8
0
 10
36.23199999996837
 20
8.763099999991255
 30
0.0
 11
36.23199999996837
 21
2.481619422925064
 31
0.0
  0
LINE
  5
2034A
  8
0
 10
33.08199999996839
 20
8.763099999991255
 30
0.0
 11
33.08199999996839
 21
2.481619422925121
 31
0.0
  0
ARC
  5
2034B
  8
0
 10
34.65699999996832
 20
3.183099999991214
 30
0.0
 40
3.420000000000007
 50
240.0000000000255
 51
299.9999999999766
  0
ARC
  5
2034C
  8
0
 10
34.65699999996832
 20
3.183099999991214
 30
0.0
 40
1.97999999999999
 50
240.000000000026
 51
299.9999999999703
  0
LINE
  5
2034D
  8
0
 10
33.08199999996828
 20
8.763099999991255
 30
0.0
 11
31.64199999996833
 21
8.763099999991255
 31
0.0
  0
ARC
  5
2034E
  8
0
 10
35.06199999996829
 20
2.481619422925064
 30
0.0
 40
1.17
 50
299.9999999999699
 51
0.0
  0
ARC
  5
2034F
  8
0
 10
34.25199999996835
 20
2.481619422925121
 30
0.0
 40
1.17
 50
180.0
 51
240.0000000000238
  0
ARC
  5
20350
  8
0
 10
35.06199999996841
 20
2.481619422925121
 30
0.0
 40
2.61
 50
299.9999999999756
 51
0.0
  0
ARC
  5
20351
  8
0
 10
34.25199999996835
 20
2.481619422925121
 30
0.0
 40
2.61
 50
180.0
 51
240.0000000000244
  0
LINE
  5
20352
  8
0
 10
29.30199999996933
 20
8.763099999991255
 30
0.0
 11
30.74199999996927
 21
8.763099999991255
 31
0.0
1001
ACAD
1000
ASC_BOUNDS
1002
{
1070
    19
1005
2035B
1002
}
  0
LINE
  5
20353
  8
0
 10
30.74199999996927
 20
8.763099999991255
 30
0.0
 11
30.74199999996927
 21
2.373099999991211
 31
0.0
1001
ACAD
1000
ASC_BOUNDS
1002
{
1070
    19
1005
2035B
1002
}
  0
LINE
  5
20354
  8
0
 10
26.02015566812236
 20
0.0330999999912365
 30
0.0
 11
28.40199999996923
 21
0.0330999999912365
 31
0.0
1001
ACAD
1000
ASC_BOUNDS
1002
{
1070
    19
1005
2035B
1002
}
  0
LINE
  5
20355
  8
0
 10
29.30199999996933
 20
8.763099999991255
 30
0.0
 11
29.30199999996933
 21
2.283099999991236
 31
0.0
1001
ACAD
1000
ASC_BOUNDS
1002
{
1070
    19
1005
2035B
1002
}
  0
LINE
  5
20356
  8
0
 10
26.97358892824991
 20
1.383099999991202
 30
0.0
 11
28.40199999996923
 21
1.383099999991202
 31
0.0
1001
ACAD
1000
ASC_BOUNDS
1002
{
1070
    19
1005
2035B
1002
}
  0
ARC
  5
20357
  8
0
 10
28.40199999996923
 20
2.283099999991236
 30
0.0
 40
0.9
 50
270.0
 51
0.0
1001
ACAD
1000
ASC_BOUNDS
1002
{
1070
    19
1005
2035B
1002
}
  0
ARC
  5
20358
  8
0
 10
28.40199999996923
 20
2.373099999991211
 30
0.0
 40
2.34
 50
270.0
 51
0.0
1001
ACAD
1000
ASC_BOUNDS
1002
{
1070
    19
1005
2035B
1002
}
  0
INSERT
  5
20359
  8
0
  2
*X258
 10
0.0
 20
0.0
 30
0.0
1001
ACAD
1000
HATCH
1002
{
1070
    19
1000
ANSI37
1040
0.15
1040
0.0
1000
ASC_BOUNDS
1070
     2
1070
     2
1070
    12
1005
20318
1005
20319
1005
20320
1005
2032F
1005
20332
1005
20330
1005
20321
1005
20326
1005
20324
1005
20328
1005
20327
1005
20329
1070
     2
1070
     3
1005
20334
1005
20336
1005
20335
1000
ASC_SEEDPOINT
1011
3.614004224891801
1021
2.996669441146025
1031
0.0
1021
2.996669441146025
1031
0.0
1000
R14_HATCH_DATA
1000
20359
1011
1.0
1021
0.0
1031
0.0
1021
0.0
1031
0.0
1011
0.0
1021
1.0
1031
0.0
1021
1.0
1031
0.0
1011
0.0
1021
0.0
1031
1.0
1021
0.0
1031
1.0
1040
0.0
1010
0.0
1020
0.0
1030
1.0
1000
ANSI37
1070
     0
1070
     1
1071
        2
1071
        7
1070
     0
1070
     1
1071
       17
1040
13.26299999998673
1040
-0.0001000000000317
1040
9.236999999990758
1040
8.999899999990987
1040
9.236999999990758
1040
8.999999999991019
1040
5.657999999994331
1040
0.9999999999989768
1040
3.181999999996833
1040
4.668599999995308
1040
6.432999999993513
1040
8.763099999991255
1040
4.617999999995391
1040
8.763099999991255
1040
1.420999999998571
1040
4.736799999995242
1040
4.617999999995391
1040
-0.0001000000000317
1040
4.617999999995391
1040
0.0
1040
6.766999999993232
1040
0.0
1040
6.766999999993232
1040
-0.0001000000000317
1040
7.826999999992154
1040
2.368399999997621
1040
10.64699999998936
1040
2.368399999997621
1040
11.70599999998831
1040
-0.0001000000000317
1040
11.70599999998831
1040
0.0
1040
13.26299999998673
1040
0.0
1071
       12
1005
20318
1005
20319
1005
20320
1005
2032F
1005
20332
1005
20330
1005
20321
1005
20326
1005
20324
1005
20328
1005
20327
1005
20329
1071
       22
1070
     0
1070
     1
1071
        3
1040
9.236999999990758
1040
5.5200999999945
1040
10.06399999998996
1040
3.670999999996297
1040
8.409999999991555
1040
3.670999999996297
1071
        3
1005
20334
1005
20336
1005
20335
1070
     0
1070
     1
1040
0.0
1040
0.15
1070
     0
1070
     2
1040
0.7853981633974483
1040
49.29960901727088
1040
-10.17736998311392
1040
-0.3367596045400932
1040
0.3367596045400932
1070
     0
1040
2.356194490192345
1040
49.29960901727088
1040
-10.17736998311392
1040
-0.3367596045400932
1040
-0.3367596045400932
1070
     0
1040
0.0110235143455945
1071
        2
1040
3.614004224891801
1040
2.996669441146025
1040
0.0
1040
3.614004224891801
1040
2.996669441146025
1040
0.0
1002
}
  0
INSERT
  5
2035A
  8
0
  2
*X259
 10
0.0
 20
0.0
 30
0.0
1001
ACAD
1000
HATCH
1002
{
1070
    19
1000
ANSI37
1040
0.15
1040
0.0
1000
ASC_BOUNDS
1070
     1
1070
     2
1070
    10
1005
2031A
1005
2031B
1005
2033C
1005
2033A
1005
2033B
1005
2032E
1005
20333
1005
20337
1005
2031D
1005
2031C
1000
ASC_SEEDPOINT
1011
14.73245321214324
1021
2.798246178283421
1031
0.0
1021
2.798246178283421
1031
0.0
1000
R14_HATCH_DATA
1000
2035A
1011
1.0
1021
0.0
1031
0.0
1021
0.0
1031
0.0
1011
0.0
1021
1.0
1031
0.0
1021
1.0
1031
0.0
1011
0.0
1021
0.0
1031
1.0
1021
0.0
1031
1.0
1040
0.0
1010
0.0
1020
0.0
1030
1.0
1000
ANSI37
1070
     0
1070
     1
1071
        1
1071
        7
1070
     0
1070
     1
1071
       10
1040
16.46099999998353
1040
5.432899999994561
1040
18.59199999998134
1040
-0.2368999999997641
1040
22.38199999997767
1040
8.763099999991255
1040
20.89099999997916
1040
8.763099999991255
1040
18.59799999998143
1040
3.315799999996671
1040
16.46099999998353
1040
8.999899999990987
1040
14.32399999998563
1040
3.315799999996671
1040
12.02999999998792
1040
8.763099999991255
1040
10.53899999998941
1040
8.763099999991255
1040
14.32899999998563
1040
-0.2368999999997641
1071
       10
1005
2031A
1005
2031B
1005
2033C
1005
2033A
1005
2033B
1005
2032E
1005
20333
1005
20337
1005
2031D
1005
2031C
1070
     0
1070
     1
1040
0.0
1040
0.15
1070
     0
1070
     2
1040
0.7853981633974483
1040
49.29960901727088
1040
-10.17736998311392
1040
-0.3367596045400932
1040
0.3367596045400932
1070
     0
1040
2.356194490192345
1040
49.29960901727088
1040
-10.17736998311392
1040
-0.3367596045400932
1040
-0.3367596045400932
1070
     0
1040
0.0110235143455945
1071
        1
1040
14.73245321214324
1040
2.798246178283421
1040
0.0
1002
}
  0
INSERT
  5
2035B
  8
0
  2
*X260
 10
0.0
 20
0.0
 30
0.0
1001
ACAD
1000
HATCH
1002
{
1070
    19
1000
ANSI37
1040
0.15
1040
0.0
1000
ASC_BOUNDS
1070
     2
1070
     2
1070
    13
1005
2031E
1005
2032B
1005
2032C
1005
2032A
1005
2032D
1005
20354
1005
20358
1005
20353
1005
20352
1005
20355
1005
20357
1005
20356
1005
2031F
1070
     2
1070
     3
1005
20338
1005
2033D
1005
20339
1000
ASC_SEEDPOINT
1011
21.97929957367762
1021
3.294304244259308
1031
0.0
1021
3.294304244259308
1031
0.0
1000
R14_HATCH_DATA
1000
2035B
1011
1.0
1021
0.0
1031
0.0
1021
0.0
1031
0.0
1011
0.0
1021
1.0
1031
0.0
1021
1.0
1031
0.0
1011
0.0
1021
0.0
1031
1.0
1021
0.0
1031
1.0
1040
0.0
1010
0.0
1020
0.0
1030
1.0
1000
ANSI37
1070
     0
1070
     1
1071
        2
1071
        7
1070
     1
1070
     1
1071
       15
1040
23.56599999997638
1040
8.999899999990987
1040
0.0
1040
19.53899999998043
1040
-0.0001000000000317
1040
0.0
1040
19.53899999998043
1040
0.0
1040
0.0
1040
21.09599999997886
1040
0.0
1040
0.0
1040
21.09599999997886
1040
-0.0001000000000317
1040
0.0
1040
22.15599999997789
1040
2.368399999997621
1040
0.0
1040
24.97599999997499
1040
2.368399999997621
1040
0.0
1040
26.02015566812236
1040
0.0330999999912365
1040
0.0
1040
28.40199999996923
1040
0.0330999999912365
1040
0.414213562373095
1040
30.74199999996923
1040
2.373099999991211
1040
0.0
1040
30.74199999996927
1040
8.763099999991255
1040
0.0
1040
29.30199999996933
1040
8.763099999991255
1040
0.0
1040
29.30199999996933
1040
2.283099999991236
1040
-0.414213562373095
1040
28.40199999996923
1040
1.383099999991237
1040
0.0
1040
26.97358892824991
1040
1.383099999991202
1040
0.0
1071
       13
1005
2031E
1005
2032B
1005
2032C
1005
2032A
1005
2032D
1005
20354
1005
20358
1005
20353
1005
20352
1005
20355
1005
20357
1005
20356
1005
2031F
1071
       22
1070
     0
1070
     1
1071
        3
1040
22.7389999999773
1040
3.670999999996297
1040
23.56599999997638
1040
5.5200999999945
1040
24.39299999997559
1040
3.670999999996297
1071
        3
1005
20338
1005
2033D
1005
20339
1070
     0
1070
     1
1040
0.0
1040
0.15
1070
     0
1070
     2
1040
0.7853981633974483
1040
49.29960901727088
1040
-10.17736998311392
1040
-0.3367596045400932
1040
0.3367596045400932
1070
     0
1040
2.356194490192345
1040
49.29960901727088
1040
-10.17736998311392
1040
-0.3367596045400932
1040
-0.3367596045400932
1070
     0
1040
0.0110235143455945
1071
        2
1040
21.97929957367762
1040
3.294304244259308
1040
0.0
1040
21.97929957367762
1040
3.294304244259308
1040
0.0
1002
}
  0
INSERT
  5
2035C
  8
0
  2
*X261
 10
0.0
 20
0.0
 30
0.0
1001
ACAD
1000
HATCH
1002
{
1070
    19
1000
ANSI37
1040
0.15
1040
0.0
1000
R14_HATCH_DATA
1000
2035C
1011
1.0
1021
0.0
1031
0.0
1021
0.0
1031
0.0
1011
0.0
1021
1.0
1031
0.0
1021
1.0
1031
0.0
1011
0.0
1021
0.0
1031
1.0
1021
0.0
1031
1.0
1040
0.0
1010
0.0
1020
0.0
1030
1.0
1000
ANSI37
1070
     0
1070
     1
1071
        1
1071
        7
1070
     1
1070
     1
1071
       12
1040
31.64199999996833
1040
2.481619422925121
1040
0.2679491924310942
1040
32.94699999997067
1040
0.2212931190493919
1040
0.2679491924301353
1040
36.36699999995983
1040
0.2212931190459813
1040
0.2679491924321411
1040
37.67199999996831
1040
2.481619422928361
1040
0.0
1040
37.67199999996831
1040
8.763099999991255
1040
0.0
1040
36.23199999996837
1040
8.763099999991255
1040
0.0
1040
36.23199999996837
1040
2.481619422925064
1040
-0.2679491924310291
1040
35.64699999996708
1040
1.468369700498386
1040
-0.267949192430519
1040
33.66699999997093
1040
1.468369700497703
1040
-0.267949192431809
1040
33.08199999996839
1040
2.481619422926997
1040
0.0
1040
33.08199999996839
1040
8.763099999991255
1040
0.0
1040
31.64199999996833
1040
8.763099999991255
1040
0.0
1071
        0
1070
     0
1070
     1
1040
0.0
1040
0.15
1070
     0
1070
     2
1040
0.7853981633974483
1040
49.29960901727088
1040
-10.17736998311392
1040
-0.3367596045400932
1040
0.3367596045400932
1070
     0
1040
2.356194490192345
1040
49.29960901727088
1040
-10.17736998311392
1040
-0.3367596045400932
1040
-0.3367596045400932
1070
     0
1040
0.0110235143455945
1071
        1
1040
32.30357378967278
1040
3.988785755459219
1040
0.0
1002
}
  0
INSERT
  5
2035D
  8
0
  2
*X262
 10
0.0
 20
0.0
 30
0.0
1001
ACAD
1000
HATCH
1002
{
1070
    19
1000
ANSI37
1040
0.15
1040
0.0
1000
ASC_BOUNDS
1070
     1
1070
     2
1070
     8
1005
2033E
1005
20341
1005
20345
1005
20344
1005
20343
1005
20340
1005
20342
1005
2033F
1000
ASC_SEEDPOINT
1011
39.74896370716704
1021
4.484843821435049
1031
0.0
1021
4.484843821435049
1031
0.0
1000
R14_HATCH_DATA
1000
2035D
1011
1.0
1021
0.0
1031
0.0
1021
0.0
1031
0.0
1011
0.0
1021
1.0
1031
0.0
1021
1.0
1031
0.0
1011
0.0
1021
0.0
1031
1.0
1021
0.0
1031
1.0
1040
0.0
1010
0.0
1020
0.0
1030
1.0
1000
ANSI37
1070
     0
1070
     1
1071
        1
1071
        7
1070
     0
1070
     1
1071
        9
1040
40.02599999995994
1040
5.341799999994635
1040
44.99999999995498
1040
-0.2368999999997641
1040
44.99999999995498
1040
8.763099999991255
1040
43.57899999995641
1040
8.763099999991255
1040
43.57899999995641
1040
3.421199999996588
1040
38.60499999996136
1040
8.999899999990987
1040
38.60499999996136
1040
8.999999999991019
1040
38.60499999996136
1040
0.0
1040
40.02599999995994
1040
0.0
1071
        8
1005
2033E
1005
20341
1005
20345
1005
20344
1005
20343
1005
20340
1005
20342
1005
2033F
1070
     0
1070
     1
1040
0.0
1040
0.15
1070
     0
1070
     2
1040
0.7853981633974483
1040
49.29960901727088
1040
-10.17736998311392
1040
-0.3367596045400932
1040
0.3367596045400932
1070
     0
1040
2.356194490192345
1040
49.29960901727088
1040
-10.17736998311392
1040
-0.3367596045400932
1040
-0.3367596045400932
1070
     0
1040
0.0110235143455945
1071
        1
1040
39.74896370716704
1040
4.484843821435049
1040
0.0
1002
}
  0
INSERT
  5
2035E
  8
0
  2
*X263
 10
0.0
 20
0.0
 30
0.0
1001
ACAD
1000
HATCH
1002
{
1070
    19
1000
ANSI37
1040
0.15
1040
0.0
1000
ASC_BOUNDS
1070
     1
1070
     2
1070
     4
1005
20322
1005
20331
1005
20323
1005
20325
1000
ASC_SEEDPOINT
1011
1.079051535452663
1021
4.148538732891836
1031
0.0
1021
4.148538732891836
1031
0.0
1000
R14_HATCH_DATA
1000
2035E
1011
1.0
1021
0.0
1031
0.0
1021
0.0
1031
0.0
1011
0.0
1021
1.0
1031
0.0
1021
1.0
1031
0.0
1011
0.0
1021
0.0
1031
1.0
1021
0.0
1031
1.0
1040
0.0
1010
0.0
1020
0.0
1030
1.0
1000
ANSI37
1070
     0
1070
     1
1071
        1
1071
        7
1070
     0
1070
     1
1071
        4
1040
1.420999999998571
1040
0.0
1040
1.420999999998571
1040
8.763099999991255
1040
0.0
1040
8.763099999991255
1040
0.0
1040
0.0
1071
        4
1005
20322
1005
20331
1005
20323
1005
20325
1070
     0
1070
     1
1040
0.0
1040
0.15
1070
     0
1070
     2
1040
0.7853981633974483
1040
49.29960901727088
1040
-10.17736998311392
1040
-0.3367596045400932
1040
0.3367596045400932
1070
     0
1040
2.356194490192345
1040
49.29960901727088
1040
-10.17736998311392
1040
-0.3367596045400932
1040
-0.3367596045400932
1070
     0
1040
0.0053004257112761
1071
        1
1040
1.079051535452663
1040
4.148538732891836
1040
0.0
1002
}
  0
ENDBLK
  5
20A16
  8
0
  0
BLOCK
  8
0
  2
*X258
 70
     1
 10
0.0
 20
0.0
 30
0.0
  3
*X258
  1

  0
LINE
  5
26367
  8
0
  6
CONTINUOUS
 10
3.418023043697893
 20
7.251849696850613
 30
0.0
 11
4.929273346838536
 21
8.763099999991255
 31
0.0
  0
LINE
  5
26368
  8
0
  6
CONTINUOUS
 10
1.483656411257782
 20
4.643963855330318
 30
0.0
 11
5.60279255591872
 21
8.763099999991255
 31
0.0
  0
LINE
  5
26369
  8
0
  6
CONTINUOUS
 10
1.755053947328235
 20
4.241842182320584
 30
0.0
 11
6.276311764998907
 21
8.763099999991255
 31
0.0
  0
LINE
  5
2636A
  8
0
  6
CONTINUOUS
 10
2.026451483398688
 20
3.839720509310849
 30
0.0
 11
4.441040904851878
 21
6.254309930764039
 31
0.0
  0
LINE
  5
2636B
  8
0
  6
CONTINUOUS
 10
2.297849019469139
 20
3.437598836301114
 30
0.0
 11
3.321765168359338
 21
4.461514985191313
 31
0.0
  0
LINE
  5
2636C
  8
0
  6
CONTINUOUS
 10
2.569246555539591
 20
3.03547716329138
 30
0.0
 11
3.593163397972743
 21
4.059394005724531
 31
0.0
  0
LINE
  5
2636D
  8
0
  6
CONTINUOUS
 10
2.840644091610043
 20
2.633355490281646
 30
0.0
 11
3.864561627586149
 21
3.657273026257751
 31
0.0
  0
LINE
  5
2636E
  8
0
  6
CONTINUOUS
 10
3.112041627680496
 20
2.231233817271911
 30
0.0
 11
4.135959857199554
 21
3.25515204679097
 31
0.0
  0
LINE
  5
2636F
  8
0
  6
CONTINUOUS
 10
3.383439163750948
 20
1.829112144262177
 30
0.0
 11
4.40735808681296
 21
2.853031067324189
 31
0.0
  0
LINE
  5
26370
  8
0
  6
CONTINUOUS
 10
3.654836699821399
 20
1.426990471252442
 30
0.0
 11
4.678756316426365
 21
2.450910087857407
 31
0.0
  0
LINE
  5
26371
  8
0
  6
CONTINUOUS
 10
3.926234235891853
 20
1.024868798242709
 30
0.0
 11
4.95015454603977
 21
2.048789108390626
 31
0.0
  0
LINE
  5
26372
  8
0
  6
CONTINUOUS
 10
4.197631771962304
 20
0.6227471252329737
 30
0.0
 11
5.221552775653176
 21
1.646668128923846
 31
0.0
  0
LINE
  5
26373
  8
0
  6
CONTINUOUS
 10
8.715877546767851
 20
7.835069736359266
 30
0.0
 11
9.435953450375058
 21
8.555145639966472
 31
0.0
  0
LINE
  5
26374
  8
0
  6
CONTINUOUS
 10
8.170620868422267
 20
6.616293848933497
 30
0.0
 11
9.644120833743461
 21
8.08979381425469
 31
0.0
  0
LINE
  5
26375
  8
0
  6
CONTINUOUS
 10
7.625364190076684
 20
5.397517961507727
 30
0.0
 11
9.852288217111864
 21
7.624441988542907
 31
0.0
  0
LINE
  5
26376
  8
0
  6
CONTINUOUS
 10
7.080107511731101
 20
4.178742074081957
 30
0.0
 11
10.06045560048027
 21
7.159090162831124
 31
0.0
  0
LINE
  5
26377
  8
0
  6
CONTINUOUS
 10
6.534850833385518
 20
2.959966186656187
 30
0.0
 11
10.26862298384867
 21
6.693738337119342
 31
0.0
  0
LINE
  5
26378
  8
0
  6
CONTINUOUS
 10
4.469029308032756
 20
0.2206254522232385
 30
0.0
 11
5.492951005266582
 21
1.244547149457064
 31
0.0
  0
LINE
  5
26379
  8
0
  6
CONTINUOUS
 10
5.989594155039935
 20
1.741190299230417
 30
0.0
 11
8.806950407233131
 21
4.558546551423613
 31
0.0
  0
LINE
  5
2637A
  8
0
  6
CONTINUOUS
 10
9.401251593263643
 20
5.152847737454126
 30
0.0
 11
10.47679036721708
 21
6.228386511407559
 31
0.0
  0
LINE
  5
2637B
  8
0
  6
CONTINUOUS
 10
4.921837203428691
 20
-0.0000858614610131
 30
0.0
 11
8.592923064886001
 21
3.670999999996297
 31
0.0
  0
LINE
  5
2637C
  8
0
  6
CONTINUOUS
 10
9.609390446785305
 20
4.6874673818956
 30
0.0
 11
10.68495775058548
 21
5.763034685695775
 31
0.0
  0
LINE
  5
2637D
  8
0
  6
CONTINUOUS
 10
5.595387755019432
 20
-0.0000545189504582
 30
0.0
 11
7.716137258923768
 21
2.120694984953879
 31
0.0
  0
LINE
  5
2637E
  8
0
  6
CONTINUOUS
 10
6.268938306610172
 20
-0.000023176439905
 30
0.0
 11
7.170485805526503
 21
0.9015243224764267
 31
0.0
  0
LINE
  5
2637F
  8
0
  6
CONTINUOUS
 10
7.963842273967511
 20
2.368399999997621
 30
0.0
 11
9.266442273966188
 21
3.670999999996297
 31
0.0
  0
LINE
  5
26380
  8
0
  6
CONTINUOUS
 10
8.637361483047696
 20
2.368399999997621
 30
0.0
 11
9.939961483046375
 21
3.670999999996297
 31
0.0
  0
LINE
  5
26381
  8
0
  6
CONTINUOUS
 10
9.817529300306965
 20
4.222087026337075
 30
0.0
 11
10.89312513395388
 21
5.297682859983993
 31
0.0
  0
LINE
  5
26382
  8
0
  6
CONTINUOUS
 10
10.02566815382863
 20
3.756706670778549
 30
0.0
 11
11.10129251732229
 21
4.832331034272211
 31
0.0
  0
LINE
  5
26383
  8
0
  6
CONTINUOUS
 10
9.310880692127883
 20
2.368399999997621
 30
0.0
 11
11.30945990069069
 21
4.366979208560428
 31
0.0
  0
LINE
  5
26384
  8
0
  6
CONTINUOUS
 10
9.98439990120807
 20
2.36839999999762
 30
0.0
 11
11.5176272840591
 21
3.901627382848645
 31
0.0
  0
LINE
  5
26385
  8
0
  6
CONTINUOUS
 10
10.65037369446246
 20
2.36085458417182
 30
0.0
 11
11.7257946674275
 21
3.436275557136862
 31
0.0
  0
LINE
  5
26386
  8
0
  6
CONTINUOUS
 10
10.85847197087848
 20
1.895433651507656
 30
0.0
 11
11.9339620507959
 21
2.97092373142508
 31
0.0
  0
LINE
  5
26387
  8
0
  6
CONTINUOUS
 10
11.0665702472945
 20
1.430012718843491
 30
0.0
 11
12.14212943416431
 21
2.505571905713296
 31
0.0
  0
LINE
  5
26388
  8
0
  6
CONTINUOUS
 10
11.27466852371052
 20
0.9645917861793256
 30
0.0
 11
12.35029681753271
 21
2.040220080001513
 31
0.0
  0
LINE
  5
26389
  8
0
  6
CONTINUOUS
 10
11.48276680012654
 20
0.4991708535151611
 30
0.0
 11
12.55846420090111
 21
1.57486825428973
 31
0.0
  0
LINE
  5
2638A
  8
0
  6
CONTINUOUS
 10
11.69086507654257
 20
0.0337499208509957
 30
0.0
 11
12.76663158426952
 21
1.109516428577947
 31
0.0
  0
LINE
  5
2638B
  8
0
  6
CONTINUOUS
 10
12.33057447873954
 20
-0.0000598860322123
 30
0.0
 11
12.97479896763792
 21
0.6441646028661663
 31
0.0
  0
LINE
  5
2638C
  8
0
  6
CONTINUOUS
 10
13.00413694809395
 20
-0.0000166257579952
 30
0.0
 11
13.18296635100632
 21
0.1788127771543824
 31
0.0
  0
LINE
  5
2638D
  8
0
  6
CONTINUOUS
 10
4.772852165289667
 20
-0.000092794222212
 30
0.0
 11
4.296495091028902
 21
0.4762642800385528
 31
0.0
  0
LINE
  5
2638E
  8
0
  6
CONTINUOUS
 10
5.446340034776103
 20
-0.0000614546284616
 30
0.0
 11
2.898195908335625
 21
2.548082671812017
 31
0.0
  0
LINE
  5
2638F
  8
0
  6
CONTINUOUS
 10
6.119827904262539
 20
-0.0000301150347113
 30
0.0
 11
1.499896725642348
 21
4.61990106358548
 31
0.0
  0
LINE
  5
26390
  8
0
  6
CONTINUOUS
 10
6.775136745476159
 20
0.0181802528318542
 30
0.0
 11
5.699826040202669
 21
1.093490958105344
 31
0.0
  0
LINE
  5
26391
  8
0
  6
CONTINUOUS
 10
6.983376846288489
 20
0.4834593610997118
 30
0.0
 11
5.908008617934405
 21
1.558827589453796
 31
0.0
  0
LINE
  5
26392
  8
0
  6
CONTINUOUS
 10
5.377063484962296
 20
1.416253513345719
 30
0.0
 11
1.702276957014131
 21
5.091040041293883
 31
0.0
  0
LINE
  5
26393
  8
0
  6
CONTINUOUS
 10
3.978745891735324
 20
3.488090315652877
 30
0.0
 11
2.000373521109399
 21
5.466462686278803
 31
0.0
  0
LINE
  5
26394
  8
0
  6
CONTINUOUS
 10
7.191616947100819
 20
0.948738469367568
 30
0.0
 11
6.11619119566614
 21
2.024164220802247
 31
0.0
  0
LINE
  5
26395
  8
0
  6
CONTINUOUS
 10
7.399857047913149
 20
1.414017577635424
 30
0.0
 11
6.324373773397875
 21
2.489500852150698
 31
0.0
  0
LINE
  5
26396
  8
0
  6
CONTINUOUS
 10
7.608097148725479
 20
1.879296685903281
 30
0.0
 11
6.53255635112961
 21
2.95483748349915
 31
0.0
  0
LINE
  5
26397
  8
0
  6
CONTINUOUS
 10
7.816337249537808
 20
2.344575794171138
 30
0.0
 11
6.740738928861345
 21
3.420174114847601
 31
0.0
  0
LINE
  5
26398
  8
0
  6
CONTINUOUS
 10
3.310241080789734
 20
4.830114335678653
 30
0.0
 11
2.298470085204666
 21
5.84188533126372
 31
0.0
  0
LINE
  5
26399
  8
0
  6
CONTINUOUS
 10
3.60832983563551
 20
5.205544789913063
 30
0.0
 11
2.596566649299935
 21
6.217307976248638
 31
0.0
  0
LINE
  5
2639A
  8
0
  6
CONTINUOUS
 10
3.906418590481286
 20
5.580975244147473
 30
0.0
 11
2.894663213395203
 21
6.592730621233557
 31
0.0
  0
LINE
  5
2639B
  8
0
  6
CONTINUOUS
 10
4.204507345327062
 20
5.956405698381884
 30
0.0
 11
3.192759777490472
 21
6.968153266218474
 31
0.0
  0
LINE
  5
2639C
  8
0
  6
CONTINUOUS
 10
8.466032252791512
 20
2.368399999997621
 30
0.0
 11
6.948921506593081
 21
3.885510746196053
 31
0.0
  0
LINE
  5
2639D
  8
0
  6
CONTINUOUS
 10
9.139551461871699
 20
2.36839999999762
 30
0.0
 11
7.157104084324816
 21
4.350847377544504
 31
0.0
  0
LINE
  5
2639E
  8
0
  6
CONTINUOUS
 10
4.502596100172839
 20
6.331836152616295
 30
0.0
 11
3.49085634158574
 21
7.343575911203393
 31
0.0
  0
LINE
  5
2639F
  8
0
  6
CONTINUOUS
 10
4.800684855018615
 20
6.707266606850705
 30
0.0
 11
3.788952905681008
 21
7.718998556188312
 31
0.0
  0
LINE
  5
263A0
  8
0
  6
CONTINUOUS
 10
12.18154012887317
 20
-0.0000694579236642
 30
0.0
 11
11.32140332908496
 21
0.8600673418645499
 31
0.0
  0
LINE
  5
263A1
  8
0
  6
CONTINUOUS
 10
12.85501608323566
 20
-0.0000262032059659
 30
0.0
 11
10.77672456435345
 21
2.078265315676246
 31
0.0
  0
LINE
  5
263A2
  8
0
  6
CONTINUOUS
 10
9.813070670951886
 20
2.36839999999762
 30
0.0
 11
8.51047067095321
 21
3.670999999996297
 31
0.0
  0
LINE
  5
263A3
  8
0
  6
CONTINUOUS
 10
10.48658988003207
 20
2.36839999999762
 30
0.0
 11
9.183989880033396
 21
3.670999999996297
 31
0.0
  0
LINE
  5
263A4
  8
0
  6
CONTINUOUS
 10
8.441048632286794
 20
3.740422038662712
 30
0.0
 11
7.365286662056551
 21
4.816184008892956
 31
0.0
  0
LINE
  5
263A5
  8
0
  6
CONTINUOUS
 10
8.649187485808454
 20
4.205802394221237
 30
0.0
 11
7.573469239788285
 21
5.281520640241407
 31
0.0
  0
LINE
  5
263A6
  8
0
  6
CONTINUOUS
 10
5.098773609864391
 20
7.082697061085115
 30
0.0
 11
4.087049469776277
 21
8.09442120117323
 31
0.0
  0
LINE
  5
263A7
  8
0
  6
CONTINUOUS
 10
5.396862364710167
 20
7.458127515319526
 30
0.0
 11
4.385146033871544
 21
8.469843846158149
 31
0.0
  0
LINE
  5
263A8
  8
0
  6
CONTINUOUS
 10
13.04801363231285
 20
0.4804954567970334
 30
0.0
 11
9.85750908911358
 21
3.670999999996297
 31
0.0
  0
LINE
  5
263A9
  8
0
  6
CONTINUOUS
 10
8.857326339330116
 20
4.671182749779763
 30
0.0
 11
7.781651817520021
 21
5.746857271589858
 31
0.0
  0
LINE
  5
263AA
  8
0
  6
CONTINUOUS
 10
5.694951119555943
 20
7.833557969553937
 30
0.0
 11
4.765409089118624
 21
8.763099999991255
 31
0.0
  0
LINE
  5
263AB
  8
0
  6
CONTINUOUS
 10
12.50286117236978
 20
1.699167125820288
 30
0.0
 11
9.68611877250287
 21
4.515909525687196
 31
0.0
  0
LINE
  5
263AC
  8
0
  6
CONTINUOUS
 10
9.065465192851777
 20
5.136563105338288
 30
0.0
 11
7.989834395251757
 21
6.21219390293831
 31
0.0
  0
LINE
  5
263AD
  8
0
  6
CONTINUOUS
 10
5.993039874401719
 20
8.208988423788346
 30
0.0
 11
5.43892829819881
 21
8.763099999991255
 31
0.0
  0
LINE
  5
263AE
  8
0
  6
CONTINUOUS
 10
11.95770871242671
 20
2.917838794843543
 30
0.0
 11
8.19801697298349
 21
6.677530534286761
 31
0.0
  0
LINE
  5
263AF
  8
0
  6
CONTINUOUS
 10
6.291128629247495
 20
8.584418878022756
 30
0.0
 11
6.112447507278997
 21
8.763099999991255
 31
0.0
  0
LINE
  5
263B0
  8
0
  6
CONTINUOUS
 10
11.41255625248364
 20
4.136510463866797
 30
0.0
 11
8.406199550715227
 21
7.142867165635211
 31
0.0
  0
LINE
  5
263B1
  8
0
  6
CONTINUOUS
 10
10.86740379254057
 20
5.355182132890051
 30
0.0
 11
8.614382128446962
 21
7.608203796983664
 31
0.0
  0
LINE
  5
263B2
  8
0
  6
CONTINUOUS
 10
10.3222513325975
 20
6.573853801913305
 30
0.0
 11
8.822564706178696
 21
8.073540428332114
 31
0.0
  0
LINE
  5
263B3
  8
0
  6
CONTINUOUS
 10
9.777098872654436
 20
7.792525470936562
 30
0.0
 11
9.030747283910433
 21
8.538877059680566
 31
0.0
  0
ENDBLK
  5
264F5
  8
0
  0
BLOCK
  8
0
  2
*X259
 70
     1
 10
0.0
 20
0.0
 30
0.0
  3
*X259
  1

  0
LINE
  5
263B5
  8
0
  6
CONTINUOUS
 10
10.67292308101235
 20
8.445076852443387
 30
0.0
 11
10.99094622856022
 21
8.763099999991255
 31
0.0
  0
LINE
  5
263B6
  8
0
  6
CONTINUOUS
 10
10.87250383178748
 20
7.971138394138331
 30
0.0
 11
11.6644654376404
 21
8.763099999991255
 31
0.0
  0
LINE
  5
263B7
  8
0
  6
CONTINUOUS
 10
11.07208458256261
 20
7.497199935833273
 30
0.0
 11
12.12126590876355
 21
8.546381262034211
 31
0.0
  0
LINE
  5
263B8
  8
0
  6
CONTINUOUS
 10
11.27166533333774
 20
7.023261477528216
 30
0.0
 11
12.32085164573666
 21
8.072447789927136
 31
0.0
  0
LINE
  5
263B9
  8
0
  6
CONTINUOUS
 10
11.47124608411287
 20
6.549323019223158
 30
0.0
 11
12.52043738270977
 21
7.59851431782006
 31
0.0
  0
LINE
  5
263BA
  8
0
  6
CONTINUOUS
 10
11.670826834888
 20
6.075384560918101
 30
0.0
 11
12.72002311968288
 21
7.124580845712984
 31
0.0
  0
LINE
  5
263BB
  8
0
  6
CONTINUOUS
 10
11.87040758566313
 20
5.601446102613043
 30
0.0
 11
12.91960885665599
 21
6.650647373605907
 31
0.0
  0
LINE
  5
263BC
  8
0
  6
CONTINUOUS
 10
12.06998833643825
 20
5.127507644307986
 30
0.0
 11
13.1191945936291
 21
6.176713901498832
 31
0.0
  0
LINE
  5
263BD
  8
0
  6
CONTINUOUS
 10
12.26956908721338
 20
4.65356918600293
 30
0.0
 11
13.31878033060221
 21
5.702780429391757
 31
0.0
  0
LINE
  5
263BE
  8
0
  6
CONTINUOUS
 10
12.46914983798851
 20
4.179630727697873
 30
0.0
 11
13.51836606757532
 21
5.228846957284683
 31
0.0
  0
LINE
  5
263BF
  8
0
  6
CONTINUOUS
 10
12.66873058876364
 20
3.705692269392816
 30
0.0
 11
13.71795180454843
 21
4.754913485177607
 31
0.0
  0
LINE
  5
263C0
  8
0
  6
CONTINUOUS
 10
12.86831133953877
 20
3.231753811087759
 30
0.0
 11
13.91753754152154
 21
4.280980013070531
 31
0.0
  0
LINE
  5
263C1
  8
0
  6
CONTINUOUS
 10
13.0678920903139
 20
2.757815352782702
 30
0.0
 11
14.11712327849465
 21
3.807046540963456
 31
0.0
  0
LINE
  5
263C2
  8
0
  6
CONTINUOUS
 10
13.26747284108903
 20
2.283876894477644
 30
0.0
 11
14.31670901546777
 21
3.333113068856379
 31
0.0
  0
LINE
  5
263C3
  8
0
  6
CONTINUOUS
 10
16.36767838827179
 20
8.751678487061342
 30
0.0
 11
16.50332410898388
 21
8.887324207773432
 31
0.0
  0
LINE
  5
263C4
  8
0
  6
CONTINUOUS
 10
15.96190732182191
 20
7.67238821153127
 30
0.0
 11
16.68735328004734
 21
8.397834169756699
 31
0.0
  0
LINE
  5
263C5
  8
0
  6
CONTINUOUS
 10
15.55613625537202
 20
6.593097936001196
 30
0.0
 11
16.87138245111079
 21
7.908344131739965
 31
0.0
  0
LINE
  5
263C6
  8
0
  6
CONTINUOUS
 10
15.15036518892213
 20
5.513807660471122
 30
0.0
 11
17.05541162217424
 21
7.418854093723231
 31
0.0
  0
LINE
  5
263C7
  8
0
  6
CONTINUOUS
 10
14.74459412247225
 20
4.434517384941048
 30
0.0
 11
17.2394407932377
 21
6.929364055706499
 31
0.0
  0
LINE
  5
263C8
  8
0
  6
CONTINUOUS
 10
14.33882305602236
 20
3.355227109410975
 30
0.0
 11
17.42346996430115
 21
6.439874017689766
 31
0.0
  0
LINE
  5
263C9
  8
0
  6
CONTINUOUS
 10
13.46705359186416
 20
1.809938436172586
 30
0.0
 11
16.0819338255367
 21
4.424818669845129
 31
0.0
  0
LINE
  5
263CA
  8
0
  6
CONTINUOUS
 10
16.63283254238972
 20
4.975717386698149
 30
0.0
 11
17.60749913536461
 21
5.950383979673033
 31
0.0
  0
LINE
  5
263CB
  8
0
  6
CONTINUOUS
 10
13.66663434263929
 20
1.335999977867529
 30
0.0
 11
15.67604797733754
 21
3.345413612565779
 31
0.0
  0
LINE
  5
263CC
  8
0
  6
CONTINUOUS
 10
13.86621509341442
 20
0.8620615195624723
 30
0.0
 11
15.27016212913838
 21
2.26600855528643
 31
0.0
  0
LINE
  5
263CD
  8
0
  6
CONTINUOUS
 10
16.81682257348267
 20
4.486188208710908
 30
0.0
 11
17.79152830642806
 21
5.460893941656299
 31
0.0
  0
LINE
  5
263CE
  8
0
  6
CONTINUOUS
 10
17.00081260457561
 20
3.996659030723667
 30
0.0
 11
17.97555747749151
 21
4.971403903639565
 31
0.0
  0
LINE
  5
263CF
  8
0
  6
CONTINUOUS
 10
20.74362343514722
 20
8.412989070375462
 30
0.0
 11
21.09373436476302
 21
8.763099999991256
 31
0.0
  0
LINE
  5
263D0
  8
0
  6
CONTINUOUS
 10
20.25401257174777
 20
7.249858997895826
 30
0.0
 11
21.7672535738432
 21
8.763099999991255
 31
0.0
  0
LINE
  5
263D1
  8
0
  6
CONTINUOUS
 10
14.06579584418955
 20
0.3881230612574149
 30
0.0
 11
14.86427628093921
 21
1.186603498007082
 31
0.0
  0
LINE
  5
263D2
  8
0
  6
CONTINUOUS
 10
14.26537659496467
 20
-0.0858153970476412
 30
0.0
 11
14.45839043274005
 21
0.1071984407277329
 31
0.0
  0
LINE
  5
263D3
  8
0
  6
CONTINUOUS
 10
17.18480263566856
 20
3.507129852736426
 30
0.0
 11
18.15958664855496
 21
4.481913865622833
 31
0.0
  0
LINE
  5
263D4
  8
0
  6
CONTINUOUS
 10
17.3687926667615
 20
3.017600674749186
 30
0.0
 11
18.34361581961842
 21
3.9924238276061
 31
0.0
  0
LINE
  5
263D5
  8
0
  6
CONTINUOUS
 10
19.76440170834832
 20
6.086728925416191
 30
0.0
 11
22.33924590259489
 21
8.661573119662755
 31
0.0
  0
LINE
  5
263D6
  8
0
  6
CONTINUOUS
 10
19.27479084494887
 20
4.923598852936555
 30
0.0
 11
21.84929622842713
 21
7.498104236414807
 31
0.0
  0
LINE
  5
263D7
  8
0
  6
CONTINUOUS
 10
17.55278269785445
 20
2.528071496761945
 30
0.0
 11
18.52764499068187
 21
3.502933789589366
 31
0.0
  0
LINE
  5
263D8
  8
0
  6
CONTINUOUS
 10
18.78517998154942
 20
3.760468780456919
 30
0.0
 11
21.35934655425936
 21
6.33463535316686
 31
0.0
  0
LINE
  5
263D9
  8
0
  6
CONTINUOUS
 10
17.73677272894739
 20
2.038542318774704
 30
0.0
 11
20.8693968800916
 21
5.171166469918914
 31
0.0
  0
LINE
  5
263DA
  8
0
  6
CONTINUOUS
 10
17.92076276004034
 20
1.549013140787464
 30
0.0
 11
20.37944720592384
 21
4.007697586670968
 31
0.0
  0
LINE
  5
263DB
  8
0
  6
CONTINUOUS
 10
18.10475279113329
 20
1.059483962800223
 30
0.0
 11
19.88949753175608
 21
2.84422870342302
 31
0.0
  0
LINE
  5
263DC
  8
0
  6
CONTINUOUS
 10
18.28874282222623
 20
0.5699547848129822
 30
0.0
 11
19.39954785758832
 21
1.680759820175074
 31
0.0
  0
LINE
  5
263DD
  8
0
  6
CONTINUOUS
 10
18.47273285331918
 20
0.0804256068257416
 30
0.0
 11
18.90959818342056
 21
0.517290936927127
 31
0.0
  0
LINE
  5
263DE
  8
0
  6
CONTINUOUS
 10
14.3590401358224
 20
-0.1570118376323384
 30
0.0
 11
14.24903296539946
 21
-0.0470046672093929
 31
0.0
  0
LINE
  5
263DF
  8
0
  6
CONTINUOUS
 10
14.54309291258661
 20
0.332454594683643
 30
0.0
 11
13.75908329123172
 21
1.116464216038529
 31
0.0
  0
LINE
  5
263E0
  8
0
  6
CONTINUOUS
 10
14.72714568935081
 20
0.8219210269996244
 30
0.0
 11
13.26913361706399
 21
2.27993309928645
 31
0.0
  0
LINE
  5
263E1
  8
0
  6
CONTINUOUS
 10
14.91119846611502
 20
1.311387459315606
 30
0.0
 11
12.77918394289625
 21
3.443401982534371
 31
0.0
  0
LINE
  5
263E2
  8
0
  6
CONTINUOUS
 10
15.09525124287922
 20
1.800853891631587
 30
0.0
 11
12.28923426872852
 21
4.606870865782293
 31
0.0
  0
LINE
  5
263E3
  8
0
  6
CONTINUOUS
 10
15.27930401964343
 20
2.290320323947569
 30
0.0
 11
11.79928459456078
 21
5.770339749030213
 31
0.0
  0
LINE
  5
263E4
  8
0
  6
CONTINUOUS
 10
15.46335679640763
 20
2.77978675626355
 30
0.0
 11
14.48885470994921
 21
3.754288842721972
 31
0.0
  0
LINE
  5
263E5
  8
0
  6
CONTINUOUS
 10
13.88507249233704
 20
4.358071060334137
 30
0.0
 11
11.30933492039305
 21
6.933808632278135
 31
0.0
  0
LINE
  5
263E6
  8
0
  6
CONTINUOUS
 10
18.75840522805855
 20
0.1582575336928151
 30
0.0
 11
18.25383727664818
 21
0.6628254851031863
 31
0.0
  0
LINE
  5
263E7
  8
0
  6
CONTINUOUS
 10
15.64740957317184
 20
3.269253188579531
 30
0.0
 11
14.67288388101266
 21
4.243778880738705
 31
0.0
  0
LINE
  5
263E8
  8
0
  6
CONTINUOUS
 10
13.39509276772158
 20
5.521569994029786
 30
0.0
 11
10.81938524622531
 21
8.097277515526056
 31
0.0
  0
LINE
  5
263E9
  8
0
  6
CONTINUOUS
 10
18.95798597883369
 20
0.6321959919978686
 30
0.0
 11
17.84825644852853
 21
1.741925522303024
 31
0.0
  0
LINE
  5
263EA
  8
0
  6
CONTINUOUS
 10
19.15756672960882
 20
1.106134450302922
 30
0.0
 11
17.44267562040888
 21
2.821025559502861
 31
0.0
  0
LINE
  5
263EB
  8
0
  6
CONTINUOUS
 10
15.83146234993604
 20
3.758719620895513
 30
0.0
 11
14.85691305207612
 21
4.733268918755439
 31
0.0
  0
LINE
  5
263EC
  8
0
  6
CONTINUOUS
 10
16.01551512670025
 20
4.248186053211494
 30
0.0
 11
15.04094222313957
 21
5.222758956772172
 31
0.0
  0
LINE
  5
263ED
  8
0
  6
CONTINUOUS
 10
12.90511304310612
 20
6.685068927725435
 30
0.0
 11
10.8270819708403
 21
8.763099999991255
 31
0.0
  0
LINE
  5
263EE
  8
0
  6
CONTINUOUS
 10
12.41513331849066
 20
7.848567861421083
 30
0.0
 11
11.50060117992049
 21
8.763099999991255
 31
0.0
  0
LINE
  5
263EF
  8
0
  6
CONTINUOUS
 10
19.35714748038395
 20
1.580072908607975
 30
0.0
 11
17.03709479228923
 21
3.900125596702697
 31
0.0
  0
LINE
  5
263F0
  8
0
  6
CONTINUOUS
 10
19.55672823115909
 20
2.054011366913028
 30
0.0
 11
16.63151396416958
 21
4.979225633902534
 31
0.0
  0
LINE
  5
263F1
  8
0
  6
CONTINUOUS
 10
16.19956790346445
 20
4.737652485527476
 30
0.0
 11
15.22497139420302
 21
5.712248994788904
 31
0.0
  0
LINE
  5
263F2
  8
0
  6
CONTINUOUS
 10
16.38362068022866
 20
5.227118917843457
 30
0.0
 11
15.40900056526648
 21
6.201739032805637
 31
0.0
  0
LINE
  5
263F3
  8
0
  6
CONTINUOUS
 10
19.75630898193422
 20
2.527949825218081
 30
0.0
 11
18.70774536448286
 21
3.576513442669441
 31
0.0
  0
LINE
  5
263F4
  8
0
  6
CONTINUOUS
 10
19.95588973270936
 20
3.001888283523134
 30
0.0
 11
18.90726987211446
 21
4.050508144118028
 31
0.0
  0
LINE
  5
263F5
  8
0
  6
CONTINUOUS
 10
20.15547048348449
 20
3.475826741828186
 30
0.0
 11
19.10679437974606
 21
4.524502845566614
 31
0.0
  0
LINE
  5
263F6
  8
0
  6
CONTINUOUS
 10
20.35505123425962
 20
3.94976520013324
 30
0.0
 11
19.30631888737766
 21
4.998497547015201
 31
0.0
  0
LINE
  5
263F7
  8
0
  6
CONTINUOUS
 10
20.55463198503475
 20
4.423703658438292
 30
0.0
 11
19.50584339500926
 21
5.472492248463787
 31
0.0
  0
LINE
  5
263F8
  8
0
  6
CONTINUOUS
 10
18.37481191085755
 20
3.909446896294752
 30
0.0
 11
15.59302973632993
 21
6.691229070822371
 31
0.0
  0
LINE
  5
263F9
  8
0
  6
CONTINUOUS
 10
17.96904084440766
 20
4.988737171824825
 30
0.0
 11
15.77705890739338
 21
7.180719108839104
 31
0.0
  0
LINE
  5
263FA
  8
0
  6
CONTINUOUS
 10
17.56326977795777
 20
6.068027447354899
 30
0.0
 11
15.96108807845684
 21
7.670209146855838
 31
0.0
  0
LINE
  5
263FB
  8
0
  6
CONTINUOUS
 10
17.15749871150789
 20
7.147317722884972
 30
0.0
 11
16.14511724952029
 21
8.15969918487257
 31
0.0
  0
LINE
  5
263FC
  8
0
  6
CONTINUOUS
 10
16.751727645058
 20
8.226607998415046
 30
0.0
 11
16.32914642058374
 21
8.649189222889303
 31
0.0
  0
LINE
  5
263FD
  8
0
  6
CONTINUOUS
 10
20.75421273580989
 20
4.897642116743345
 30
0.0
 11
19.70536790264086
 21
5.946486949912374
 31
0.0
  0
LINE
  5
263FE
  8
0
  6
CONTINUOUS
 10
20.95379348658502
 20
5.371580575048398
 30
0.0
 11
19.90489241027246
 21
6.42048165136096
 31
0.0
  0
LINE
  5
263FF
  8
0
  6
CONTINUOUS
 10
21.15337423736015
 20
5.845519033353452
 30
0.0
 11
20.10441691790406
 21
6.894476352809547
 31
0.0
  0
LINE
  5
26400
  8
0
  6
CONTINUOUS
 10
21.35295498813529
 20
6.319457491658505
 30
0.0
 11
20.30394142553566
 21
7.368471054258134
 31
0.0
  0
LINE
  5
26401
  8
0
  6
CONTINUOUS
 10
21.55253573891042
 20
6.793395949963558
 30
0.0
 11
20.50346593316726
 21
7.842465755706721
 31
0.0
  0
LINE
  5
26402
  8
0
  6
CONTINUOUS
 10
21.75211648968556
 20
7.267334408268612
 30
0.0
 11
20.70299044079886
 21
8.316460457155308
 31
0.0
  0
LINE
  5
26403
  8
0
  6
CONTINUOUS
 10
21.95169724046069
 20
7.741272866573663
 30
0.0
 11
20.9298701070431
 21
8.763099999991256
 31
0.0
  0
LINE
  5
26404
  8
0
  6
CONTINUOUS
 10
22.15127799123582
 20
8.215211324878716
 30
0.0
 11
21.60338931612328
 21
8.763099999991256
 31
0.0
  0
LINE
  5
26405
  8
0
  6
CONTINUOUS
 10
22.35085874201096
 20
8.689149783183769
 30
0.0
 11
22.27690852520347
 21
8.763099999991255
 31
0.0
  0
ENDBLK
  5
264F7
  8
0
  0
BLOCK
  8
0
  2
*X260
 70
     1
 10
0.0
 20
0.0
 30
0.0
  3
*X260
  1

  0
LINE
  5
26407
  8
0
  6
CONTINUOUS
 10
23.19462913593892
 20
8.169917934846424
 30
0.0
 11
23.70775465517246
 21
8.683043454079957
 31
0.0
  0
LINE
  5
26408
  8
0
  6
CONTINUOUS
 10
22.64923161835078
 20
6.951001208178088
 30
0.0
 11
23.9159364069932
 21
8.217705996820516
 31
0.0
  0
LINE
  5
26409
  8
0
  6
CONTINUOUS
 10
22.10383410076263
 20
5.732084481509751
 30
0.0
 11
24.12411815881395
 21
7.752368539561078
 31
0.0
  0
LINE
  5
2640A
  8
0
  6
CONTINUOUS
 10
21.55843658317447
 20
4.513167754841414
 30
0.0
 11
24.3322999106347
 21
7.287031082301639
 31
0.0
  0
LINE
  5
2640B
  8
0
  6
CONTINUOUS
 10
21.01303906558632
 20
3.294251028173077
 30
0.0
 11
24.54048166245544
 21
6.821693625042199
 31
0.0
  0
LINE
  5
2640C
  8
0
  6
CONTINUOUS
 10
20.46764154799817
 20
2.075334301504738
 30
0.0
 11
23.28571549467848
 21
4.89340824818505
 31
0.0
  0
LINE
  5
2640D
  8
0
  6
CONTINUOUS
 10
19.92224403041002
 20
0.8564175748364002
 30
0.0
 11
22.74075865492779
 21
3.674932199354171
 31
0.0
  0
LINE
  5
2640E
  8
0
  6
CONTINUOUS
 10
23.67305085490148
 20
5.280743608408048
 30
0.0
 11
24.74866341427619
 21
6.356356167782759
 31
0.0
  0
LINE
  5
2640F
  8
0
  6
CONTINUOUS
 10
23.88118970842314
 20
4.815363252849522
 30
0.0
 11
24.95684516609694
 21
5.89101871052332
 31
0.0
  0
LINE
  5
26410
  8
0
  6
CONTINUOUS
 10
19.73925852647308
 20
-0.0000871381807288
 30
0.0
 11
23.4103456646501
 21
3.670999999996297
 31
0.0
  0
LINE
  5
26411
  8
0
  6
CONTINUOUS
 10
24.0893285619448
 20
4.349982897290997
 30
0.0
 11
25.16502691791769
 21
5.42568125326388
 31
0.0
  0
LINE
  5
26412
  8
0
  6
CONTINUOUS
 10
20.41282099582748
 20
-0.0000438779065108
 30
0.0
 11
21.64944178675636
 21
1.236576913022366
 31
0.0
  0
LINE
  5
26413
  8
0
  6
CONTINUOUS
 10
22.78126487373161
 20
2.36839999999762
 30
0.0
 11
24.08386487373029
 21
3.670999999996297
 31
0.0
  0
LINE
  5
26414
  8
0
  6
CONTINUOUS
 10
24.29746741546646
 20
3.884602541732471
 30
0.0
 11
25.37320866973843
 21
4.960343796004441
 31
0.0
  0
LINE
  5
26415
  8
0
  6
CONTINUOUS
 10
21.08638346518189
 20
-0.0000006176322938
 30
0.0
 11
21.10379033335899
 21
0.0174062505448083
 31
0.0
  0
LINE
  5
26416
  8
0
  6
CONTINUOUS
 10
23.4547840828118
 20
2.36839999999762
 30
0.0
 11
25.58139042155918
 21
4.495006338745002
 31
0.0
  0
LINE
  5
26417
  8
0
  6
CONTINUOUS
 10
29.30199999996933
 20
8.215615917155148
 30
0.0
 11
29.84948408280543
 21
8.763099999991255
 31
0.0
  0
LINE
  5
26418
  8
0
  6
CONTINUOUS
 10
24.12830329189199
 20
2.36839999999762
 30
0.0
 11
25.78957217337993
 21
4.029668881485562
 31
0.0
  0
LINE
  5
26419
  8
0
  6
CONTINUOUS
 10
29.30199999996933
 20
7.54209670807496
 30
0.0
 11
30.52300329188562
 21
8.763099999991255
 31
0.0
  0
LINE
  5
2641A
  8
0
  6
CONTINUOUS
 10
24.80182250097217
 20
2.36839999999762
 30
0.0
 11
25.99775392520067
 21
3.564331424226122
 31
0.0
  0
LINE
  5
2641B
  8
0
  6
CONTINUOUS
 10
29.30199999996933
 20
6.868577498994774
 30
0.0
 11
30.74199999996926
 21
8.308577498994712
 31
0.0
  0
LINE
  5
2641C
  8
0
  6
CONTINUOUS
 10
25.13028238392013
 20
2.023340673865392
 30
0.0
 11
26.20593567702142
 21
3.098993966966683
 31
0.0
  0
LINE
  5
2641D
  8
0
  6
CONTINUOUS
 10
25.33838066033617
 20
1.557919741201244
 30
0.0
 11
26.41411742884217
 21
2.633656509707244
 31
0.0
  0
LINE
  5
2641E
  8
0
  6
CONTINUOUS
 10
25.54647893675221
 20
1.092498808537098
 30
0.0
 11
26.62229918066291
 21
2.168319052447804
 31
0.0
  0
LINE
  5
2641F
  8
0
  6
CONTINUOUS
 10
25.75457721316825
 20
0.62707787587295
 30
0.0
 11
26.83048093248366
 21
1.702981595188365
 31
0.0
  0
LINE
  5
26420
  8
0
  6
CONTINUOUS
 10
29.30199999996933
 20
6.195058289914587
 30
0.0
 11
30.74199999996926
 21
7.635058289914522
 31
0.0
  0
LINE
  5
26421
  8
0
  6
CONTINUOUS
 10
29.30199999996933
 20
5.521539080834401
 30
0.0
 11
30.74199999996926
 21
6.961539080834331
 31
0.0
  0
LINE
  5
26422
  8
0
  6
CONTINUOUS
 10
29.30199999996933
 20
4.848019871754214
 30
0.0
 11
30.74199999996925
 21
6.288019871754143
 31
0.0
  0
LINE
  5
26423
  8
0
  6
CONTINUOUS
 10
29.30199999996933
 20
4.174500662674028
 30
0.0
 11
30.74199999996925
 21
5.614500662673953
 31
0.0
  0
LINE
  5
26424
  8
0
  6
CONTINUOUS
 10
25.96267548958429
 20
0.1616569432088024
 30
0.0
 11
27.18411854636669
 21
1.383099999991207
 31
0.0
  0
LINE
  5
26425
  8
0
  6
CONTINUOUS
 10
29.30199999996933
 20
3.500981453593841
 30
0.0
 11
30.74199999996925
 21
4.940981453593762
 31
0.0
  0
LINE
  5
26426
  8
0
  6
CONTINUOUS
 10
26.50763775544691
 20
0.0330999999912356
 30
0.0
 11
27.85763775544689
 21
1.383099999991223
 31
0.0
  0
LINE
  5
26427
  8
0
  6
CONTINUOUS
 10
29.30199999996933
 20
2.827462244513656
 30
0.0
 11
30.74199999996925
 21
4.267462244513574
 31
0.0
  0
LINE
  5
26428
  8
0
  6
CONTINUOUS
 10
27.18115696452709
 20
0.0330999999912356
 30
0.0
 11
28.55073879889363
 21
1.402681834357775
 31
0.0
  0
LINE
  5
26429
  8
0
  6
CONTINUOUS
 10
29.28241816560272
 20
2.134361201066866
 30
0.0
 11
30.74199999996924
 21
3.593943035433383
 31
0.0
  0
LINE
  5
2642A
  8
0
  6
CONTINUOUS
 10
27.85467617360728
 20
0.0330999999912356
 30
0.0
 11
30.74199999996924
 21
2.920423826353195
 31
0.0
  0
LINE
  5
2642B
  8
0
  6
CONTINUOUS
 10
28.53897559587887
 20
0.0438802131826428
 30
0.0
 11
30.73121978677781
 21
2.236124404081585
 31
0.0
  0
LINE
  5
2642C
  8
0
  6
CONTINUOUS
 10
29.45140055588722
 20
0.2827859641107988
 30
0.0
 11
30.49231403584965
 21
1.323699444073236
 31
0.0
  0
LINE
  5
2642D
  8
0
  6
CONTINUOUS
 10
19.59027867740337
 20
-0.0000967065718083
 30
0.0
 11
19.55485265190471
 21
0.035329318926844
 31
0.0
  0
LINE
  5
2642E
  8
0
  6
CONTINUOUS
 10
20.26375463176586
 20
-0.0000534518541091
 30
0.0
 11
19.76305575737534
 21
0.5006454225364014
 31
0.0
  0
LINE
  5
2642F
  8
0
  6
CONTINUOUS
 10
20.93723058612834
 20
-0.0000101971364099
 30
0.0
 11
19.97125886284597
 21
0.965961526145958
 31
0.0
  0
LINE
  5
26430
  8
0
  6
CONTINUOUS
 10
21.25514828313686
 20
0.355591314935257
 30
0.0
 11
20.1794619683166
 21
1.431277629755512
 31
0.0
  0
LINE
  5
26431
  8
0
  6
CONTINUOUS
 10
21.46338838394921
 20
0.8208704232030986
 30
0.0
 11
20.38766507378723
 21
1.896593733365069
 31
0.0
  0
LINE
  5
26432
  8
0
  6
CONTINUOUS
 10
21.67162848476155
 20
1.28614953147094
 30
0.0
 11
20.59586817925786
 21
2.361909836974626
 31
0.0
  0
LINE
  5
26433
  8
0
  6
CONTINUOUS
 10
21.8798685855739
 20
1.751428639738782
 30
0.0
 11
20.80407128472849
 21
2.827225940584183
 31
0.0
  0
LINE
  5
26434
  8
0
  6
CONTINUOUS
 10
22.08810868638624
 20
2.216707748006623
 30
0.0
 11
21.01227439019912
 21
3.292542044193739
 31
0.0
  0
LINE
  5
26435
  8
0
  6
CONTINUOUS
 10
22.60993564347543
 20
2.36839999999762
 30
0.0
 11
21.22047749566975
 21
3.757858147803296
 31
0.0
  0
LINE
  5
26436
  8
0
  6
CONTINUOUS
 10
23.28345485255561
 20
2.36839999999762
 30
0.0
 11
21.42868060114038
 21
4.223174251412853
 31
0.0
  0
LINE
  5
26437
  8
0
  6
CONTINUOUS
 10
26.29227406164219
 20
0.0330999999912356
 30
0.0
 11
25.80009199592872
 21
0.5252820657046957
 31
0.0
  0
LINE
  5
26438
  8
0
  6
CONTINUOUS
 10
23.9569740616358
 20
2.36839999999762
 30
0.0
 11
21.63688370661101
 21
4.688490355022409
 31
0.0
  0
LINE
  5
26439
  8
0
  6
CONTINUOUS
 10
26.96579327072237
 20
0.0330999999912356
 30
0.0
 11
25.2554132311971
 21
1.743480039516508
 31
0.0
  0
LINE
  5
2643A
  8
0
  6
CONTINUOUS
 10
24.63049327071599
 20
2.36839999999762
 30
0.0
 11
23.32789327071731
 21
3.670999999996297
 31
0.0
  0
LINE
  5
2643B
  8
0
  6
CONTINUOUS
 10
22.92098674744635
 20
4.077906523267254
 30
0.0
 11
21.84508681208164
 21
5.153806458631966
 31
0.0
  0
LINE
  5
2643C
  8
0
  6
CONTINUOUS
 10
27.63931247980256
 20
0.0330999999912356
 30
0.0
 11
24.0014124797975
 21
3.670999999996297
 31
0.0
  0
LINE
  5
2643D
  8
0
  6
CONTINUOUS
 10
23.129125600968
 20
4.5432868788258
 30
0.0
 11
22.05328991755227
 21
5.619122562241522
 31
0.0
  0
LINE
  5
2643E
  8
0
  6
CONTINUOUS
 10
28.31283168888275
 20
0.0330999999912356
 30
0.0
 11
24.16488385994816
 21
4.181047828925828
 31
0.0
  0
LINE
  5
2643F
  8
0
  6
CONTINUOUS
 10
23.33726445448964
 20
5.008667234384345
 30
0.0
 11
22.2614930230229
 21
6.084438665851079
 31
0.0
  0
LINE
  5
26440
  8
0
  6
CONTINUOUS
 10
28.92085740005492
 20
0.0985934978992438
 30
0.0
 11
27.63635089796295
 21
1.383099999991217
 31
0.0
  0
LINE
  5
26441
  8
0
  6
CONTINUOUS
 10
26.43704649509776
 20
2.582404402856405
 30
0.0
 11
23.61992702019732
 21
5.399523877756844
 31
0.0
  0
LINE
  5
26442
  8
0
  6
CONTINUOUS
 10
23.54540330801128
 20
5.47404758994289
 30
0.0
 11
22.46969612849353
 21
6.549754769460635
 31
0.0
  0
LINE
  5
26443
  8
0
  6
CONTINUOUS
 10
29.42225615078443
 20
0.2707139562499279
 30
0.0
 11
28.30987010704312
 21
1.383099999991234
 31
0.0
  0
LINE
  5
26444
  8
0
  6
CONTINUOUS
 10
25.89179548232307
 20
3.801174624711282
 30
0.0
 11
22.67789923396416
 21
7.015070873070191
 31
0.0
  0
LINE
  5
26445
  8
0
  6
CONTINUOUS
 10
29.83624534690007
 20
0.5302439692144705
 30
0.0
 11
28.85811781497101
 21
1.508371501143527
 31
0.0
  0
LINE
  5
26446
  8
0
  6
CONTINUOUS
 10
25.34654446954838
 20
5.01994484656616
 30
0.0
 11
22.88610233943479
 21
7.480386976679748
 31
0.0
  0
LINE
  5
26447
  8
0
  6
CONTINUOUS
 10
30.17865975401872
 20
0.8613487711760022
 30
0.0
 11
29.18888744090175
 21
1.851121084292977
 31
0.0
  0
LINE
  5
26448
  8
0
  6
CONTINUOUS
 10
24.80129345677369
 20
6.238715068421037
 30
0.0
 11
23.09430544490542
 21
7.945703080289305
 31
0.0
  0
LINE
  5
26449
  8
0
  6
CONTINUOUS
 10
30.45496647202376
 20
1.258561262251155
 30
0.0
 11
29.30199999996933
 21
2.411527734305588
 31
0.0
  0
LINE
  5
2644A
  8
0
  6
CONTINUOUS
 10
24.256042443999
 20
7.457485290275915
 30
0.0
 11
23.30250855037605
 21
8.411019183898862
 31
0.0
  0
LINE
  5
2644B
  8
0
  6
CONTINUOUS
 10
30.64868582078271
 20
1.738361122572387
 30
0.0
 11
29.30199999996933
 21
3.085046943385775
 31
0.0
  0
LINE
  5
2644C
  8
0
  6
CONTINUOUS
 10
23.71079143122431
 20
8.676255512130794
 30
0.0
 11
23.51071165584668
 21
8.876335287508416
 31
0.0
  0
LINE
  5
2644D
  8
0
  6
CONTINUOUS
 10
30.73802122914428
 20
2.322544923291007
 30
0.0
 11
29.30199999996933
 21
3.758566152465961
 31
0.0
  0
LINE
  5
2644E
  8
0
  6
CONTINUOUS
 10
30.74199999996924
 20
2.992085361546236
 30
0.0
 11
29.30199999996933
 21
4.432085361546148
 31
0.0
  0
LINE
  5
2644F
  8
0
  6
CONTINUOUS
 10
30.74199999996924
 20
3.665604570626419
 30
0.0
 11
29.30199999996933
 21
5.105604570626333
 31
0.0
  0
LINE
  5
26450
  8
0
  6
CONTINUOUS
 10
30.74199999996925
 20
4.339123779706602
 30
0.0
 11
29.30199999996933
 21
5.77912377970652
 31
0.0
  0
LINE
  5
26451
  8
0
  6
CONTINUOUS
 10
30.74199999996925
 20
5.012642988786785
 30
0.0
 11
29.30199999996933
 21
6.452642988786707
 31
0.0
  0
LINE
  5
26452
  8
0
  6
CONTINUOUS
 10
30.74199999996925
 20
5.68616219786697
 30
0.0
 11
29.30199999996933
 21
7.126162197866894
 31
0.0
  0
LINE
  5
26453
  8
0
  6
CONTINUOUS
 10
30.74199999996925
 20
6.359681406947153
 30
0.0
 11
29.30199999996933
 21
7.799681406947081
 31
0.0
  0
LINE
  5
26454
  8
0
  6
CONTINUOUS
 10
30.74199999996926
 20
7.033200616027337
 30
0.0
 11
29.30199999996933
 21
8.473200616027269
 31
0.0
  0
LINE
  5
26455
  8
0
  6
CONTINUOUS
 10
30.74199999996926
 20
7.706719825107518
 30
0.0
 11
29.68561982508552
 21
8.763099999991255
 31
0.0
  0
LINE
  5
26456
  8
0
  6
CONTINUOUS
 10
30.74199999996926
 20
8.380239034187703
 30
0.0
 11
30.35913903416571
 21
8.763099999991255
 31
0.0
  0
ENDBLK
  5
264F9
  8
0
  0
BLOCK
  8
0
  2
*X261
 70
     1
 10
0.0
 20
0.0
 30
0.0
  3
*X261
  1

  0
LINE
  5
26458
  8
0
  6
CONTINUOUS
 10
31.64199999996833
 20
8.535058289913598
 30
0.0
 11
31.87004171004599
 21
8.763099999991255
 31
0.0
  0
LINE
  5
26459
  8
0
  6
CONTINUOUS
 10
31.64199999996833
 20
7.861539080833412
 30
0.0
 11
32.54356091912618
 21
8.763099999991255
 31
0.0
  0
LINE
  5
2645A
  8
0
  6
CONTINUOUS
 10
31.64199999996833
 20
7.188019871753226
 30
0.0
 11
33.08199999996839
 21
8.628019871753281
 31
0.0
  0
LINE
  5
2645B
  8
0
  6
CONTINUOUS
 10
31.64199999996833
 20
6.51450066267304
 30
0.0
 11
33.08199999996839
 21
7.954500662673095
 31
0.0
  0
LINE
  5
2645C
  8
0
  6
CONTINUOUS
 10
31.64199999996833
 20
5.840981453592853
 30
0.0
 11
33.08199999996839
 21
7.280981453592908
 31
0.0
  0
LINE
  5
2645D
  8
0
  6
CONTINUOUS
 10
31.64199999996833
 20
5.167462244512667
 30
0.0
 11
33.08199999996839
 21
6.607462244512721
 31
0.0
  0
LINE
  5
2645E
  8
0
  6
CONTINUOUS
 10
31.64199999996833
 20
4.493943035432481
 30
0.0
 11
33.08199999996839
 21
5.933943035432535
 31
0.0
  0
LINE
  5
2645F
  8
0
  6
CONTINUOUS
 10
31.64199999996833
 20
3.820423826352293
 30
0.0
 11
33.08199999996839
 21
5.260423826352348
 31
0.0
  0
LINE
  5
26460
  8
0
  6
CONTINUOUS
 10
31.64199999996833
 20
3.146904617272106
 30
0.0
 11
33.08199999996839
 21
4.586904617272161
 31
0.0
  0
LINE
  5
26461
  8
0
  6
CONTINUOUS
 10
36.23199999996837
 20
8.410423826352325
 30
0.0
 11
36.5846761736073
 21
8.763099999991255
 31
0.0
  0
LINE
  5
26462
  8
0
  6
CONTINUOUS
 10
36.23199999996837
 20
7.73690461727214
 30
0.0
 11
37.25819538268748
 21
8.763099999991255
 31
0.0
  0
LINE
  5
26463
  8
0
  6
CONTINUOUS
 10
31.64257403601376
 20
2.473959444237348
 30
0.0
 11
33.08199999996839
 21
3.913385408191974
 31
0.0
  0
LINE
  5
26464
  8
0
  6
CONTINUOUS
 10
36.23199999996837
 20
7.063385408191953
 30
0.0
 11
37.67199999996831
 21
8.503385408191894
 31
0.0
  0
LINE
  5
26465
  8
0
  6
CONTINUOUS
 10
31.72013636841932
 20
1.87800256756272
 30
0.0
 11
33.08199999996839
 21
3.239866199111788
 31
0.0
  0
LINE
  5
26466
  8
0
  6
CONTINUOUS
 10
36.23199999996837
 20
6.389866199111767
 30
0.0
 11
37.67199999996831
 21
7.829866199111708
 31
0.0
  0
LINE
  5
26467
  8
0
  6
CONTINUOUS
 10
31.89042734314753
 20
1.374774333210744
 30
0.0
 11
33.08199999996839
 21
2.566346990031601
 31
0.0
  0
LINE
  5
26468
  8
0
  6
CONTINUOUS
 10
36.23199999996837
 20
5.71634699003158
 30
0.0
 11
37.67199999996831
 21
7.156346990031521
 31
0.0
  0
LINE
  5
26469
  8
0
  6
CONTINUOUS
 10
32.14210568064475
 20
0.952933461627778
 30
0.0
 11
33.18745552475986
 21
1.998283305742888
 31
0.0
  0
LINE
  5
2646A
  8
0
  6
CONTINUOUS
 10
36.23199999996837
 20
5.042827780951393
 30
0.0
 11
37.67199999996831
 21
6.482827780951334
 31
0.0
  0
LINE
  5
2646B
  8
0
  6
CONTINUOUS
 10
32.45820639400955
 20
0.5955149659123915
 30
0.0
 11
33.47242681921943
 21
1.60973539112227
 31
0.0
  0
LINE
  5
2646C
  8
0
  6
CONTINUOUS
 10
36.23199999996837
 20
4.369308571871207
 30
0.0
 11
37.67199999996831
 21
5.809308571871147
 31
0.0
  0
LINE
  5
2646D
  8
0
  6
CONTINUOUS
 10
32.83432456621412
 20
0.2981139290367771
 30
0.0
 11
33.89722476612215
 21
1.361014128944803
 31
0.0
  0
LINE
  5
2646E
  8
0
  6
CONTINUOUS
 10
36.23199999996837
 20
3.69578936279102
 30
0.0
 11
37.67199999996831
 21
5.135789362790962
 31
0.0
  0
LINE
  5
2646F
  8
0
  6
CONTINUOUS
 10
33.2711633111245
 20
0.0614334648669672
 30
0.0
 11
34.43247338014423
 21
1.222743533886696
 31
0.0
  0
LINE
  5
26470
  8
0
  6
CONTINUOUS
 10
36.23199999996837
 20
3.022270153710834
 30
0.0
 11
37.67199999996831
 21
4.462270153710775
 31
0.0
  0
LINE
  5
26471
  8
0
  6
CONTINUOUS
 10
33.76515245874577
 20
-0.1180965965919523
 30
0.0
 11
35.1587445516215
 21
1.27549549628378
 31
0.0
  0
LINE
  5
26472
  8
0
  6
CONTINUOUS
 10
36.21639478609585
 20
2.333145730758136
 30
0.0
 11
37.67199999996831
 21
3.788750944630588
 31
0.0
  0
LINE
  5
26473
  8
0
  6
CONTINUOUS
 10
34.34060583368432
 20
-0.2161624307335863
 30
0.0
 11
37.67199999996831
 21
3.115231735550401
 31
0.0
  0
LINE
  5
26474
  8
0
  6
CONTINUOUS
 10
35.01698193613905
 20
-0.2133055373590427
 30
0.0
 11
37.66876712070525
 21
2.438479647207154
 31
0.0
  0
LINE
  5
26475
  8
0
  6
CONTINUOUS
 10
35.90743367693304
 20
0.0036269943547609
 30
0.0
 11
37.51723902192366
 21
1.613432339345381
 31
0.0
  0
LINE
  5
26476
  8
0
  6
CONTINUOUS
 10
32.55309425579761
 20
0.5074718966376706
 30
0.0
 11
32.27784730925847
 21
0.7827188431768102
 31
0.0
  0
LINE
  5
26477
  8
0
  6
CONTINUOUS
 10
33.87496468909684
 20
-0.1408793275813673
 30
0.0
 11
31.67993083278052
 21
2.054154528734943
 31
0.0
  0
LINE
  5
26478
  8
0
  6
CONTINUOUS
 10
34.64362813207632
 20
-0.2360235614806649
 30
0.0
 11
31.64199999996833
 21
2.765604570627322
 31
0.0
  0
LINE
  5
26479
  8
0
  6
CONTINUOUS
 10
35.25801106796118
 20
-0.1768872882853429
 30
0.0
 11
31.64199999996833
 21
3.439123779707508
 31
0.0
  0
LINE
  5
2647A
  8
0
  6
CONTINUOUS
 10
35.79065650332146
 20
-0.0360135145654361
 30
0.0
 11
34.54143210838231
 21
1.213210880373721
 31
0.0
  0
LINE
  5
2647B
  8
0
  6
CONTINUOUS
 10
33.08199999996839
 20
2.67264298878764
 30
0.0
 11
31.64199999996833
 21
4.112642988787695
 31
0.0
  0
LINE
  5
2647C
  8
0
  6
CONTINUOUS
 10
36.25975597779143
 20
0.1684062200447833
 30
0.0
 11
35.15395110240023
 21
1.274211095435983
 31
0.0
  0
LINE
  5
2647D
  8
0
  6
CONTINUOUS
 10
33.08199999996839
 20
3.346162197867826
 30
0.0
 11
31.64199999996833
 21
4.786162197867881
 31
0.0
  0
LINE
  5
2647E
  8
0
  6
CONTINUOUS
 10
36.67226329638774
 20
0.4294181105286579
 30
0.0
 11
35.63766478748767
 21
1.464016619428737
 31
0.0
  0
LINE
  5
2647F
  8
0
  6
CONTINUOUS
 10
33.08199999996839
 20
4.019681406948012
 30
0.0
 11
31.64199999996833
 21
5.459681406948068
 31
0.0
  0
LINE
  5
26480
  8
0
  6
CONTINUOUS
 10
37.01677749710036
 20
0.7584231188962329
 30
0.0
 11
35.99563422741351
 21
1.779566388583076
 31
0.0
  0
LINE
  5
26481
  8
0
  6
CONTINUOUS
 10
33.08199999996839
 20
4.693200616028199
 30
0.0
 11
31.64199999996833
 21
6.133200616028255
 31
0.0
  0
LINE
  5
26482
  8
0
  6
CONTINUOUS
 10
37.29859977568887
 20
1.1501200493879
 30
0.0
 11
36.20680593341555
 21
2.241913891661226
 31
0.0
  0
LINE
  5
26483
  8
0
  6
CONTINUOUS
 10
33.08199999996839
 20
5.366719825108386
 30
0.0
 11
31.64199999996833
 21
6.80671982510844
 31
0.0
  0
LINE
  5
26484
  8
0
  6
CONTINUOUS
 10
37.5148623517228
 20
1.607376682434161
 30
0.0
 11
36.23199999996837
 21
2.890239034188594
 31
0.0
  0
LINE
  5
26485
  8
0
  6
CONTINUOUS
 10
33.08199999996839
 20
6.040239034188573
 30
0.0
 11
31.64199999996833
 21
7.480239034188627
 31
0.0
  0
LINE
  5
26486
  8
0
  6
CONTINUOUS
 10
37.64705163358367
 20
2.148706609653477
 30
0.0
 11
36.23199999996837
 21
3.56375824326878
 31
0.0
  0
LINE
  5
26487
  8
0
  6
CONTINUOUS
 10
33.08199999996839
 20
6.713758243268758
 30
0.0
 11
31.64199999996833
 21
8.153758243268815
 31
0.0
  0
LINE
  5
26488
  8
0
  6
CONTINUOUS
 10
37.67199999996831
 20
2.797277452349026
 30
0.0
 11
36.23199999996837
 21
4.237277452348967
 31
0.0
  0
LINE
  5
26489
  8
0
  6
CONTINUOUS
 10
37.67199999996831
 20
3.470796661429213
 30
0.0
 11
36.23199999996837
 21
4.910796661429154
 31
0.0
  0
LINE
  5
2648A
  8
0
  6
CONTINUOUS
 10
37.67199999996831
 20
4.144315870509399
 30
0.0
 11
36.23199999996837
 21
5.58431587050934
 31
0.0
  0
LINE
  5
2648B
  8
0
  6
CONTINUOUS
 10
33.08199999996839
 20
7.387277452348945
 30
0.0
 11
31.70617745232608
 21
8.763099999991255
 31
0.0
  0
LINE
  5
2648C
  8
0
  6
CONTINUOUS
 10
33.08199999996839
 20
8.060796661429132
 30
0.0
 11
32.37969666140626
 21
8.763099999991255
 31
0.0
  0
LINE
  5
2648D
  8
0
  6
CONTINUOUS
 10
33.08199999996839
 20
8.734315870509318
 30
0.0
 11
33.05321587048645
 21
8.763099999991255
 31
0.0
  0
LINE
  5
2648E
  8
0
  6
CONTINUOUS
 10
37.67199999996831
 20
4.817835079589585
 30
0.0
 11
36.23199999996837
 21
6.257835079589526
 31
0.0
  0
LINE
  5
2648F
  8
0
  6
CONTINUOUS
 10
37.67199999996831
 20
5.491354288669771
 30
0.0
 11
36.23199999996837
 21
6.931354288669713
 31
0.0
  0
LINE
  5
26490
  8
0
  6
CONTINUOUS
 10
37.67199999996831
 20
6.164873497749958
 30
0.0
 11
36.23199999996837
 21
7.6048734977499
 31
0.0
  0
LINE
  5
26491
  8
0
  6
CONTINUOUS
 10
37.67199999996831
 20
6.838392706830144
 30
0.0
 11
36.23199999996837
 21
8.278392706830086
 31
0.0
  0
LINE
  5
26492
  8
0
  6
CONTINUOUS
 10
37.67199999996831
 20
7.511911915910332
 30
0.0
 11
36.42081191588738
 21
8.763099999991255
 31
0.0
  0
LINE
  5
26493
  8
0
  6
CONTINUOUS
 10
37.67199999996831
 20
8.185431124990519
 30
0.0
 11
37.09433112496757
 21
8.763099999991255
 31
0.0
  0
ENDBLK
  5
264FB
  8
0
  0
BLOCK
  8
0
  2
*X262
 70
     1
 10
0.0
 20
0.0
 30
0.0
  3
*X262
  1

  0
LINE
  5
26495
  8
0
  6
CONTINUOUS
 10
38.60499999996136
 20
8.762866199104765
 30
0.0
 11
38.71672554182345
 21
8.874591740966855
 31
0.0
  0
LINE
  5
26496
  8
0
  6
CONTINUOUS
 10
38.60499999996136
 20
8.089346990024577
 30
0.0
 11
39.03418785440363
 21
8.518534844466847
 31
0.0
  0
LINE
  5
26497
  8
0
  6
CONTINUOUS
 10
38.60499999996136
 20
7.41582778094439
 30
0.0
 11
39.35165016698382
 21
8.16247794796684
 31
0.0
  0
LINE
  5
26498
  8
0
  6
CONTINUOUS
 10
38.60499999996136
 20
6.742308571864204
 30
0.0
 11
39.66911247956399
 21
7.806421051466834
 31
0.0
  0
LINE
  5
26499
  8
0
  6
CONTINUOUS
 10
38.60499999996136
 20
6.068789362784018
 30
0.0
 11
39.98657479214418
 21
7.450364154966827
 31
0.0
  0
LINE
  5
2649A
  8
0
  6
CONTINUOUS
 10
38.60499999996136
 20
5.395270153703832
 30
0.0
 11
40.30403710472435
 21
7.09430725846682
 31
0.0
  0
LINE
  5
2649B
  8
0
  6
CONTINUOUS
 10
38.60499999996136
 20
4.721750944623645
 30
0.0
 11
40.62149941730453
 21
6.738250361966813
 31
0.0
  0
LINE
  5
2649C
  8
0
  6
CONTINUOUS
 10
38.60499999996136
 20
4.048231735543458
 30
0.0
 11
40.93896172988471
 21
6.382193465466806
 31
0.0
  0
LINE
  5
2649D
  8
0
  6
CONTINUOUS
 10
38.60499999996136
 20
3.374712526463272
 30
0.0
 11
40.02599999995994
 21
4.795712526461843
 31
0.0
  0
LINE
  5
2649E
  8
0
  6
CONTINUOUS
 10
38.60499999996136
 20
2.701193317383085
 30
0.0
 11
40.02599999995994
 21
4.122193317381657
 31
0.0
  0
LINE
  5
2649F
  8
0
  6
CONTINUOUS
 10
40.28339754687704
 20
5.053110073378947
 30
0.0
 11
41.25642404246489
 21
6.026136568966799
 31
0.0
  0
LINE
  5
264A0
  8
0
  6
CONTINUOUS
 10
40.60085985945722
 20
4.697053176878939
 30
0.0
 11
41.57388635504507
 21
5.670079672466793
 31
0.0
  0
LINE
  5
264A1
  8
0
  6
CONTINUOUS
 10
43.57899999995641
 20
8.348712526458318
 30
0.0
 11
43.99338747348935
 21
8.763099999991255
 31
0.0
  0
LINE
  5
264A2
  8
0
  6
CONTINUOUS
 10
43.57899999995641
 20
7.675193317378131
 30
0.0
 11
44.66690668256953
 21
8.763099999991255
 31
0.0
  0
LINE
  5
264A3
  8
0
  6
CONTINUOUS
 10
38.60499999996136
 20
2.027674108302898
 30
0.0
 11
40.02599999995994
 21
3.44867410830147
 31
0.0
  0
LINE
  5
264A4
  8
0
  6
CONTINUOUS
 10
38.60499999996136
 20
1.354154899222712
 30
0.0
 11
40.02599999995994
 21
2.775154899221284
 31
0.0
  0
LINE
  5
264A5
  8
0
  6
CONTINUOUS
 10
38.60499999996136
 20
0.6806356901425255
 30
0.0
 11
40.02599999995994
 21
2.101635690141098
 31
0.0
  0
LINE
  5
264A6
  8
0
  6
CONTINUOUS
 10
38.60499999996136
 20
0.0071164810623383
 30
0.0
 11
40.02599999995994
 21
1.428116481060911
 31
0.0
  0
LINE
  5
264A7
  8
0
  6
CONTINUOUS
 10
40.9183221720374
 20
4.340996280378933
 30
0.0
 11
41.89134866762525
 21
5.314022775966786
 31
0.0
  0
LINE
  5
264A8
  8
0
  6
CONTINUOUS
 10
41.23578448461758
 20
3.984939383878926
 30
0.0
 11
42.20881098020543
 21
4.957965879466778
 31
0.0
  0
LINE
  5
264A9
  8
0
  6
CONTINUOUS
 10
41.55324679719776
 20
3.628882487378919
 30
0.0
 11
42.52627329278561
 21
4.601908982966772
 31
0.0
  0
LINE
  5
264AA
  8
0
  6
CONTINUOUS
 10
41.87070910977793
 20
3.272825590878912
 30
0.0
 11
42.84373560536579
 21
4.245852086466765
 31
0.0
  0
LINE
  5
264AB
  8
0
  6
CONTINUOUS
 10
43.57899999995641
 20
7.001674108297943
 30
0.0
 11
44.99999999995498
 21
8.422674108296516
 31
0.0
  0
LINE
  5
264AC
  8
0
  6
CONTINUOUS
 10
43.57899999995641
 20
6.328154899217758
 30
0.0
 11
44.99999999995498
 21
7.749154899216329
 31
0.0
  0
LINE
  5
264AD
  8
0
  6
CONTINUOUS
 10
43.57899999995641
 20
5.654635690137571
 30
0.0
 11
44.99999999995498
 21
7.075635690136142
 31
0.0
  0
LINE
  5
264AE
  8
0
  6
CONTINUOUS
 10
43.57899999995641
 20
4.981116481057384
 30
0.0
 11
44.99999999995498
 21
6.402116481055955
 31
0.0
  0
LINE
  5
264AF
  8
0
  6
CONTINUOUS
 10
39.27140272797921
 20
-0.0000000000000009
 30
0.0
 11
40.02599999995994
 21
0.7545972719807246
 31
0.0
  0
LINE
  5
264B0
  8
0
  6
CONTINUOUS
 10
39.9449219370594
 20
-0.0000000000000009
 30
0.0
 11
40.02599999995994
 21
0.0810780629005379
 31
0.0
  0
LINE
  5
264B1
  8
0
  6
CONTINUOUS
 10
42.18817142235812
 20
2.916768694378905
 30
0.0
 11
43.16119791794597
 21
3.889795189966758
 31
0.0
  0
LINE
  5
264B2
  8
0
  6
CONTINUOUS
 10
42.50563373493829
 20
2.560711797878898
 30
0.0
 11
43.47866023052615
 21
3.533738293466751
 31
0.0
  0
LINE
  5
264B3
  8
0
  6
CONTINUOUS
 10
43.57899999995641
 20
4.307597271977198
 30
0.0
 11
44.99999999995498
 21
5.728597271975769
 31
0.0
  0
LINE
  5
264B4
  8
0
  6
CONTINUOUS
 10
43.57899999995641
 20
3.634078062897011
 30
0.0
 11
44.99999999995498
 21
5.055078062895582
 31
0.0
  0
LINE
  5
264B5
  8
0
  6
CONTINUOUS
 10
42.82309604751848
 20
2.204654901378891
 30
0.0
 11
44.99999999995498
 21
4.381558853815395
 31
0.0
  0
LINE
  5
264B6
  8
0
  6
CONTINUOUS
 10
43.14055836009865
 20
1.848598004878885
 30
0.0
 11
44.99999999995498
 21
3.70803964473521
 31
0.0
  0
LINE
  5
264B7
  8
0
  6
CONTINUOUS
 10
43.45802067267883
 20
1.492541108378878
 30
0.0
 11
44.99999999995498
 21
3.034520435655023
 31
0.0
  0
LINE
  5
264B8
  8
0
  6
CONTINUOUS
 10
43.77548298525902
 20
1.136484211878871
 30
0.0
 11
44.99999999995498
 21
2.361001226574837
 31
0.0
  0
LINE
  5
264B9
  8
0
  6
CONTINUOUS
 10
44.09294529783919
 20
0.7804273153788639
 30
0.0
 11
44.99999999995498
 21
1.687482017494649
 31
0.0
  0
LINE
  5
264BA
  8
0
  6
CONTINUOUS
 10
44.41040761041938
 20
0.4243704188788566
 30
0.0
 11
44.99999999995498
 21
1.013962808414463
 31
0.0
  0
LINE
  5
264BB
  8
0
  6
CONTINUOUS
 10
44.72786992299955
 20
0.0683135223788494
 30
0.0
 11
44.99999999995498
 21
0.340443599334276
 31
0.0
  0
LINE
  5
264BC
  8
0
  6
CONTINUOUS
 10
39.12223903415696
 20
-0.0000000000000009
 30
0.0
 11
38.60499999996136
 21
0.5172390341955961
 31
0.0
  0
LINE
  5
264BD
  8
0
  6
CONTINUOUS
 10
39.79575824323715
 20
-0.0000000000000009
 30
0.0
 11
38.60499999996136
 21
1.190758243275783
 31
0.0
  0
LINE
  5
264BE
  8
0
  6
CONTINUOUS
 10
40.02599999995994
 20
0.443277452357397
 30
0.0
 11
38.60499999996136
 21
1.864277452355969
 31
0.0
  0
LINE
  5
264BF
  8
0
  6
CONTINUOUS
 10
40.02599999995994
 20
1.116796661437583
 30
0.0
 11
38.60499999996136
 21
2.537796661436155
 31
0.0
  0
LINE
  5
264C0
  8
0
  6
CONTINUOUS
 10
40.02599999995994
 20
1.79031587051777
 30
0.0
 11
38.60499999996136
 21
3.211315870516341
 31
0.0
  0
LINE
  5
264C1
  8
0
  6
CONTINUOUS
 10
40.02599999995994
 20
2.463835079597956
 30
0.0
 11
38.60499999996136
 21
3.884835079596527
 31
0.0
  0
LINE
  5
264C2
  8
0
  6
CONTINUOUS
 10
40.02599999995994
 20
3.137354288678143
 30
0.0
 11
38.60499999996136
 21
4.558354288676714
 31
0.0
  0
LINE
  5
264C3
  8
0
  6
CONTINUOUS
 10
40.02599999995994
 20
3.810873497758329
 30
0.0
 11
38.60499999996136
 21
5.2318734977569
 31
0.0
  0
LINE
  5
264C4
  8
0
  6
CONTINUOUS
 10
40.02599999995994
 20
4.484392706838515
 30
0.0
 11
38.60499999996136
 21
5.905392706837086
 31
0.0
  0
LINE
  5
264C5
  8
0
  6
CONTINUOUS
 10
44.99999999995498
 20
0.183911915923658
 30
0.0
 11
41.53858364506288
 21
3.64532827081576
 31
0.0
  0
LINE
  5
264C6
  8
0
  6
CONTINUOUS
 10
40.02599999995994
 20
5.157911915918703
 30
0.0
 11
38.60499999996136
 21
6.578911915917274
 31
0.0
  0
LINE
  5
264C7
  8
0
  6
CONTINUOUS
 10
44.99999999995498
 20
0.8574311250038447
 30
0.0
 11
38.60499999996136
 21
7.25243112499746
 31
0.0
  0
LINE
  5
264C8
  8
0
  6
CONTINUOUS
 10
44.99999999995498
 20
1.530950334084031
 30
0.0
 11
38.60499999996136
 21
7.925950334077647
 31
0.0
  0
LINE
  5
264C9
  8
0
  6
CONTINUOUS
 10
44.99999999995498
 20
2.204469543164218
 30
0.0
 11
43.57899999995641
 21
3.625469543162789
 31
0.0
  0
LINE
  5
264CA
  8
0
  6
CONTINUOUS
 10
41.89876730984767
 20
5.305702233271528
 30
0.0
 11
38.60499999996136
 21
8.599469543157834
 31
0.0
  0
LINE
  5
264CB
  8
0
  6
CONTINUOUS
 10
44.99999999995498
 20
2.877988752244405
 30
0.0
 11
43.57899999995641
 21
4.298988752242975
 31
0.0
  0
LINE
  5
264CC
  8
0
  6
CONTINUOUS
 10
44.99999999995498
 20
3.551507961324591
 30
0.0
 11
43.57899999995641
 21
4.972507961323163
 31
0.0
  0
LINE
  5
264CD
  8
0
  6
CONTINUOUS
 10
44.99999999995498
 20
4.225027170404777
 30
0.0
 11
43.57899999995641
 21
5.646027170403348
 31
0.0
  0
LINE
  5
264CE
  8
0
  6
CONTINUOUS
 10
44.99999999995498
 20
4.898546379484964
 30
0.0
 11
43.57899999995641
 21
6.319546379483535
 31
0.0
  0
LINE
  5
264CF
  8
0
  6
CONTINUOUS
 10
44.99999999995498
 20
5.572065588565151
 30
0.0
 11
43.57899999995641
 21
6.993065588563722
 31
0.0
  0
LINE
  5
264D0
  8
0
  6
CONTINUOUS
 10
44.99999999995498
 20
6.245584797645336
 30
0.0
 11
43.57899999995641
 21
7.666584797643908
 31
0.0
  0
LINE
  5
264D1
  8
0
  6
CONTINUOUS
 10
44.99999999995498
 20
6.919104006725522
 30
0.0
 11
43.57899999995641
 21
8.340104006724093
 31
0.0
  0
LINE
  5
264D2
  8
0
  6
CONTINUOUS
 10
44.99999999995498
 20
7.592623215805709
 30
0.0
 11
43.82952321576943
 21
8.763099999991255
 31
0.0
  0
LINE
  5
264D3
  8
0
  6
CONTINUOUS
 10
44.99999999995498
 20
8.266142424885896
 30
0.0
 11
44.50304242484962
 21
8.763099999991255
 31
0.0
  0
ENDBLK
  5
264FD
  8
0
  0
BLOCK
  8
0
  2
*X263
 70
     1
 10
0.0
 20
0.0
 30
0.0
  3
*X263
  1

  0
LINE
  5
264D5
  8
0
  6
CONTINUOUS
 10
0.0
 20
8.548461116714023
 30
0.0
 11
0.2146388832772324
 21
8.763099999991255
 31
0.0
  0
LINE
  5
264D6
  8
0
  6
CONTINUOUS
 10
-0.0000000000000002
 20
7.874941907633837
 30
0.0
 11
0.8881580923574184
 21
8.763099999991255
 31
0.0
  0
LINE
  5
264D7
  8
0
  6
CONTINUOUS
 10
0.0
 20
7.20142269855365
 30
0.0
 11
1.420999999998572
 21
8.622422698552223
 31
0.0
  0
LINE
  5
264D8
  8
0
  6
CONTINUOUS
 10
-0.0000000000000001
 20
6.527903489473465
 30
0.0
 11
1.420999999998571
 21
7.948903489472036
 31
0.0
  0
LINE
  5
264D9
  8
0
  6
CONTINUOUS
 10
-0.0000000000000002
 20
5.854384280393278
 30
0.0
 11
1.420999999998571
 21
7.275384280391849
 31
0.0
  0
LINE
  5
264DA
  8
0
  6
CONTINUOUS
 10
-0.0000000000000002
 20
5.180865071313091
 30
0.0
 11
1.420999999998571
 21
6.601865071311663
 31
0.0
  0
LINE
  5
264DB
  8
0
  6
CONTINUOUS
 10
0.0
 20
4.507345862232905
 30
0.0
 11
1.420999999998571
 21
5.928345862231477
 31
0.0
  0
LINE
  5
264DC
  8
0
  6
CONTINUOUS
 10
-0.0000000000000003
 20
3.833826653152718
 30
0.0
 11
1.420999999998571
 21
5.25482665315129
 31
0.0
  0
LINE
  5
264DD
  8
0
  6
CONTINUOUS
 10
-0.0000000000000002
 20
3.160307444072532
 30
0.0
 11
1.420999999998571
 21
4.581307444071103
 31
0.0
  0
LINE
  5
264DE
  8
0
  6
CONTINUOUS
 10
-0.0000000000000001
 20
2.486788234992345
 30
0.0
 11
1.420999999998571
 21
3.907788234990917
 31
0.0
  0
LINE
  5
264DF
  8
0
  6
CONTINUOUS
 10
-0.0000000000000006
 20
1.813269025912159
 30
0.0
 11
1.420999999998571
 21
3.234269025910731
 31
0.0
  0
LINE
  5
264E0
  8
0
  6
CONTINUOUS
 10
0.0
 20
1.139749816831973
 30
0.0
 11
1.420999999998571
 21
2.560749816830544
 31
0.0
  0
LINE
  5
264E1
  8
0
  6
CONTINUOUS
 10
0.0000000000000002
 20
0.466230607751787
 30
0.0
 11
1.420999999998571
 21
1.887230607750358
 31
0.0
  0
LINE
  5
264E2
  8
0
  6
CONTINUOUS
 10
0.2072886013284003
 20
-0.0000000000000009
 30
0.0
 11
1.420999999998571
 21
1.213711398670171
 31
0.0
  0
LINE
  5
264E3
  8
0
  6
CONTINUOUS
 10
0.8808078104085864
 20
-0.0000000000000009
 30
0.0
 11
1.420999999998571
 21
0.5401921895899839
 31
0.0
  0
LINE
  5
264E4
  8
0
  6
CONTINUOUS
 10
0.0581249075061505
 20
-0.0000000000000009
 30
0.0
 11
-0.0000000000000002
 21
0.0581249075061496
 31
0.0
  0
LINE
  5
264E5
  8
0
  6
CONTINUOUS
 10
0.7316441165863372
 20
-0.0000000000000009
 30
0.0
 11
-0.0000000000000002
 21
0.7316441165863363
 31
0.0
  0
LINE
  5
264E6
  8
0
  6
CONTINUOUS
 10
1.405163325666523
 20
-0.0000000000000009
 30
0.0
 11
-0.0000000000000002
 21
1.405163325666523
 31
0.0
  0
LINE
  5
264E7
  8
0
  6
CONTINUOUS
 10
1.420999999998572
 20
0.6576825347481381
 30
0.0
 11
-0.0000000000000001
 21
2.07868253474671
 31
0.0
  0
LINE
  5
264E8
  8
0
  6
CONTINUOUS
 10
1.420999999998571
 20
1.331201743828324
 30
0.0
 11
-0.0000000000000001
 21
2.752201743826896
 31
0.0
  0
LINE
  5
264E9
  8
0
  6
CONTINUOUS
 10
1.420999999998571
 20
2.004720952908511
 30
0.0
 11
-0.0000000000000002
 21
3.425720952907082
 31
0.0
  0
LINE
  5
264EA
  8
0
  6
CONTINUOUS
 10
1.420999999998571
 20
2.678240161988697
 30
0.0
 11
-0.0000000000000001
 21
4.099240161987269
 31
0.0
  0
LINE
  5
264EB
  8
0
  6
CONTINUOUS
 10
1.420999999998572
 20
3.351759371068884
 30
0.0
 11
0.0
 21
4.772759371067455
 31
0.0
  0
LINE
  5
264EC
  8
0
  6
CONTINUOUS
 10
1.420999999998571
 20
4.02527858014907
 30
0.0
 11
-0.0000000000000003
 21
5.446278580147642
 31
0.0
  0
LINE
  5
264ED
  8
0
  6
CONTINUOUS
 10
1.420999999998571
 20
4.698797789229257
 30
0.0
 11
0.0
 21
6.119797789227828
 31
0.0
  0
LINE
  5
264EE
  8
0
  6
CONTINUOUS
 10
1.420999999998571
 20
5.372316998309444
 30
0.0
 11
-0.0000000000000001
 21
6.793316998308015
 31
0.0
  0
LINE
  5
264EF
  8
0
  6
CONTINUOUS
 10
1.420999999998572
 20
6.045836207389629
 30
0.0
 11
-0.0000000000000004
 21
7.466836207388202
 31
0.0
  0
LINE
  5
264F0
  8
0
  6
CONTINUOUS
 10
1.420999999998571
 20
6.719355416469816
 30
0.0
 11
0.0
 21
8.140355416468388
 31
0.0
  0
LINE
  5
264F1
  8
0
  6
CONTINUOUS
 10
1.420999999998571
 20
7.392874625550003
 30
0.0
 11
0.0507746255573185
 21
8.763099999991255
 31
0.0
  0
LINE
  5
264F2
  8
0
  6
CONTINUOUS
 10
1.420999999998571
 20
8.06639383463019
 30
0.0
 11
0.7242938346375052
 21
8.763099999991255
 31
0.0
  0
LINE
  5
264F3
  8
0
  6
CONTINUOUS
 10
1.420999999998571
 20
8.739913043710375
 30
0.0
 11
1.397813043717691
 21
8.763099999991255
 31
0.0
  0
ENDBLK
  5
264FF
  8
0
  0
ENDSEC
  0
SECTION
  2
ENTITIES
  0
LINE
  5
244DB
  8
01
  6
CONTINUOUS
 10
3024.750012969971
 20
-395.4348625776835
 30
0.0
 11
2347.250000452995
 21
-395.4348625776835
 31
0.0
  0
LINE
  5
24513
  8
01
  6
CONTINUOUS
 10
3023.500012969971
 20
-396.9348637548752
 30
0.0
 11
2346.000000452995
 21
-396.9348637548752
 31
0.0
  0
LINE
  5
24516
  8
01
  6
CONTINUOUS
 10
3024.750012969971
 20
-396.9348637548752
 30
0.0
 11
3024.750012969971
 21
-395.6577895370789
 31
0.0
  0
LINE
  5
24517
  8
01
  6
CONTINUOUS
 10
3024.750012969971
 20
-395.6577895370789
 30
0.0
 11
3024.750012969971
 21
-395.4348625776835
 31
0.0
  0
LINE
  5
2451B
  8
01
  6
CONTINUOUS
 10
3025.99995098114
 20
-423.4348634419508
 30
0.0
 11
3025.99995098114
 21
-397.2348632452555
 31
0.0
  0
LINE
  5
2451C
  8
01
  6
CONTINUOUS
 10
2346.000000452995
 20
-396.9348637548752
 30
0.0
 11
3025.99995098114
 21
-396.9348637548752
 31
0.0
  0
LINE
  5
2451D
  8
01
  6
CONTINUOUS
 10
3025.99995098114
 20
-424.4348617432184
 30
0.0
 11
2346.000000452995
 21
-424.4348617432184
 31
0.0
  0
LINE
  5
24556
  8
01
  6
CONTINUOUS
 10
3025.99995098114
 20
-423.9348644552298
 30
0.0
 11
3025.99995098114
 21
-396.4348627415962
 31
0.0
  0
LINE
  5
24558
  8
01
  6
CONTINUOUS
 10
3025.99995098114
 20
-396.4348627415962
 30
0.0
 11
3025.99995098114
 21
-395.4348625776835
 31
0.0
  0
ARC
  5
24559
  8
01
  6
CONTINUOUS
 10
3026.5
 20
-395.4348631813933
 30
0.0
 40
0.5
 50
90.0
 51
180.0
  0
LINE
  5
24563
  8
01
  6
CONTINUOUS
 10
3026.500033950806
 20
-394.9348634270497
 30
0.0
 11
3043.99995765686
 21
-394.9348634270497
 31
0.0
  0
ARC
  5
24565
  8
01
  6
CONTINUOUS
 10
3026.5
 20
-424.4348631813933
 30
0.0
 40
0.5
 50
180.0
 51
270.0
  0
LINE
  5
24566
  8
01
  6
CONTINUOUS
 10
3025.99995098114
 20
-424.4348617432184
 30
0.0
 11
3025.99995098114
 21
-423.9348644552298
 31
0.0
  0
LINE
  5
24568
  8
01
  6
CONTINUOUS
 10
3074.500012016296
 20
-424.9348627564974
 30
0.0
 11
3026.500033950806
 21
-424.9348627564974
 31
0.0
  0
ARC
  5
24569
  8
01
  6
CONTINUOUS
 10
3044.0
 20
-392.9348631813933
 30
0.0
 40
2.0
 50
270.0
 51
0.0
  0
LINE
  5
2456F
  8
01
  6
CONTINUOUS
 10
3046.000051116943
 20
-392.9348630992241
 30
0.0
 11
3046.000051116943
 21
-327.9348631813934
 31
0.0
  0
LINE
  5
24574
  8
01
  6
CONTINUOUS
 10
3076.000022506714
 20
-327.9348631813934
 30
0.0
 11
3076.000022506714
 21
-423.4348634419508
 31
0.0
  0
ARC
  5
24577
  8
01
  6
CONTINUOUS
 10
3074.5
 20
-423.4348631813933
 30
0.0
 40
1.500000000000114
 50
270.0
 51
0.0
  0
ARC
  5
245C3
  8
01
  6
CONTINUOUS
 10
2281.0
 20
-574.5812035995507
 30
0.0
 40
1.0
 50
180.0
 51
270.0
  0
LINE
  5
245C7
  8
01
  6
CONTINUOUS
 10
2341.000000099093
 20
-575.581202145016
 30
0.0
 11
2280.999999111891
 21
-575.581202145016
 31
0.0
  0
ARC
  5
245CA
  8
01
  6
CONTINUOUS
 10
2341.0
 20
-574.5812035995507
 30
0.0
 40
1.0
 50
270.0
 51
0.0
  0
LINE
  5
245CB
  8
01
  6
CONTINUOUS
 10
2280.000000810624
 20
-574.5812038437484
 30
0.0
 11
2280.000000810624
 21
-543.581203651896
 31
0.0
  0
LINE
  5
245CF
  8
01
  6
CONTINUOUS
 10
2341.999999797345
 20
-543.581203651896
 30
0.0
 11
2341.999999797345
 21
-551.5812037990449
 31
0.0
  0
LINE
  5
245D0
  8
01
  6
CONTINUOUS
 10
2341.999999797345
 20
-566.5812043950914
 30
0.0
 11
2341.999999797345
 21
-574.5812038437484
 31
0.0
  0
LINE
  5
245D4
  8
01
  6
CONTINUOUS
 10
2280.999999111891
 20
-542.5812034879832
 30
0.0
 11
2341.000000099093
 21
-542.5812034879832
 31
0.0
  0
ARC
  5
245D7
  8
01
  6
CONTINUOUS
 10
2341.0
 20
-543.5812035995507
 30
0.0
 40
1.0
 50
0.0
 51
90.0
  0
ARC
  5
245D8
  8
01
  6
CONTINUOUS
 10
2281.0
 20
-543.5812035995507
 30
0.0
 40
1.0
 50
90.0
 51
180.0
  0
LINE
  5
245D9
  8
01
  6
CONTINUOUS
 10
3092.000054931641
 20
-543.5812036518946
 30
0.0
 11
3092.000054931641
 21
-574.5812038437471
 31
0.0
  0
ARC
  5
245DF
  8
01
  6
CONTINUOUS
 10
3031.0
 20
-574.5812035995493
 30
0.0
 40
1.0
 50
180.0
 51
270.0
  0
LINE
  5
245E1
  8
01
  6
CONTINUOUS
 10
3030.000018692017
 20
-574.5812038437471
 30
0.0
 11
3030.000018692017
 21
-566.58120439509
 31
0.0
  0
LINE
  5
245E2
  8
01
  6
CONTINUOUS
 10
3030.000018692017
 20
-551.5812037990436
 30
0.0
 11
3030.000018692017
 21
-543.5812036518946
 31
0.0
  0
ARC
  5
245E9
  8
01
  6
CONTINUOUS
 10
3091.0
 20
-574.5812035995493
 30
0.0
 40
1.0
 50
270.0
 51
0.0
  0
LINE
  5
245EB
  8
01
  6
CONTINUOUS
 10
3091.000008201599
 20
-575.5812021450147
 30
0.0
 11
3030.999946212769
 21
-575.5812021450147
 31
0.0
  0
LINE
  5
245ED
  8
01
  6
CONTINUOUS
 10
3030.999946212769
 20
-542.5812034879818
 30
0.0
 11
3091.000008201599
 21
-542.5812034879818
 31
0.0
  0
ARC
  5
245EF
  8
01
  6
CONTINUOUS
 10
3031.0
 20
-543.5812035995493
 30
0.0
 40
1.0
 50
90.0
 51
180.0
  0
ARC
  5
245F0
  8
01
  6
CONTINUOUS
 10
3091.0
 20
-543.5812035995493
 30
0.0
 40
1.0
 50
0.0
 51
90.0
  0
LINE
  5
245F1
  8
01
  6
CONTINUOUS
 10
3025.999950981141
 20
-566.0812033818111
 30
0.0
 11
2346.000000452996
 21
-566.0812033818111
 31
0.0
  0
LINE
  5
245F4
  8
01
  6
CONTINUOUS
 10
3025.999950981141
 20
-565.0812032178983
 30
0.0
 11
3025.999950981141
 21
-553.0812040449127
 31
0.0
  0
LINE
  5
245F5
  8
01
  6
CONTINUOUS
 10
2346.000000452996
 20
-565.0812032178997
 30
0.0
 11
2346.000000452996
 21
-553.0812040449141
 31
0.0
  0
LINE
  5
245F6
  8
01
  6
CONTINUOUS
 10
2346.000000452996
 20
-552.081203881
 30
0.0
 11
3025.999950981141
 21
-552.081203881
 31
0.0
  0
LINE
  5
245F9
  8
01
  6
CONTINUOUS
 10
2297.499999022484
 20
-566.5812043950914
 30
0.0
 11
2297.000001734496
 21
-566.5812043950914
 31
0.0
  0
ARC
  5
245FA
  8
01
  6
CONTINUOUS
 10
2297.0
 20
-565.5812035995507
 30
0.0
 40
1.0
 50
180.0
 51
270.0
  0
LINE
  5
245FD
  8
01
  6
CONTINUOUS
 10
2345.500000371039
 20
-566.5812043950914
 30
0.0
 11
2297.499999022484
 21
-566.5812043950914
 31
0.0
  0
LINE
  5
24602
  8
01
  6
CONTINUOUS
 10
2295.999999707938
 20
-565.5812042311786
 30
0.0
 11
2295.999999707938
 21
-552.5812039629577
 31
0.0
  0
LINE
  5
24604
  8
01
  6
CONTINUOUS
 10
2346.000000452996
 20
-552.5812039629577
 30
0.0
 11
2346.000000452996
 21
-565.5812042311786
 31
0.0
  0
LINE
  5
24606
  8
01
  6
CONTINUOUS
 10
2346.000000452996
 20
-565.5812042311786
 30
0.0
 11
2346.000000452996
 21
-566.0812033818124
 31
0.0
  0
ARC
  5
24607
  8
01
  6
CONTINUOUS
 10
2345.5
 20
-566.0812035995507
 30
0.0
 40
0.5000000000000568
 50
270.0
 51
0.0
  0
LINE
  5
24609
  8
01
  6
CONTINUOUS
 10
2297.499999022484
 20
-551.5812037990449
 30
0.0
 11
2345.500000371039
 21
-551.5812037990449
 31
0.0
  0
LINE
  5
2460B
  8
01
  6
CONTINUOUS
 10
2297.000001734496
 20
-551.5812037990449
 30
0.0
 11
2297.499999022484
 21
-551.5812037990449
 31
0.0
  0
ARC
  5
2460C
  8
01
  6
CONTINUOUS
 10
2297.0
 20
-552.5812035995507
 30
0.0
 40
1.0
 50
90.0
 51
180.0
  0
LINE
  5
2460D
  8
01
  6
CONTINUOUS
 10
2346.000000452996
 20
-552.0812038810013
 30
0.0
 11
2346.000000452996
 21
-552.5812039629577
 31
0.0
  0
ARC
  5
2460E
  8
01
  6
CONTINUOUS
 10
2345.5
 20
-552.0812035995507
 30
0.0
 40
0.5
 50
0.0
 51
90.0
  0
LINE
  5
24614
  8
01
  6
CONTINUOUS
 10
3074.500012016297
 20
-566.58120439509
 30
0.0
 11
3026.500033950806
 21
-566.58120439509
 31
0.0
  0
LINE
  5
24617
  8
01
  6
CONTINUOUS
 10
3025.999950981141
 20
-565.5812042311773
 30
0.0
 11
3025.999950981141
 21
-552.5812039629564
 31
0.0
  0
LINE
  5
24619
  8
01
  6
CONTINUOUS
 10
3025.999950981141
 20
-566.0812033818111
 30
0.0
 11
3025.999950981141
 21
-565.5812042311773
 31
0.0
  0
ARC
  5
2461A
  8
01
  6
CONTINUOUS
 10
3026.5
 20
-566.0812035995548
 30
0.0
 40
0.5
 50
180.0
 51
270.0
  0
LINE
  5
2461D
  8
01
  6
CONTINUOUS
 10
3076.000022506714
 20
-552.5812039629564
 30
0.0
 11
3076.000022506714
 21
-565.5812042311773
 31
0.0
  0
LINE
  5
2461E
  8
01
  6
CONTINUOUS
 10
3074.999975776673
 20
-566.58120439509
 30
0.0
 11
3074.500012016297
 21
-566.58120439509
 31
0.0
  0
ARC
  5
2461F
  8
01
  6
CONTINUOUS
 10
3075.0
 20
-565.581203599555
 30
0.0
 40
1.000000000000114
 50
270.0
 51
0.0
  0
LINE
  5
24622
  8
01
  6
CONTINUOUS
 10
3026.500033950806
 20
-551.5812037990436
 30
0.0
 11
3074.500012016297
 21
-551.5812037990436
 31
0.0
  0
LINE
  5
24623
  8
01
  6
CONTINUOUS
 10
3025.999950981141
 20
-552.5812039629564
 30
0.0
 11
3025.999950981141
 21
-552.081203881
 31
0.0
  0
ARC
  5
24624
  8
01
  6
CONTINUOUS
 10
3026.5
 20
-552.0812035995548
 30
0.0
 40
0.5
 50
90.0
 51
180.0
  0
LINE
  5
24625
  8
01
  6
CONTINUOUS
 10
3074.500012016297
 20
-551.5812037990436
 30
0.0
 11
3074.999975776673
 21
-551.5812037990436
 31
0.0
  0
ARC
  5
24626
  8
01
  6
CONTINUOUS
 10
3075.0
 20
-552.581203599555
 30
0.0
 40
1.0
 50
0.0
 51
90.0
  0
CIRCLE
  5
24ED0
  8
01
 10
3060.999977207184
 20
-559.0812028164983
 30
0.0
 40
2.25
  0
LINE
  5
24ED1
  8
1CENTER
 10
3057.624935591819
 20
-559.0811724652318
 30
0.0
 11
3064.374935591819
 21
-559.0811724652318
 31
0.0
  0
LINE
  5
24ED2
  8
1CENTER
 10
3060.999935591819
 20
-562.4561724652318
 30
0.0
 11
3060.999935591819
 21
-555.7061724652318
 31
0.0
  0
TEXT
  5
24ED6
  8
1TEXT
 10
3296.539097551753
 20
-137.3215231551155
 30
0.0
 40
24.0
  1
AC-906-※-812
 72
     2
 11
3569.51687532953
 21
-137.3215231551155
 31
0.0
 73
     1
  0
TEXT
  5
24ED7
  8
1TEXT
 10
3253.31687532953
 20
-168.8215231551155
 30
0.0
 40
12.0
  1
※には色品番が入ります。
 72
     2
 11
3414.51687532953
 21
-168.8215231551155
 31
0.0
 73
     1
  0
TEXT
  5
25BDF
  8
1TEXT
 10
3255.492519676548
 20
-199.8215231551158
 30
0.0
 40
12.0
  1
取付け可能な下地については取扱説明書をご参照ください。
 72
     2
 11
3632.692519676548
 21
-199.8215231551158
 31
0.0
 73
     1
  0
CIRCLE
  5
2618E
  8
01
 10
2310.999974226952
 20
-559.0812028164983
 30
0.0
 40
2.25
  0
LINE
  5
2618F
  8
1CENTER
 10
2314.375015842317
 20
-559.0811724652318
 30
0.0
 11
2307.625015842317
 21
-559.0811724652318
 31
0.0
  0
LINE
  5
26190
  8
1CENTER
 10
2311.000015842317
 20
-562.4561724652318
 30
0.0
 11
2311.000015842317
 21
-555.7061724652318
 31
0.0
  0
LINE
  5
261A4
  8
01
  6
CONTINUOUS
 10
3158.967225636839
 20
-324.9348612663813
 30
0.0
 11
3189.967228855489
 21
-324.9348612663813
 31
0.0
  0
LINE
  5
261A5
  8
01
  6
CONTINUOUS
 10
3157.967231060861
 20
-327.4348626074858
 30
0.0
 11
3157.967231060861
 21
-324.9348612663813
 31
0.0
  0
LINE
  5
261A6
  8
01
  6
CONTINUOUS
 10
3157.967231060861
 20
-324.9348612663813
 30
0.0
 11
3158.967225636839
 21
-324.9348612663813
 31
0.0
  0
LINE
  5
261A7
  8
01
  6
CONTINUOUS
 10
3190.967227156757
 20
-324.9348612663813
 30
0.0
 11
3190.967227156757
 21
-327.4348626074858
 31
0.0
  0
LINE
  5
261A8
  8
01
  6
CONTINUOUS
 10
3189.967228855489
 20
-324.9348612663813
 30
0.0
 11
3190.967227156757
 21
-324.9348612663813
 31
0.0
  0
LINE
  5
261A9
  8
01
  6
CONTINUOUS
 10
3189.967228855489
 20
-327.9348636207648
 30
0.0
 11
3158.967225636839
 21
-327.9348636207648
 31
0.0
  0
LINE
  5
261AA
  8
01
  6
CONTINUOUS
 10
3190.467229868768
 20
-327.9348636207648
 30
0.0
 11
3189.967228855489
 21
-327.9348636207648
 31
0.0
  0
ARC
  5
261AB
  8
01
  6
CONTINUOUS
 10
3190.467228994953
 20
-327.4348630357878
 30
0.0
 40
0.5
 50
270.0
 51
0.0
  0
LINE
  5
261AC
  8
01
  6
CONTINUOUS
 10
3158.967225636839
 20
-327.9348636207648
 30
0.0
 11
3158.46723207414
 21
-327.9348636207648
 31
0.0
  0
ARC
  5
261AD
  8
01
  6
CONTINUOUS
 10
3158.467228994953
 20
-327.4348630357878
 30
0.0
 40
0.5
 50
180.0
 51
270.0
  0
LINE
  5
261AE
  8
01
  6
CONTINUOUS
 10
3166.967226948141
 20
-423.4348597166605
 30
0.0
 11
3166.967226948141
 21
-327.9348636207648
 31
0.0
  0
LINE
  5
261AF
  8
01
  6
CONTINUOUS
 10
3181.967227544187
 20
-327.9348636207648
 30
0.0
 11
3181.967227544187
 21
-423.4348597166605
 31
0.0
  0
LINE
  5
261B0
  8
01
  6
CONTINUOUS
 10
3180.967225517629
 20
-424.9348627564974
 30
0.0
 11
3167.967228974699
 21
-424.9348627564974
 31
0.0
  0
LINE
  5
261B1
  8
01
  6
CONTINUOUS
 10
3181.967227544187
 20
-423.4348597166605
 30
0.0
 11
3181.967227544187
 21
-423.9348607299395
 31
0.0
  0
ARC
  5
261B2
  8
01
  6
CONTINUOUS
 10
3180.967228994953
 20
-423.9348630357878
 30
0.0
 40
1.0
 50
270.0
 51
0.0
  0
ARC
  5
261B3
  8
01
  6
CONTINUOUS
 10
3167.967228994953
 20
-423.9348630357878
 30
0.0
 40
1.0
 50
180.0
 51
270.0
  0
LINE
  5
261B4
  8
01
  6
CONTINUOUS
 10
3166.967226948141
 20
-423.9348607299395
 30
0.0
 11
3166.967226948141
 21
-423.4348597166605
 31
0.0
  0
LINE
  5
26227
  8
01
  6
CONTINUOUS
 10
3092.0
 20
-327.4348631813933
 30
0.0
 11
3092.0
 21
-324.9348631813933
 31
0.0
  0
ARC
  5
26228
  8
01
  6
CONTINUOUS
 10
3091.500000000001
 20
-327.4348631813933
 30
0.0
 40
0.5
 50
270.0
 51
0.0
  0
ARC
  5
26229
  8
01
  6
CONTINUOUS
 10
3030.500000000001
 20
-327.4348631813934
 30
0.0
 40
0.5
 50
180.0
 51
270.0
  0
LINE
  5
2622A
  8
01
  6
CONTINUOUS
 10
3030.000000000001
 20
-324.9348631813934
 30
0.0
 11
3030.000000000001
 21
-327.4348631813934
 31
0.0
  0
LINE
  5
2622B
  8
01
  6
CONTINUOUS
 10
3030.000000000001
 20
-324.9348631813934
 30
0.0
 11
3092.0
 21
-324.9348631813933
 31
0.0
  0
LINE
  5
2622C
  8
01
  6
CONTINUOUS
 10
3030.500000000001
 20
-327.9348631813934
 30
0.0
 11
3091.500000000001
 21
-327.9348631813933
 31
0.0
  0
LINE
  5
2623F
  8
1CENTER
 10
3061.0
 20
-300.2348631813933
 30
0.0
 11
3061.0
 21
-353.7348631813933
 31
0.0
  0
LINE
  5
26240
  8
1CENTER
 10
3174.467227246164
 20
-300.2348612663812
 30
0.0
 11
3174.467227246164
 21
-353.7348612663812
 31
0.0
  0
LINE
  5
26241
  8
01
  6
CONTINUOUS
 10
2347.249938464165
 20
-396.9348637548752
 30
0.0
 11
2347.249938464165
 21
-395.6577895370789
 31
0.0
  0
LINE
  5
26242
  8
01
  6
CONTINUOUS
 10
2347.249938464165
 20
-395.6577895370789
 30
0.0
 11
2347.249938464165
 21
-395.4348625776835
 31
0.0
  0
LINE
  5
26243
  8
01
  6
CONTINUOUS
 10
2346.000000452995
 20
-423.4348634419508
 30
0.0
 11
2346.000000452995
 21
-397.2348632452555
 31
0.0
  0
LINE
  5
26244
  8
01
  6
CONTINUOUS
 10
2346.000000452995
 20
-423.9348644552298
 30
0.0
 11
2346.000000452995
 21
-396.4348627415962
 31
0.0
  0
LINE
  5
26245
  8
01
  6
CONTINUOUS
 10
2346.000000452995
 20
-396.4348627415962
 30
0.0
 11
2346.000000452995
 21
-395.4348625776835
 31
0.0
  0
ARC
  5
26246
  8
01
  6
CONTINUOUS
 10
2345.499951434135
 20
-395.4348631813933
 30
0.0
 40
0.5
 50
0.0
 51
90.0
  0
LINE
  5
26247
  8
01
  6
CONTINUOUS
 10
2345.49991748333
 20
-394.9348634270497
 30
0.0
 11
2327.999993777275
 21
-394.9348634270497
 31
0.0
  0
ARC
  5
26248
  8
01
  6
CONTINUOUS
 10
2345.499951434135
 20
-424.4348631813933
 30
0.0
 40
0.5
 50
270.0
 51
0.0
  0
LINE
  5
26249
  8
01
  6
CONTINUOUS
 10
2346.000000452995
 20
-424.4348617432184
 30
0.0
 11
2346.000000452995
 21
-423.9348644552298
 31
0.0
  0
LINE
  5
2624A
  8
01
  6
CONTINUOUS
 10
2297.499939417839
 20
-424.9348627564974
 30
0.0
 11
2345.49991748333
 21
-424.9348627564974
 31
0.0
  0
ARC
  5
2624B
  8
01
  6
CONTINUOUS
 10
2327.999951434135
 20
-392.9348631813933
 30
0.0
 40
2.0
 50
180.0
 51
270.0
  0
LINE
  5
2624C
  8
01
  6
CONTINUOUS
 10
2325.999900317192
 20
-392.9348630992241
 30
0.0
 11
2325.999900317192
 21
-327.9348631813934
 31
0.0
  0
LINE
  5
2624D
  8
01
  6
CONTINUOUS
 10
2295.999928927421
 20
-327.9348631813934
 30
0.0
 11
2295.999928927421
 21
-423.4348634419508
 31
0.0
  0
ARC
  5
2624E
  8
01
  6
CONTINUOUS
 10
2297.499951434135
 20
-423.4348631813933
 30
0.0
 40
1.500000000000114
 50
180.0
 51
270.0
  0
LINE
  5
2624F
  8
01
  6
CONTINUOUS
 10
2279.999951434135
 20
-327.4348631813933
 30
0.0
 11
2279.999951434135
 21
-324.9348631813933
 31
0.0
  0
ARC
  5
26250
  8
01
  6
CONTINUOUS
 10
2280.499951434134
 20
-327.4348631813933
 30
0.0
 40
0.5
 50
180.0
 51
270.0
  0
ARC
  5
26251
  8
01
  6
CONTINUOUS
 10
2341.499951434134
 20
-327.4348631813934
 30
0.0
 40
0.5
 50
270.0
 51
0.0
  0
LINE
  5
26252
  8
01
  6
CONTINUOUS
 10
2341.999951434134
 20
-324.9348631813934
 30
0.0
 11
2341.999951434134
 21
-327.4348631813934
 31
0.0
  0
LINE
  5
26253
  8
01
  6
CONTINUOUS
 10
2341.999951434134
 20
-324.9348631813934
 30
0.0
 11
2279.999951434135
 21
-324.9348631813933
 31
0.0
  0
LINE
  5
26254
  8
01
  6
CONTINUOUS
 10
2341.499951434134
 20
-327.9348631813934
 30
0.0
 11
2280.499951434134
 21
-327.9348631813933
 31
0.0
  0
LINE
  5
26256
  8
1CENTER
 10
2310.999951434135
 20
-300.2348631813933
 30
0.0
 11
2310.999951434135
 21
-353.7348631813933
 31
0.0
  0
LINE
  5
2629F
  8
01
 10
3104.519826201456
 20
-324.9348631813933
 30
0.0
 11
2244.519826201456
 21
-324.9348631813947
 31
0.0
  0
LINE
  5
262A0
  8
01
 10
3104.519826201456
 20
-312.9348631813934
 30
0.0
 11
2244.519826201456
 21
-312.9348631813947
 31
0.0
  0
LINE
  5
262A8
  8
1HATCH
 10
3171.967227246164
 20
-342.9348612663817
 30
0.0
 11
3171.967227246164
 21
-312.9348612663813
 31
0.0
  0
LINE
  5
262A9
  8
1HATCH
 10
3176.967227246164
 20
-342.9348612663813
 30
0.0
 11
3176.967227246164
 21
-312.9348612663813
 31
0.0
  0
LINE
  5
262AA
  8
1HATCH
 10
3171.467227246164
 20
-342.4348612663813
 30
0.0
 11
3177.467227246164
 21
-342.4348612663813
 31
0.0
  0
LINE
  5
262AB
  8
01
 10
3171.467227246164
 20
-312.9348612663813
 30
0.0
 11
3177.467227246164
 21
-312.9348612663813
 31
0.0
  0
LINE
  5
262AC
  8
1HATCH
 10
3167.467227246164
 20
-312.4348612663813
 30
0.0
 11
3181.467227246164
 21
-312.4348612663812
 31
0.0
  0
LINE
  5
262AE
  8
1HATCH
 10
3058.500000000001
 20
-342.9348631813939
 30
0.0
 11
3058.500000000001
 21
-312.9348631813934
 31
0.0
  0
LINE
  5
262AF
  8
1HATCH
 10
3063.500000000001
 20
-342.9348631813934
 30
0.0
 11
3063.500000000001
 21
-312.9348631813934
 31
0.0
  0
LINE
  5
262B0
  8
1HATCH
 10
3058.000000000001
 20
-342.4348631813934
 30
0.0
 11
3064.000000000001
 21
-342.4348631813934
 31
0.0
  0
LINE
  5
262B1
  8
01
 10
3058.000000000001
 20
-312.9348631813934
 30
0.0
 11
3064.000000000001
 21
-312.9348631813934
 31
0.0
  0
LINE
  5
262B2
  8
1HATCH
 10
3054.000000000001
 20
-312.4348631813934
 30
0.0
 11
3068.000000000001
 21
-312.4348631813934
 31
0.0
  0
LINE
  5
262B4
  8
1HATCH
 10
2313.499951434134
 20
-342.9348631813939
 30
0.0
 11
2313.499951434134
 21
-312.9348631813934
 31
0.0
  0
LINE
  5
262B5
  8
1HATCH
 10
2308.499951434134
 20
-342.9348631813934
 30
0.0
 11
2308.499951434134
 21
-312.9348631813934
 31
0.0
  0
LINE
  5
262B6
  8
1HATCH
 10
2313.999951434134
 20
-342.4348631813934
 30
0.0
 11
2307.999951434134
 21
-342.4348631813934
 31
0.0
  0
LINE
  5
262B7
  8
01
 10
2313.999951434134
 20
-312.9348631813934
 30
0.0
 11
2307.999951434134
 21
-312.9348631813934
 31
0.0
  0
LINE
  5
262B8
  8
1HATCH
 10
2317.999951434134
 20
-312.4348631813934
 30
0.0
 11
2303.999951434134
 21
-312.4348631813934
 31
0.0
  0
LINE
  5
262B9
  8
01
 10
3171.467227246164
 20
-312.9348612663813
 30
0.0
 11
3171.467227246164
 21
-342.4348612663813
 31
0.0
  0
LINE
  5
262BA
  8
01
 10
3171.467227246164
 20
-342.4348612663813
 30
0.0
 11
3171.967227246164
 21
-342.9348612663813
 31
0.0
  0
LINE
  5
262BB
  8
01
 10
3171.967227246164
 20
-342.9348612663813
 30
0.0
 11
3176.967227246164
 21
-342.9348612663813
 31
0.0
  0
LINE
  5
262BC
  8
01
 10
3176.967227246164
 20
-342.9348612663813
 30
0.0
 11
3177.467227246164
 21
-342.4348612663813
 31
0.0
  0
LINE
  5
262BD
  8
01
 10
3177.467227246164
 20
-342.4348612663813
 30
0.0
 11
3177.467227246164
 21
-312.9348612663813
 31
0.0
  0
LINE
  5
262BE
  8
01
 10
3177.467227246164
 20
-312.9348612663813
 30
0.0
 11
3181.467227246164
 21
-312.9348612663813
 31
0.0
  0
LINE
  5
262BF
  8
01
 10
3181.467227246164
 20
-312.9348612663813
 30
0.0
 11
3181.467227246164
 21
-312.4348612663812
 31
0.0
  0
ARC
  5
262C0
  8
01
 10
3174.467227246164
 20
-318.491111266381
 30
0.0
 40
9.256249999999799
 50
40.86565735879647
 51
139.1343426412041
  0
LINE
  5
262C1
  8
01
 10
3167.467227246164
 20
-312.4348612663813
 30
0.0
 11
3167.467227246164
 21
-312.9348612663813
 31
0.0
  0
LINE
  5
262C2
  8
01
 10
3167.467227246164
 20
-312.9348612663813
 30
0.0
 11
3171.467227246164
 21
-312.9348612663813
 31
0.0
  0
LINE
  5
262C3
  8
01
 10
3058.000000000001
 20
-312.9348631813934
 30
0.0
 11
3058.000000000001
 21
-342.4348631813934
 31
0.0
  0
LINE
  5
262C4
  8
01
 10
3058.000000000001
 20
-342.4348631813934
 30
0.0
 11
3058.500000000001
 21
-342.9348631813934
 31
0.0
  0
LINE
  5
262C5
  8
01
 10
3058.500000000001
 20
-342.9348631813934
 30
0.0
 11
3063.500000000001
 21
-342.9348631813934
 31
0.0
  0
LINE
  5
262C6
  8
01
 10
3063.500000000001
 20
-342.9348631813934
 30
0.0
 11
3064.000000000001
 21
-342.4348631813934
 31
0.0
  0
LINE
  5
262C7
  8
01
 10
3064.000000000001
 20
-342.4348631813934
 30
0.0
 11
3064.000000000001
 21
-312.9348631813934
 31
0.0
  0
LINE
  5
262C8
  8
01
 10
3064.000000000001
 20
-312.9348631813934
 30
0.0
 11
3068.000000000001
 21
-312.9348631813934
 31
0.0
  0
LINE
  5
262C9
  8
01
 10
3068.000000000001
 20
-312.9348631813934
 30
0.0
 11
3068.000000000001
 21
-312.4348631813933
 31
0.0
  0
ARC
  5
262CA
  8
01
 10
3061.000000000001
 20
-318.4911131813931
 30
0.0
 40
9.256249999999799
 50
40.86565735879647
 51
139.1343426412041
  0
LINE
  5
262CB
  8
01
 10
3054.000000000001
 20
-312.4348631813934
 30
0.0
 11
3054.000000000001
 21
-312.9348631813934
 31
0.0
  0
LINE
  5
262CC
  8
01
 10
3054.000000000001
 20
-312.9348631813934
 30
0.0
 11
3058.000000000001
 21
-312.9348631813934
 31
0.0
  0
LINE
  5
262CD
  8
01
 10
2313.999951434134
 20
-342.4348631813934
 30
0.0
 11
2313.999951434134
 21
-312.9348631813934
 31
0.0
  0
LINE
  5
262CE
  8
01
 10
2313.999951434134
 20
-312.9348631813934
 30
0.0
 11
2317.999951434134
 21
-312.9348631813934
 31
0.0
  0
LINE
  5
262CF
  8
01
 10
2317.999951434134
 20
-312.9348631813934
 30
0.0
 11
2317.999951434134
 21
-312.4348631813934
 31
0.0
  0
ARC
  5
262D0
  8
01
 10
2310.999951434134
 20
-318.4911131813931
 30
0.0
 40
9.256249999999799
 50
40.86565735879594
 51
139.1343426412035
  0
LINE
  5
262D1
  8
01
 10
2303.999951434134
 20
-312.4348631813933
 30
0.0
 11
2303.999951434134
 21
-312.9348631813934
 31
0.0
  0
LINE
  5
262D2
  8
01
 10
2303.999951434134
 20
-312.9348631813934
 30
0.0
 11
2307.999951434134
 21
-312.9348631813934
 31
0.0
  0
LINE
  5
262D3
  8
01
 10
2307.999951434134
 20
-312.9348631813934
 30
0.0
 11
2307.999951434134
 21
-342.4348631813934
 31
0.0
  0
LINE
  5
262D4
  8
01
 10
2307.999951434134
 20
-342.4348631813934
 30
0.0
 11
2308.499951434134
 21
-342.9348631813934
 31
0.0
  0
LINE
  5
262D5
  8
01
 10
2308.499951434134
 20
-342.9348631813934
 30
0.0
 11
2313.499951434134
 21
-342.9348631813934
 31
0.0
  0
LINE
  5
262D6
  8
01
 10
2313.499951434134
 20
-342.9348631813934
 30
0.0
 11
2313.999951434134
 21
-342.4348631813934
 31
0.0
  0
LINE
  5
262D8
  8
1DIM
  6
BYBLOCK
 10
3011.511112605664
 20
-344.424139288827
 30
0.0
 11
2871.811112605664
 21
-344.424139288827
 31
0.0
  0
LINE
  5
262DA
  8
1DIM
  6
BYBLOCK
 10
3047.759706523513
 20
-386.9234783928678
 30
0.0
 11
3011.511112605664
 21
-344.424139288827
 31
0.0
  0
LINE
  5
262DC
  8
1DIM
  6
BYBLOCK
 10
2833.909673982277
 20
-344.074139288827
 30
0.0
 11
2757.559673982277
 21
-344.074139288827
 31
0.0
  0
LINE
  5
262DE
  8
1DIM
  6
BYBLOCK
 10
2888.196805111822
 20
-405.6714027067128
 30
0.0
 11
2833.909673982277
 21
-344.074139288827
 31
0.0
  0
LINE
  5
262E0
  8
1DIM
  6
BYBLOCK
 10
2722.09126203483
 20
-344.2557273413799
 30
0.0
 11
2647.49126203483
 21
-344.2557273413799
 31
0.0
  0
LINE
  5
262E2
  8
1DIM
  6
BYBLOCK
 10
2763.405028013898
 20
-390.941587117561
 30
0.0
 11
2722.09126203483
 21
-344.2557273413799
 31
0.0
  0
LINE
  5
262E3
  8
1DIM
 10
2977.562844395885
 20
-424.4348617432184
 30
0.0
 11
2974.562844395885
 21
-424.4348617432184
 31
0.0
1001
ACAD
1000
DSTYLE
1002
{
1070
    40
1040
3.0
1002
}
  0
LINE
  5
262E4
  8
1DIM
 10
2977.562844395885
 20
-395.4348625776835
 30
0.0
 11
2974.562844395885
 21
-395.4348625776835
 31
0.0
1001
ACAD
1000
DSTYLE
1002
{
1070
    40
1040
3.0
1002
}
  0
LINE
  5
262E5
  8
1DIM
 10
2977.562844395885
 20
-424.4348617432184
 30
0.0
 11
2977.562844395885
 21
-466.2848621604509
 31
0.0
1001
ACAD
1000
DSTYLE
1002
{
1070
    40
1040
3.0
1002
}
  0
LINE
  5
262E6
  8
1DIM
 10
2977.562844395885
 20
-418.4348617432184
 30
0.0
 11
2977.562844395885
 21
-401.4348625776835
 31
0.0
1001
ACAD
1000
DSTYLE
1002
{
1070
    40
1040
3.0
1002
}
  0
LINE
  5
262EA
  8
1DIM
 10
3005.65
 20
-552.0812035995548
 30
0.0
 11
3002.65
 21
-552.0812035995548
 31
0.0
1001
ACAD
1000
DSTYLE
1002
{
1070
    40
1040
3.0
1002
}
  0
LINE
  5
262EB
  8
1DIM
 10
3005.65
 20
-566.0812035995548
 30
0.0
 11
3002.65
 21
-566.0812035995548
 31
0.0
1001
ACAD
1000
DSTYLE
1002
{
1070
    40
1040
3.0
1002
}
  0
LINE
  5
262EC
  8
1DIM
 10
3005.65
 20
-552.0812035995548
 30
0.0
 11
3005.65
 21
-500.0812035995548
 31
0.0
1001
ACAD
1000
DSTYLE
1002
{
1070
    40
1040
3.0
1002
}
  0
LINE
  5
262ED
  8
1DIM
 10
3005.65
 20
-552.0812035995548
 30
0.0
 11
3005.65
 21
-566.0812035995548
 31
0.0
1001
ACAD
1000
DSTYLE
1002
{
1070
    40
1040
3.0
1002
}
  0
LINE
  5
262EE
  8
1DIM
 10
3005.65
 20
-546.0812035995548
 30
0.0
 11
3005.65
 21
-540.0812035995548
 31
0.0
1001
ACAD
1000
DSTYLE
1002
{
1070
    40
1040
3.0
1002
}
  0
LINE
  5
262EF
  8
1DIM
 10
3005.65
 20
-572.0812035995548
 30
0.0
 11
3005.65
 21
-578.0812035995548
 31
0.0
1001
ACAD
1000
DSTYLE
1002
{
1070
    40
1040
3.0
1002
}
  0
LINE
  5
262F3
  8
1DIM1
 10
3060.999969315528
 20
-309.234863181392
 30
0.0
 11
3060.999969315528
 21
-239.234863181392
 31
0.0
1001
ACAD
1000
DSTYLE
1002
{
1070
    70
1070
     0
1070
    69
1070
     0
1070
    40
1040
10.0
1002
}
  0
LINE
  5
262F4
  8
1DIM1
 10
2310.999951434134
 20
-309.2348631813934
 30
0.0
 11
2310.999951434134
 21
-239.234863181392
 31
0.0
1001
ACAD
1000
DSTYLE
1002
{
1070
    70
1070
     0
1070
    69
1070
     0
1070
    40
1040
10.0
1002
}
  0
LINE
  5
262F5
  8
1DIM1
 10
3040.999969315528
 20
-249.234863181392
 30
0.0
 11
2330.999951434134
 21
-249.234863181392
 31
0.0
1001
ACAD
1000
DSTYLE
1002
{
1070
    70
1070
     0
1070
    69
1070
     0
1070
    40
1040
10.0
1002
}
  0
LINE
  5
262F9
  8
1DIM1
 10
2279.999951434135
 20
-324.9348631813933
 30
0.0
 11
2279.999951434135
 21
-128.1393686792085
 31
0.0
1001
ACAD
1000
DSTYLE
1002
{
1070
    40
1040
10.0
1002
}
  0
LINE
  5
262FA
  8
1DIM1
 10
3092.0
 20
-324.9348631813933
 30
0.0
 11
3092.0
 21
-128.1393686792085
 31
0.0
1001
ACAD
1000
DSTYLE
1002
{
1070
    40
1040
10.0
1002
}
  0
LINE
  5
262FB
  8
1DIM1
 10
2299.999951434135
 20
-138.1393686792085
 30
0.0
 11
3072.0
 21
-138.1393686792085
 31
0.0
1001
ACAD
1000
DSTYLE
1002
{
1070
    40
1040
10.0
1002
}
  0
LINE
  5
262FF
  8
1DIM1
 10
2279.999951434135
 20
-324.9348631813933
 30
0.0
 11
2225.05
 21
-324.9348631813933
 31
0.0
1001
ACAD
1000
DSTYLE
1002
{
1070
   271
1070
     0
1070
    40
1040
10.0
1002
}
  0
LINE
  5
26300
  8
1DIM1
 10
2297.5
 20
-424.9348631813948
 30
0.0
 11
2225.05
 21
-424.9348631813948
 31
0.0
1001
ACAD
1000
DSTYLE
1002
{
1070
   271
1070
     0
1070
    40
1040
10.0
1002
}
  0
LINE
  5
26301
  8
1DIM1
 10
2235.05
 20
-344.9348631813933
 30
0.0
 11
2235.05
 21
-404.9348631813948
 31
0.0
1001
ACAD
1000
DSTYLE
1002
{
1070
   271
1070
     0
1070
    40
1040
10.0
1002
}
  0
LINE
  5
26305
  8
1DIM
 10
3157.967228499724
 20
-324.9348612663813
 30
0.0
 11
3157.967228499724
 21
-273.9348612663813
 31
0.0
1001
ACAD
1000
DSTYLE
1002
{
1070
    40
1040
3.0
1002
}
  0
LINE
  5
26306
  8
1DIM
 10
3190.967227156757
 20
-324.9348612663813
 30
0.0
 11
3190.967227156757
 21
-273.9348612663813
 31
0.0
1001
ACAD
1000
DSTYLE
1002
{
1070
    40
1040
3.0
1002
}
  0
LINE
  5
26307
  8
1DIM
 10
3163.967228499724
 20
-276.9348612663813
 30
0.0
 11
3184.967227156757
 21
-276.9348612663813
 31
0.0
1001
ACAD
1000
DSTYLE
1002
{
1070
    40
1040
3.0
1002
}
  0
LINE
  5
2630B
  8
1DIM
 10
3030.000000000001
 20
-324.9348631813934
 30
0.0
 11
3030.000000000001
 21
-273.4374405694649
 31
0.0
1001
ACAD
1000
DSTYLE
1002
{
1070
    40
1040
3.0
1002
}
  0
LINE
  5
2630C
  8
1DIM
 10
3092.000036239625
 20
-324.9348631813934
 30
0.0
 11
3092.000036239625
 21
-273.4374405694649
 31
0.0
1001
ACAD
1000
DSTYLE
1002
{
1070
    40
1040
3.0
1002
}
  0
LINE
  5
2630D
  8
1DIM
 10
3036.000000000001
 20
-276.4374405694649
 30
0.0
 11
3086.000036239625
 21
-276.4374405694649
 31
0.0
1001
ACAD
1000
DSTYLE
1002
{
1070
    40
1040
3.0
1002
}
  0
LINE
  5
26311
  8
1DIM1
 10
2295.999951434135
 20
-423.4348631813933
 30
0.0
 11
2295.999951434135
 21
-506.6393686792085
 31
0.0
1001
ACAD
1000
DSTYLE
1002
{
1070
    40
1040
10.0
1002
}
  0
LINE
  5
26312
  8
1DIM1
 10
3076.0
 20
-423.4348631813933
 30
0.0
 11
3076.0
 21
-506.6393686792085
 31
0.0
1001
ACAD
1000
DSTYLE
1002
{
1070
    40
1040
10.0
1002
}
  0
LINE
  5
26313
  8
1DIM1
 10
2315.999951434135
 20
-496.6393686792085
 30
0.0
 11
3056.0
 21
-496.6393686792085
 31
0.0
1001
ACAD
1000
DSTYLE
1002
{
1070
    40
1040
10.0
1002
}
  0
LINE
  5
26318
  8
1DIM1
  6
BYBLOCK
 10
2209.077130121153
 20
-226.547089280805
 30
0.0
 11
2094.077130121153
 21
-226.547089280805
 31
0.0
  0
LINE
  5
2631A
  8
1DIM1
  6
BYBLOCK
 10
2254.442497932431
 20
-298.6118945336373
 30
0.0
 11
2209.077130121153
 21
-226.547089280805
 31
0.0
  0
TEXT
  5
2631B
  8
1DIM
  6
CONTINUOUS
 10
2871.111112605664
 20
-342.324139288827
 30
0.0
 40
10.5
  1
材質：亜鉛ダイキャスト
  0
LINE
  5
2631C
  8
0
  6
BYBLOCK
 10
3048.982907541081
 20
-385.8801841228749
 30
0.0
 11
3051.653333781699
 21
-391.488526779721
 31
0.0
  0
LINE
  5
2631D
  8
0
  6
BYBLOCK
 10
3051.653333781699
 20
-391.488526779721
 30
0.0
 11
3046.536505505945
 21
-387.9667726628606
 31
0.0
  0
LINE
  5
2631E
  8
0
  6
BYBLOCK
 10
3051.653333781699
 20
-391.488526779721
 30
0.0
 11
3047.759706523513
 21
-386.9234783928678
 31
0.0
  0
TEXT
  5
2631F
  8
1DIM
  6
CONTINUOUS
 10
2756.859673982277
 20
-341.974139288827
 30
0.0
 40
10.5
  1
材質：アルミ
  0
LINE
  5
26320
  8
0
  6
BYBLOCK
 10
2889.40293142336
 20
-404.6084149439442
 30
0.0
 11
2892.163929486293
 21
-410.1727274225584
 31
0.0
  0
LINE
  5
26321
  8
0
  6
BYBLOCK
 10
2892.163929486293
 20
-410.1727274225584
 30
0.0
 11
2886.990678800285
 21
-406.7343904694814
 31
0.0
  0
LINE
  5
26322
  8
0
  6
BYBLOCK
 10
2892.163929486293
 20
-410.1727274225584
 30
0.0
 11
2888.196805111822
 21
-405.6714027067128
 31
0.0
  0
TEXT
  5
26323
  8
1DIM
  6
CONTINUOUS
 10
2646.79126203483
 20
-342.1557273413799
 30
0.0
 40
10.5
  1
材質：PVC
  0
LINE
  5
26324
  8
0
  6
BYBLOCK
 10
2764.608997533885
 20
-389.8761571301275
 30
0.0
 11
2767.381266894984
 21
-395.4348625776835
 31
0.0
  0
LINE
  5
26325
  8
0
  6
BYBLOCK
 10
2767.381266894984
 20
-395.4348625776835
 30
0.0
 11
2762.201058493911
 21
-392.0070171049946
 31
0.0
  0
LINE
  5
26326
  8
0
  6
BYBLOCK
 10
2767.381266894984
 20
-395.4348625776835
 30
0.0
 11
2763.405028013898
 21
-390.941587117561
 31
0.0
  0
LINE
  5
26327
  8
0
  6
BYBLOCK
 10
2979.170539535885
 20
-418.4348617432184
 30
0.0
 11
2977.562844395885
 21
-424.4348617432184
 31
0.0
  0
LINE
  5
26328
  8
0
  6
BYBLOCK
 10
2977.562844395885
 20
-424.4348617432184
 30
0.0
 11
2975.955149255885
 21
-418.4348617432184
 31
0.0
  0
LINE
  5
26329
  8
0
  6
BYBLOCK
 10
2977.562844395885
 20
-424.4348617432184
 30
0.0
 11
2977.562844395885
 21
-418.4348617432184
 31
0.0
  0
LINE
  5
2632A
  8
0
  6
BYBLOCK
 10
2975.955149255885
 20
-401.4348625776835
 30
0.0
 11
2977.562844395885
 21
-395.4348625776835
 31
0.0
  0
LINE
  5
2632B
  8
0
  6
BYBLOCK
 10
2977.562844395885
 20
-395.4348625776835
 30
0.0
 11
2979.170539535885
 21
-401.4348625776835
 31
0.0
  0
LINE
  5
2632C
  8
0
  6
BYBLOCK
 10
2977.562844395885
 20
-395.4348625776835
 30
0.0
 11
2977.562844395885
 21
-401.4348625776835
 31
0.0
  0
TEXT
  5
2632D
  8
1DIM
  6
CONTINUOUS
 10
2975.462844395885
 20
-464.6872927160066
 30
0.0
 40
10.5
  1
29
 50
90.0
1001
ACAD
1000
DSTYLE
1002
{
1070
    40
1040
3.0
1002
}
  0
LINE
  5
2632E
  8
0
  6
BYBLOCK
 10
3007.25769514
 20
-546.0812035995548
 30
0.0
 11
3005.65
 21
-552.0812035995548
 31
0.0
  0
LINE
  5
2632F
  8
0
  6
BYBLOCK
 10
3005.65
 20
-552.0812035995548
 30
0.0
 11
3004.04230486
 21
-546.0812035995548
 31
0.0
  0
LINE
  5
26330
  8
0
  6
BYBLOCK
 10
3005.65
 20
-552.0812035995548
 30
0.0
 11
3005.65
 21
-546.0812035995548
 31
0.0
  0
LINE
  5
26331
  8
0
  6
BYBLOCK
 10
3004.04230486
 20
-572.0812035995548
 30
0.0
 11
3005.65
 21
-566.0812035995548
 31
0.0
  0
LINE
  5
26332
  8
0
  6
BYBLOCK
 10
3005.65
 20
-566.0812035995548
 30
0.0
 11
3007.25769514
 21
-572.0812035995548
 31
0.0
  0
LINE
  5
26333
  8
0
  6
BYBLOCK
 10
3005.65
 20
-566.0812035995548
 30
0.0
 11
3005.65
 21
-572.0812035995548
 31
0.0
  0
TEXT
  5
26334
  8
1DIM
  6
CONTINUOUS
 10
3003.55
 20
-517.1812035995545
 30
0.0
 40
10.5
  1
14
 50
90.0
1001
ACAD
1000
DSTYLE
1002
{
1070
    40
1040
3.0
1002
}
  0
LINE
  5
26335
  8
0
  6
BYBLOCK
 10
3040.999969315528
 20
-243.875879381392
 30
0.0
 11
3060.999969315528
 21
-249.234863181392
 31
0.0
  0
LINE
  5
26336
  8
0
  6
BYBLOCK
 10
3060.999969315528
 20
-249.234863181392
 30
0.0
 11
3040.999969315528
 21
-254.593846981392
 31
0.0
  0
LINE
  5
26337
  8
0
  6
BYBLOCK
 10
3060.999969315528
 20
-249.234863181392
 30
0.0
 11
3040.999969315528
 21
-249.234863181392
 31
0.0
  0
LINE
  5
26338
  8
0
  6
BYBLOCK
 10
2330.999951434134
 20
-254.593846981392
 30
0.0
 11
2310.999951434134
 21
-249.234863181392
 31
0.0
  0
LINE
  5
26339
  8
0
  6
BYBLOCK
 10
2310.999951434134
 20
-249.234863181392
 30
0.0
 11
2330.999951434134
 21
-243.875879381392
 31
0.0
  0
LINE
  5
2633A
  8
0
  6
BYBLOCK
 10
2310.999951434134
 20
-249.234863181392
 30
0.0
 11
2330.999951434134
 21
-249.234863181392
 31
0.0
  0
TEXT
  5
2633B
  8
1DIM1
  6
CONTINUOUS
 10
2623.899265930387
 20
-242.234863181392
 30
0.0
 40
35.0
  1
P750
1001
ACAD
1000
DSTYLE
1002
{
1070
    70
1070
     0
1070
    69
1070
     0
1070
    40
1040
10.0
1002
}
  0
LINE
  5
2633C
  8
0
  6
BYBLOCK
 10
2299.999951434135
 20
-143.4983524792085
 30
0.0
 11
2279.999951434135
 21
-138.1393686792085
 31
0.0
  0
LINE
  5
2633D
  8
0
  6
BYBLOCK
 10
2279.999951434135
 20
-138.1393686792085
 30
0.0
 11
2299.999951434135
 21
-132.7803848792085
 31
0.0
  0
LINE
  5
2633E
  8
0
  6
BYBLOCK
 10
2279.999951434135
 20
-138.1393686792085
 30
0.0
 11
2299.999951434135
 21
-138.1393686792085
 31
0.0
  0
LINE
  5
2633F
  8
0
  6
BYBLOCK
 10
3072.0
 20
-132.7803848792085
 30
0.0
 11
3092.0
 21
-138.1393686792085
 31
0.0
  0
LINE
  5
26340
  8
0
  6
BYBLOCK
 10
3092.0
 20
-138.1393686792085
 30
0.0
 11
3072.0
 21
-143.4983524792085
 31
0.0
  0
LINE
  5
26341
  8
0
  6
BYBLOCK
 10
3092.0
 20
-138.1393686792085
 30
0.0
 11
3072.0
 21
-138.1393686792085
 31
0.0
  0
TEXT
  5
26342
  8
1DIM1
  6
CONTINUOUS
 10
2645.166647032896
 20
-131.1393686792085
 30
0.0
 40
35.0
  1
812
1001
ACAD
1000
DSTYLE
1002
{
1070
    40
1040
10.0
1002
}
  0
LINE
  5
26343
  8
0
  6
BYBLOCK
 10
2229.6910162
 20
-344.9348631813933
 30
0.0
 11
2235.05
 21
-324.9348631813933
 31
0.0
  0
LINE
  5
26344
  8
0
  6
BYBLOCK
 10
2235.05
 20
-324.9348631813933
 30
0.0
 11
2240.4089838
 21
-344.9348631813933
 31
0.0
  0
LINE
  5
26345
  8
0
  6
BYBLOCK
 10
2235.05
 20
-324.9348631813933
 30
0.0
 11
2235.05
 21
-344.9348631813933
 31
0.0
  0
LINE
  5
26346
  8
0
  6
BYBLOCK
 10
2240.4089838
 20
-404.9348631813948
 30
0.0
 11
2235.05
 21
-424.9348631813948
 31
0.0
  0
LINE
  5
26347
  8
0
  6
BYBLOCK
 10
2235.05
 20
-424.9348631813948
 30
0.0
 11
2229.6910162
 21
-404.9348631813948
 31
0.0
  0
LINE
  5
26348
  8
0
  6
BYBLOCK
 10
2235.05
 20
-424.9348631813948
 30
0.0
 11
2235.05
 21
-404.9348631813948
 31
0.0
  0
TEXT
  5
26349
  8
1DIM1
  6
CONTINUOUS
 10
2228.05
 20
-410.6640298480606
 30
0.0
 40
35.0
  1
100
 50
90.0
1001
ACAD
1000
DSTYLE
1002
{
1070
   271
1070
     0
1070
    40
1040
10.0
1002
}
  0
LINE
  5
2634A
  8
0
  6
BYBLOCK
 10
3163.967228499724
 20
-278.5425564063813
 30
0.0
 11
3157.967228499724
 21
-276.9348612663813
 31
0.0
  0
LINE
  5
2634B
  8
0
  6
BYBLOCK
 10
3157.967228499724
 20
-276.9348612663813
 30
0.0
 11
3163.967228499724
 21
-275.3271661263813
 31
0.0
  0
LINE
  5
2634C
  8
0
  6
BYBLOCK
 10
3157.967228499724
 20
-276.9348612663813
 30
0.0
 11
3163.967228499724
 21
-276.9348612663813
 31
0.0
  0
LINE
  5
2634D
  8
0
  6
BYBLOCK
 10
3184.967227156757
 20
-275.3271661263813
 30
0.0
 11
3190.967227156757
 21
-276.9348612663813
 31
0.0
  0
LINE
  5
2634E
  8
0
  6
BYBLOCK
 10
3190.967227156757
 20
-276.9348612663813
 30
0.0
 11
3184.967227156757
 21
-278.5425564063813
 31
0.0
  0
LINE
  5
2634F
  8
0
  6
BYBLOCK
 10
3190.967227156757
 20
-276.9348612663813
 30
0.0
 11
3184.967227156757
 21
-276.9348612663813
 31
0.0
  0
TEXT
  5
26350
  8
1DIM
  6
CONTINUOUS
 10
3165.717227828241
 20
-274.8348612663813
 30
0.0
 40
10.5
  1
33
1001
ACAD
1000
DSTYLE
1002
{
1070
    40
1040
3.0
1002
}
  0
LINE
  5
26351
  8
0
  6
BYBLOCK
 10
3036.000000000001
 20
-278.0451357094648
 30
0.0
 11
3030.000000000001
 21
-276.4374405694649
 31
0.0
  0
LINE
  5
26352
  8
0
  6
BYBLOCK
 10
3030.000000000001
 20
-276.4374405694649
 30
0.0
 11
3036.000000000001
 21
-274.8297454294649
 31
0.0
  0
LINE
  5
26353
  8
0
  6
BYBLOCK
 10
3030.000000000001
 20
-276.4374405694649
 30
0.0
 11
3036.000000000001
 21
-276.4374405694649
 31
0.0
  0
LINE
  5
26354
  8
0
  6
BYBLOCK
 10
3086.000036239625
 20
-274.8297454294649
 30
0.0
 11
3092.000036239625
 21
-276.4374405694649
 31
0.0
  0
LINE
  5
26355
  8
0
  6
BYBLOCK
 10
3092.000036239625
 20
-276.4374405694649
 30
0.0
 11
3086.000036239625
 21
-278.0451357094648
 31
0.0
  0
LINE
  5
26356
  8
0
  6
BYBLOCK
 10
3092.000036239625
 20
-276.4374405694649
 30
0.0
 11
3086.000036239625
 21
-276.4374405694649
 31
0.0
  0
TEXT
  5
26357
  8
1DIM
  6
CONTINUOUS
 10
3052.213559786479
 20
-274.3374405694648
 30
0.0
 40
10.5
  1
62
1001
ACAD
1000
DSTYLE
1002
{
1070
    40
1040
3.0
1002
}
  0
LINE
  5
26358
  8
0
  6
BYBLOCK
 10
2315.999951434135
 20
-501.9983524792084
 30
0.0
 11
2295.999951434135
 21
-496.6393686792085
 31
0.0
  0
LINE
  5
26359
  8
0
  6
BYBLOCK
 10
2295.999951434135
 20
-496.6393686792085
 30
0.0
 11
2315.999951434135
 21
-491.2803848792085
 31
0.0
  0
LINE
  5
2635A
  8
0
  6
BYBLOCK
 10
2295.999951434135
 20
-496.6393686792085
 30
0.0
 11
2315.999951434135
 21
-496.6393686792085
 31
0.0
  0
LINE
  5
2635B
  8
0
  6
BYBLOCK
 10
3056.0
 20
-491.2803848792085
 30
0.0
 11
3076.0
 21
-496.6393686792085
 31
0.0
  0
LINE
  5
2635C
  8
0
  6
BYBLOCK
 10
3076.0
 20
-496.6393686792085
 30
0.0
 11
3056.0
 21
-501.9983524792084
 31
0.0
  0
LINE
  5
2635D
  8
0
  6
BYBLOCK
 10
3076.0
 20
-496.6393686792085
 30
0.0
 11
3056.0
 21
-496.6393686792085
 31
0.0
  0
TEXT
  5
2635E
  8
1DIM1
  6
CONTINUOUS
 10
2657.520813699562
 20
-489.6393686792085
 30
0.0
 40
35.0
  1
780
1001
ACAD
1000
DSTYLE
1002
{
1070
    40
1040
10.0
1002
}
  0
TEXT
  5
2635F
  8
1DIM1
  6
CONTINUOUS
 10
2092.677130121153
 20
-218.147089280805
 30
0.0
 40
42.0
  1
棚板
  0
LINE
  5
26360
  8
0
  6
BYBLOCK
 10
2259.884734189044
 20
-295.1859635451203
 30
0.0
 11
2267.228246560807
 21
-318.9225969343909
 31
0.0
  0
LINE
  5
26361
  8
0
  6
BYBLOCK
 10
2267.228246560807
 20
-318.9225969343909
 30
0.0
 11
2249.000261675818
 21
-302.0378255221542
 31
0.0
  0
LINE
  5
26362
  8
0
  6
BYBLOCK
 10
2267.228246560807
 20
-318.9225969343909
 30
0.0
 11
2254.442497932431
 21
-298.6118945336373
 31
0.0
  0
VIEWPORT
  5
57
 67
     1
  8
0
 10
0.0
 20
0.0
 30
0.0
 40
544.3287197231834
 41
297.0000000000001
 68
     1
 69
     1
1001
ACAD
1000
MVIEW
1002
{
1070
    16
1010
0.0
1020
0.0
1030
0.0
1010
0.0
1020
0.0
1030
1.0
1040
0.0
1040
297.0000000000001
1040
-4.171999999925333
1040
12.83903210976956
1040
50.0
1040
0.0
1040
0.0
1070
    16
1070
    20
1070
     0
1070
     1
1070
     0
1070
     0
1070
     0
1070
     0
1040
0.0
1040
0.0
1040
0.0
1040
10.0
1040
10.0
1040
10.0
1040
10.0
1070
     0
1002
{
1002
}
1002
}
  0
ENDSEC
  0
EOF
