  0
SECTION
  2
HEADER
  9
$ACADVER
  1
AC1009
  9
$DWGCODEPAGE
  3
ansi_932
  9
$INSBASE
 10
0.0
 20
0.0
 30
0.0
  9
$EXTMIN
 10
-230.7919191183269
 20
-640.0812035995548
 30
0.0
  9
$EXTMAX
 10
3190.967226748647
 20
597.5587563806807
 30
0.0000000000060347
  9
$LIMMIN
 10
0.0
 20
0.0
  9
$LIMMAX
 10
420.0
 20
297.0
  9
$ORTHOMODE
 70
     0
  9
$REGENMODE
 70
     1
  9
$FILLMODE
 70
     1
  9
$QTEXTMODE
 70
     0
  9
$MIRRTEXT
 70
     0
  9
$DRAGMODE
 70
     2
  9
$LTSCALE
 40
0.5
  9
$OSMODE
 70
  2175
  9
$ATTMODE
 70
     1
  9
$TEXTSIZE
 40
4.0
  9
$TRACEWID
 40
1.0
  9
$TEXTSTYLE
  7
STANDARD
  9
$CLAYER
  8
1TEXT
  9
$CELTYPE
  6
BYLAYER
  9
$CECOLOR
 62
   256
  9
$DIMSCALE
 40
1.0
  9
$DIMASZ
 40
2.0
  9
$DIMEXO
 40
0.0
  9
$DIMDLI
 40
7.0
  9
$DIMRND
 40
0.0
  9
$DIMDLE
 40
0.0
  9
$DIMEXE
 40
1.0
  9
$DIMTP
 40
0.0
  9
$DIMTM
 40
0.0
  9
$DIMTXT
 40
3.5
  9
$DIMCEN
 40
0.0
  9
$DIMTSZ
 40
0.0
  9
$DIMTOL
 70
     0
  9
$DIMLIM
 70
     0
  9
$DIMTIH
 70
     0
  9
$DIMTOH
 70
     0
  9
$DIMSE1
 70
     0
  9
$DIMSE2
 70
     0
  9
$DIMTAD
 70
     1
  9
$DIMZIN
 70
     8
  9
$DIMBLK
  1

  9
$DIMASO
 70
     1
  9
$DIMSHO
 70
     1
  9
$DIMPOST
  1
 
  9
$DIMAPOST
  1

  9
$DIMALT
 70
     0
  9
$DIMALTD
 70
     2
  9
$DIMALTF
 40
25.4
  9
$DIMLFAC
 40
1.0
  9
$DIMTOFL
 70
     1
  9
$DIMTVP
 40
0.0
  9
$DIMTIX
 70
     0
  9
$DIMSOXD
 70
     0
  9
$DIMSAH
 70
     1
  9
$DIMBLK1
  1
OPEN30
  9
$DIMBLK2
  1
OPEN30
  9
$DIMSTYLE
  2
NEWX10
  9
$DIMCLRD
 70
     0
  9
$DIMCLRE
 70
     0
  9
$DIMCLRT
 70
   201
  9
$DIMTFAC
 40
0.7
  9
$DIMGAP
 40
0.7
  9
$LUNITS
 70
     2
  9
$LUPREC
 70
     4
  9
$SKETCHINC
 40
1.0
  9
$FILLETRAD
 40
0.0
  9
$AUNITS
 70
     0
  9
$AUPREC
 70
     2
  9
$MENU
  1
acad
  9
$ELEVATION
 40
0.0
  9
$PELEVATION
 40
0.0
  9
$THICKNESS
 40
0.0
  9
$LIMCHECK
 70
     0
  9
$CHAMFERA
 40
1.0
  9
$CHAMFERB
 40
1.0
  9
$SKPOLY
 70
     0
  9
$TDCREATE
 40
2453033.732663484
  9
$TDUPDATE
 40
2460714.68536787
  9
$TDINDWG
 40
5.9965249884
  9
$TDUSRTIMER
 40
5.996525
  9
$USRTIMER
 70
     1
  9
$ANGBASE
 50
0.0
  9
$ANGDIR
 70
     0
  9
$PDMODE
 70
     0
  9
$PDSIZE
 40
0.0
  9
$PLINEWID
 40
0.0
  9
$COORDS
 70
     2
  9
$SPLFRAME
 70
     0
  9
$SPLINETYPE
 70
     6
  9
$SPLINESEGS
 70
     8
  9
$ATTDIA
 70
     0
  9
$ATTREQ
 70
     1
  9
$HANDLING
 70
     1
  9
$HANDSEED
  5
26255
  9
$SURFTAB1
 70
     6
  9
$SURFTAB2
 70
     6
  9
$SURFTYPE
 70
     6
  9
$SURFU
 70
     6
  9
$SURFV
 70
     6
  9
$UCSNAME
  2

  9
$UCSORG
 10
0.0
 20
0.0
 30
0.0
  9
$UCSXDIR
 10
1.0
 20
0.0
 30
0.0
  9
$UCSYDIR
 10
0.0
 20
1.0
 30
0.0
  9
$PUCSNAME
  2

  9
$PUCSORG
 10
0.0
 20
0.0
 30
0.0
  9
$PUCSXDIR
 10
1.0
 20
0.0
 30
0.0
  9
$PUCSYDIR
 10
0.0
 20
1.0
 30
0.0
  9
$USERI1
 70
     0
  9
$USERI2
 70
     0
  9
$USERI3
 70
     0
  9
$USERI4
 70
     0
  9
$USERI5
 70
     0
  9
$USERR1
 40
0.0
  9
$USERR2
 40
0.0
  9
$USERR3
 40
0.0
  9
$USERR4
 40
0.0
  9
$USERR5
 40
0.0
  9
$WORLDVIEW
 70
     1
  9
$SHADEDGE
 70
     3
  9
$SHADEDIF
 70
    70
  9
$TILEMODE
 70
     1
  9
$MAXACTVP
 70
    48
  9
$PLIMCHECK
 70
     0
  9
$PEXTMIN
 10
1.000000000000000E+20
 20
1.000000000000000E+20
 30
1.000000000000000E+20
  9
$PEXTMAX
 10
-1.000000000000000E+20
 20
-1.000000000000000E+20
 30
-1.000000000000000E+20
  9
$PLIMMIN
 10
0.0
 20
0.0
  9
$PLIMMAX
 10
420.0
 20
297.0
  9
$UNITMODE
 70
     0
  9
$VISRETAIN
 70
     1
  9
$PLINEGEN
 70
     0
  9
$PSLTSCALE
 70
     1
  0
ENDSEC
  0
SECTION
  2
TABLES
  0
TABLE
  2
VPORT
 70
     1
  0
VPORT
  2
*ACTIVE
 70
     0
 10
0.0
 20
0.0
 11
1.0
 21
1.0
 12
1480.08765381516
 22
-21.26122360943702
 13
0.0
 23
0.0
 14
10.0
 24
10.0
 15
10.0
 25
10.0
 16
0.0
 26
0.0
 36
1.0
 17
0.0
 27
0.0
 37
0.0
 40
2357.70655892789
 41
1.558246828143022
 42
50.0
 43
0.0
 44
0.0
 50
0.0
 51
0.0
 71
    16
 72
    20
 73
     1
 74
     1
 75
     0
 76
     0
 77
     0
 78
     0
  0
ENDTAB
  0
TABLE
  2
LTYPE
 70
    19
  0
LTYPE
  2
CONTINUOUS
 70
     0
  3
Solid line
 72
    65
 73
     0
 40
0.0
  0
LTYPE
  2
CENTER2
 70
     0
  3
Center (.5x) ___ _ ___ _ ___ _ ___ _ ___ _ ___
 72
    65
 73
     4
 40
28.575
 49
19.05
 49
-3.175
 49
3.175
 49
-3.175
  0
LTYPE
  2
PHANTOM2
 70
     0
  3
Phantom (0.5x) ___ _ _ ___ _ _ ___ _ _ ___ _ _
 72
    65
 73
     6
 40
31.75
 49
15.875
 49
-3.175
 49
3.175
 49
-3.175
 49
3.175
 49
-3.175
  0
ENDTAB
  0
TABLE
  2
LAYER
 70
    45
  0
LAYER
  2
0
 70
     0
 62
     7
  6
CONTINUOUS
  0
LAYER
  2
1CENTER
 70
     0
 62
     7
  6
CENTER2
  0
LAYER
  2
1TEXT
 70
     0
 62
     7
  6
CONTINUOUS
  0
LAYER
  2
1DIM
 70
     0
 62
     7
  6
CONTINUOUS
  0
LAYER
  2
01
 70
     0
 62
     1
  6
CONTINUOUS
  0
LAYER
  2
1DIM1
 70
     0
 62
     7
  6
CONTINUOUS
  0
LAYER
  2
1HATCH
 70
     0
 62
     7
  6
CONTINUOUS
  0
ENDTAB
  0
TABLE
  2
STYLE
 70
    28
  0
STYLE
  2
STANDARD
 70
     0
 40
0.0
 41
1.0
 50
0.0
 71
     0
 42
4.0
  3
txt.shx
  4
extfont.shx
  0
ENDTAB
  0
TABLE
  2
VIEW
 70
     0
  0
ENDTAB
  0
TABLE
  2
UCS
 70
     5
  0
UCS
  2
U
 70
     0
 10
0.0
 20
0.0
 30
0.0
 11
1.0
 21
0.0
 31
0.0
 12
0.0
 22
6.123233995736766E-17
 32
1.0
  0
UCS
  2
L
 70
     0
 10
0.0
 20
0.0
 30
0.0
 11
-1.836970198721030E-16
 21
-1.0
 31
6.123233995736766E-17
 12
0.0
 22
6.123233995736766E-17
 32
1.0
  0
UCS
  2
R
 70
     0
 10
0.0
 20
0.0
 30
0.0
 11
3.061616997868383E-16
 21
1.0
 31
-6.123233995736766E-17
 12
0.0
 22
6.123233995736766E-17
 32
1.0
  0
UCS
  2
ISOME
 70
     0
 10
0.0
 20
0.0
 30
0.0
 11
0.7071450863198264
 21
-0.7070684729403536
 31
-3.830824619471818E-5
 12
0.4082704059428736
 22
0.408270407740115
 32
0.8164744636514737
  0
UCS
  2
PERSPECTIVE
 70
     0
 10
0.0
 20
0.0
 30
0.0
 11
0.8191477691768962
 21
-0.5735823260466401
 31
-0.0004974931557765738
 12
0.1584844715982971
 22
0.2255020289861079
 32
0.961265575782966
  0
ENDTAB
  0
TABLE
  2
APPID
 70
    31
  0
APPID
  2
ACAD
 70
     0
  0
APPID
  2
DRAWINGVARIABLESXDATA
 70
     0
  0
APPID
  2
CONTENTTABDATA
 70
     0
  0
APPID
  2
CONTENTCURRENTTAB
 70
     0
  0
APPID
  2
CONTENTBLOCKDESCRIPTION
 70
     0
  0
APPID
  2
CONTENTBLOCKICON
 70
     0
  0
APPID
  2
CONTENTLONGBLOCKNAME
 70
     0
  0
APPID
  2
ACAD_PSEXT
 70
     0
  0
APPID
  2
ACAD_DSTYLE_DIMTEXT_FILL
 70
     0
  0
APPID
  2
ACAD_MLEADERVER
 70
     0
  0
APPID
  2
ACAD_DSTYLE_DIMRADIAL_EXTE
 70
     0
  0
APPID
  2
ACADANNOTATIVE
 70
     0
  0
APPID
  2
ACAD_EXEMPT_FROM_CAD_STAND
 70
     0
  0
APPID
  2
ACDBBLOCKREPETAG
 70
     0
  0
APPID
  2
ACAD_OBJECT_CHANGE_GUID
 70
     0
  0
APPID
  2
ACAD_NAV_VCDISPLAY
 70
     0
  0
APPID
  2
ACLAYERTOOLS
 70
     0
  0
APPID
  2
ACDBDYNAMICBLOCKGUID
 70
     0
  0
APPID
  2
ACDBDYNAMICBLOCKTRUENAME
 70
     0
  0
APPID
  2
ACDBBLOCKREPBTAG
 70
     0
  0
APPID
  2
ACAUTHENVIRON
 70
     0
  0
APPID
  2
ACADANNOPO
 70
     0
  0
APPID
  2
ACAECLAYERSTANDARD
 70
     0
  0
APPID
  2
ACAD_DSTYLE_DIMJOGGED_JOGA
 70
     0
  0
APPID
  2
ACAD_DSTYLE_DIM_LINETYPE
 70
     0
  0
APPID
  2
ACAD_DSTYLE_DIM_EXT1_LINET
 70
     0
  0
APPID
  2
ACAD_DSTYLE_DIM_EXT2_LINET
 70
     0
  0
APPID
  2
ACAD_DIMASSOC_CALC_DIMLFAC
 70
     0
  0
APPID
  2
ACAD_DIMASSOC_DIMLFAC
 70
     0
  0
APPID
  2
ACAD_DIMASSOC_OVERRIDDEN_D
 70
     0
  0
APPID
  2
ACADANNOTATIVEDECOMPOSITIO
 70
     0
  0
ENDTAB
  0
TABLE
  2
DIMSTYLE
 70
    11
  0
DIMSTYLE
  2
NEWX10
 70
     0
  3
 
  4

  5

  6
OPEN30
  7
OPEN30
 40
1.0
 41
2.0
 42
0.0
 43
7.0
 44
1.0
 45
0.0
 46
0.0
 47
0.0
 48
0.0
140
3.5
141
0.0
142
0.0
143
25.4
144
1.0
145
0.0
146
0.7
147
0.7
 71
     0
 72
     0
 73
     0
 74
     0
 75
     0
 76
     0
 77
     1
 78
     8
170
     0
171
     2
172
     1
173
     1
174
     0
175
     0
176
     0
177
     0
178
   201
  0
DIMSTYLE
  2
ISO-25
 70
     0
  3

  4

  5

  6

  7

 40
1.0
 41
20.0
 42
3.0
 43
3.75
 44
2.0
 45
0.0
 46
0.0
 47
0.0
 48
0.0
140
30.0
141
5.0
142
0.0
143
0.03937
144
1.0
145
0.0
146
1.0
147
8.0
 71
     0
 72
     0
 73
     0
 74
     0
 75
     0
 76
     0
 77
     1
 78
     8
170
     0
171
     3
172
     1
173
     0
174
     0
175
     0
176
     1
177
     1
178
     1
  0
ENDTAB
  0
ENDSEC
  0
SECTION
  2
BLOCKS
  0
BLOCK
  8
0
  2
$MODEL_SPACE
 70
     0
 10
0.0
 20
0.0
 30
0.0
  3
$MODEL_SPACE
  1

  0
ENDBLK
  5
1A
  8
0
  0
BLOCK
 67
     1
  8
0
  2
$PAPER_SPACE
 70
     0
 10
0.0
 20
0.0
 30
0.0
  3
$PAPER_SPACE
  1

  0
ENDBLK
  5
17
 67
     1
  8
0
  0
BLOCK
  8
0
  2
_OPEN30
 70
     0
 10
0.0
 20
0.0
 30
0.0
  3
_OPEN30
  1

  0
LINE
  5
44
  8
0
  6
BYBLOCK
 62
     0
 10
-1.0
 20
0.26794919
 30
0.0
 11
0.0
 21
0.0
 31
0.0
  0
LINE
  5
45
  8
0
  6
BYBLOCK
 62
     0
 10
0.0
 20
0.0
 30
0.0
 11
-1.0
 21
-0.26794919
 31
0.0
  0
LINE
  5
46
  8
0
  6
BYBLOCK
 62
     0
 10
0.0
 20
0.0
 30
0.0
 11
-1.0
 21
0.0
 31
0.0
  0
ENDBLK
  5
47
  8
0
  0
BLOCK
  8
0
  2
A3WAKUKAWAJUN2017_HYOUDAI_
 70
     0
 10
0.0
 20
0.0
 30
0.0
  3
A3WAKUKAWAJUN2017_HYOUDAI_
  1

  0
LINE
  5
20318
  8
0
 10
13.26299999998673
 20
-0.0001000000000317
 30
0.0
 11
9.236999999990758
 21
8.999899999990987
 31
0.0
1001
ACAD
1000
ASC_BOUNDS
1002
{
1070
    19
1005
20359
1002
}
  0
LINE
  5
20319
  8
0
 10
5.657999999994331
 20
0.9999999999989768
 30
0.0
 11
9.236999999990758
 21
8.999999999991019
 31
0.0
1001
ACAD
1000
ASC_BOUNDS
1002
{
1070
    19
1005
20359
1002
}
  0
LINE
  5
2031A
  8
0
 10
18.59199999998134
 20
-0.2368999999997641
 30
0.0
 11
16.46099999998353
 21
5.432899999994561
 31
0.0
1001
ACAD
1000
ASC_BOUNDS
1002
{
1070
    19
1005
2035A
1002
}
  0
LINE
  5
2031B
  8
0
 10
18.59199999998134
 20
-0.2368999999997641
 30
0.0
 11
22.38199999997767
 21
8.763099999991255
 31
0.0
1001
ACAD
1000
ASC_BOUNDS
1002
{
1070
    19
1005
2035A
1002
}
  0
LINE
  5
2031C
  8
0
 10
14.32899999998563
 20
-0.2368999999997641
 30
0.0
 11
16.46099999998353
 21
5.432899999994561
 31
0.0
1001
ACAD
1000
ASC_BOUNDS
1002
{
1070
    19
1005
2035A
1002
}
  0
LINE
  5
2031D
  8
0
 10
14.32899999998563
 20
-0.2368999999997641
 30
0.0
 11
10.53899999998941
 21
8.763099999991255
 31
0.0
1001
ACAD
1000
ASC_BOUNDS
1002
{
1070
    19
1005
2035A
1002
}
  0
LINE
  5
2031E
  8
0
 10
19.53899999998043
 20
-0.0001000000000317
 30
0.0
 11
23.56599999997638
 21
8.999899999990987
 31
0.0
1001
ACAD
1000
ASC_BOUNDS
1002
{
1070
    19
1005
2035B
1002
}
  0
LINE
  5
2031F
  8
0
 10
26.97358892824991
 20
1.383099999991202
 30
0.0
 11
23.56599999997638
 21
8.999899999990987
 31
0.0
1001
ACAD
1000
ASC_BOUNDS
1002
{
1070
    19
1005
2035B
1002
}
  0
LINE
  5
20320
  8
0
 10
5.657999999994331
 20
0.9999999999989768
 30
0.0
 11
3.181999999996833
 21
4.668599999995308
 31
0.0
1001
ACAD
1000
ASC_BOUNDS
1002
{
1070
    19
1005
20359
1002
}
  0
LINE
  5
20321
  8
0
 10
4.617999999995391
 20
-0.0001000000000317
 30
0.0
 11
1.420999999998571
 21
4.736799999995242
 31
0.0
1001
ACAD
1000
ASC_BOUNDS
1002
{
1070
    19
1005
20359
1002
}
  0
LINE
  5
20322
  8
0
 10
1.420999999998571
 20
8.763099999991255
 30
0.0
 11
1.420999999998571
 21
0.0
 31
0.0
1001
ACAD
1000
ASC_BOUNDS
1002
{
1070
    19
1005
2035E
1002
}
  0
LINE
  5
20323
  8
0
 10
0.0
 20
8.763099999991255
 30
0.0
 11
0.0
 21
0.0
 31
0.0
1001
ACAD
1000
ASC_BOUNDS
1002
{
1070
    19
1005
2035E
1002
}
  0
LINE
  5
20324
  8
0
 10
6.766999999993232
 20
-0.0001000000000317
 30
0.0
 11
7.826999999992154
 21
2.368399999997621
 31
0.0
1001
ACAD
1000
ASC_BOUNDS
1002
{
1070
    19
1005
20359
1002
}
  0
LINE
  5
20325
  8
0
 10
0.0
 20
0.0
 30
0.0
 11
1.420999999998571
 21
0.0
 31
0.0
1001
ACAD
1000
ASC_BOUNDS
1002
{
1070
    19
1005
2035E
1002
}
  0
LINE
  5
20326
  8
0
 10
4.617999999995391
 20
0.0
 30
0.0
 11
6.766999999993232
 21
0.0
 31
0.0
1001
ACAD
1000
ASC_BOUNDS
1002
{
1070
    19
1005
20359
1002
}
  0
LINE
  5
20327
  8
0
 10
11.70599999998831
 20
-0.0001000000000317
 30
0.0
 11
10.64699999998936
 21
2.368399999997621
 31
0.0
1001
ACAD
1000
ASC_BOUNDS
1002
{
1070
    19
1005
20359
1002
}
  0
LINE
  5
20328
  8
0
 10
7.826999999992154
 20
2.368399999997621
 30
0.0
 11
10.64699999998936
 21
2.368399999997621
 31
0.0
1001
ACAD
1000
ASC_BOUNDS
1002
{
1070
    19
1005
20359
1002
}
  0
LINE
  5
20329
  8
0
 10
11.70599999998831
 20
0.0
 30
0.0
 11
13.26299999998673
 21
0.0
 31
0.0
1001
ACAD
1000
ASC_BOUNDS
1002
{
1070
    19
1005
20359
1002
}
  0
LINE
  5
2032A
  8
0
 10
22.15599999997789
 20
2.368399999997621
 30
0.0
 11
24.97599999997499
 21
2.368399999997621
 31
0.0
1001
ACAD
1000
ASC_BOUNDS
1002
{
1070
    19
1005
2035B
1002
}
  0
LINE
  5
2032B
  8
0
 10
19.53899999998043
 20
0.0
 30
0.0
 11
21.09599999997886
 21
0.0
 31
0.0
1001
ACAD
1000
ASC_BOUNDS
1002
{
1070
    19
1005
2035B
1002
}
  0
LINE
  5
2032C
  8
0
 10
21.09599999997886
 20
-0.0001000000000317
 30
0.0
 11
22.15599999997789
 21
2.368399999997621
 31
0.0
1001
ACAD
1000
ASC_BOUNDS
1002
{
1070
    19
1005
2035B
1002
}
  0
LINE
  5
2032D
  8
0
 10
26.02015566812236
 20
0.0330999999912365
 30
0.0
 11
24.97599999997499
 21
2.368399999997621
 31
0.0
1001
ACAD
1000
ASC_BOUNDS
1002
{
1070
    19
1005
2035B
1002
}
  0
LINE
  5
2032E
  8
0
 10
14.32399999998563
 20
3.315799999996671
 30
0.0
 11
16.46099999998353
 21
8.999899999990987
 31
0.0
1001
ACAD
1000
ASC_BOUNDS
1002
{
1070
    19
1005
2035A
1002
}
  0
LINE
  5
2032F
  8
0
 10
6.432999999993513
 20
8.763099999991255
 30
0.0
 11
3.181999999996833
 21
4.668599999995308
 31
0.0
1001
ACAD
1000
ASC_BOUNDS
1002
{
1070
    19
1005
20359
1002
}
  0
LINE
  5
20330
  8
0
 10
4.617999999995391
 20
8.763099999991255
 30
0.0
 11
1.420999999998571
 21
4.736799999995242
 31
0.0
1001
ACAD
1000
ASC_BOUNDS
1002
{
1070
    19
1005
20359
1002
}
  0
LINE
  5
20331
  8
0
 10
0.0
 20
8.763099999991255
 30
0.0
 11
1.420999999998571
 21
8.763099999991255
 31
0.0
1001
ACAD
1000
ASC_BOUNDS
1002
{
1070
    19
1005
2035E
1002
}
  0
LINE
  5
20332
  8
0
 10
4.617999999995391
 20
8.763099999991255
 30
0.0
 11
6.432999999993513
 21
8.763099999991255
 31
0.0
1001
ACAD
1000
ASC_BOUNDS
1002
{
1070
    19
1005
20359
1002
}
  0
LINE
  5
20333
  8
0
 10
14.32399999998563
 20
3.315799999996671
 30
0.0
 11
12.02999999998792
 21
8.763099999991255
 31
0.0
1001
ACAD
1000
ASC_BOUNDS
1002
{
1070
    19
1005
2035A
1002
}
  0
LINE
  5
20334
  8
0
 10
10.06399999998996
 20
3.670999999996297
 30
0.0
 11
9.236999999990758
 21
5.5200999999945
 31
0.0
1001
ACAD
1000
ASC_BOUNDS
1002
{
1070
    19
1005
20359
1002
}
  0
LINE
  5
20335
  8
0
 10
8.409999999991555
 20
3.670999999996297
 30
0.0
 11
9.236999999990758
 21
5.5200999999945
 31
0.0
1001
ACAD
1000
ASC_BOUNDS
1002
{
1070
    19
1005
20359
1002
}
  0
LINE
  5
20336
  8
0
 10
8.409999999991555
 20
3.670999999996297
 30
0.0
 11
10.06399999998996
 21
3.670999999996297
 31
0.0
1001
ACAD
1000
ASC_BOUNDS
1002
{
1070
    19
1005
20359
1002
}
  0
LINE
  5
20337
  8
0
 10
10.53899999998941
 20
8.763099999991255
 30
0.0
 11
12.02999999998792
 21
8.763099999991255
 31
0.0
1001
ACAD
1000
ASC_BOUNDS
1002
{
1070
    19
1005
2035A
1002
}
  0
LINE
  5
20338
  8
0
 10
22.7389999999773
 20
3.670999999996297
 30
0.0
 11
23.56599999997638
 21
5.5200999999945
 31
0.0
1001
ACAD
1000
ASC_BOUNDS
1002
{
1070
    19
1005
2035B
1002
}
  0
LINE
  5
20339
  8
0
 10
22.7389999999773
 20
3.670999999996297
 30
0.0
 11
24.39299999997559
 21
3.670999999996297
 31
0.0
1001
ACAD
1000
ASC_BOUNDS
1002
{
1070
    19
1005
2035B
1002
}
  0
LINE
  5
2033A
  8
0
 10
18.59799999998143
 20
3.315799999996671
 30
0.0
 11
20.89099999997916
 21
8.763099999991255
 31
0.0
1001
ACAD
1000
ASC_BOUNDS
1002
{
1070
    19
1005
2035A
1002
}
  0
LINE
  5
2033B
  8
0
 10
18.59799999998143
 20
3.315799999996671
 30
0.0
 11
16.46099999998353
 21
8.999899999990987
 31
0.0
1001
ACAD
1000
ASC_BOUNDS
1002
{
1070
    19
1005
2035A
1002
}
  0
LINE
  5
2033C
  8
0
 10
20.89099999997916
 20
8.763099999991255
 30
0.0
 11
22.38199999997767
 21
8.763099999991255
 31
0.0
1001
ACAD
1000
ASC_BOUNDS
1002
{
1070
    19
1005
2035A
1002
}
  0
LINE
  5
2033D
  8
0
 10
24.39299999997559
 20
3.670999999996297
 30
0.0
 11
23.56599999997638
 21
5.5200999999945
 31
0.0
1001
ACAD
1000
ASC_BOUNDS
1002
{
1070
    19
1005
2035B
1002
}
  0
LINE
  5
2033E
  8
0
 10
44.99999999995498
 20
-0.2368999999997641
 30
0.0
 11
40.02599999995994
 21
5.341799999994635
 31
0.0
1001
ACAD
1000
ASC_BOUNDS
1002
{
1070
    19
1005
2035D
1002
}
  0
LINE
  5
2033F
  8
0
 10
40.02599999995994
 20
5.341799999994635
 30
0.0
 11
40.02599999995994
 21
0.0
 31
0.0
1001
ACAD
1000
ASC_BOUNDS
1002
{
1070
    19
1005
2035D
1002
}
  0
LINE
  5
20340
  8
0
 10
38.60499999996136
 20
8.999999999991019
 30
0.0
 11
38.60499999996136
 21
0.0
 31
0.0
1001
ACAD
1000
ASC_BOUNDS
1002
{
1070
    19
1005
2035D
1002
}
  0
LINE
  5
20341
  8
0
 10
44.99999999995498
 20
8.763099999991255
 30
0.0
 11
44.99999999995498
 21
-0.2368999999997641
 31
0.0
1001
ACAD
1000
ASC_BOUNDS
1002
{
1070
    19
1005
2035D
1002
}
  0
LINE
  5
20342
  8
0
 10
38.60499999996136
 20
0.0
 30
0.0
 11
40.02599999995994
 21
0.0
 31
0.0
1001
ACAD
1000
ASC_BOUNDS
1002
{
1070
    19
1005
2035D
1002
}
  0
LINE
  5
20343
  8
0
 10
43.57899999995641
 20
3.421199999996588
 30
0.0
 11
38.60499999996136
 21
8.999899999990987
 31
0.0
1001
ACAD
1000
ASC_BOUNDS
1002
{
1070
    19
1005
2035D
1002
}
  0
LINE
  5
20344
  8
0
 10
43.57899999995641
 20
8.763099999991255
 30
0.0
 11
43.57899999995641
 21
3.421199999996588
 31
0.0
1001
ACAD
1000
ASC_BOUNDS
1002
{
1070
    19
1005
2035D
1002
}
  0
LINE
  5
20345
  8
0
 10
43.57899999995641
 20
8.763099999991255
 30
0.0
 11
44.99999999995498
 21
8.763099999991255
 31
0.0
1001
ACAD
1000
ASC_BOUNDS
1002
{
1070
    19
1005
2035D
1002
}
  0
LINE
  5
20346
  8
0
 10
37.67199999996831
 20
8.763099999991255
 30
0.0
 11
36.23199999996837
 21
8.763099999991255
 31
0.0
  0
LINE
  5
20347
  8
0
 10
31.64199999996833
 20
8.763099999991255
 30
0.0
 11
31.64199999996833
 21
2.481619422925121
 31
0.0
  0
LINE
  5
20348
  8
0
 10
37.67199999996831
 20
8.763099999991255
 30
0.0
 11
37.67199999996831
 21
2.481619422925121
 31
0.0
  0
LINE
  5
20349
  8
0
 10
36.23199999996837
 20
8.763099999991255
 30
0.0
 11
36.23199999996837
 21
2.481619422925064
 31
0.0
  0
LINE
  5
2034A
  8
0
 10
33.08199999996839
 20
8.763099999991255
 30
0.0
 11
33.08199999996839
 21
2.481619422925121
 31
0.0
  0
ARC
  5
2034B
  8
0
 10
34.65699999996832
 20
3.183099999991214
 30
0.0
 40
3.420000000000007
 50
240.0000000000255
 51
299.9999999999766
  0
ARC
  5
2034C
  8
0
 10
34.65699999996832
 20
3.183099999991214
 30
0.0
 40
1.97999999999999
 50
240.000000000026
 51
299.9999999999703
  0
LINE
  5
2034D
  8
0
 10
33.08199999996828
 20
8.763099999991255
 30
0.0
 11
31.64199999996833
 21
8.763099999991255
 31
0.0
  0
ARC
  5
2034E
  8
0
 10
35.06199999996829
 20
2.481619422925064
 30
0.0
 40
1.17
 50
299.9999999999699
 51
0.0
  0
ARC
  5
2034F
  8
0
 10
34.25199999996835
 20
2.481619422925121
 30
0.0
 40
1.17
 50
180.0
 51
240.0000000000238
  0
ARC
  5
20350
  8
0
 10
35.06199999996841
 20
2.481619422925121
 30
0.0
 40
2.61
 50
299.9999999999756
 51
0.0
  0
ARC
  5
20351
  8
0
 10
34.25199999996835
 20
2.481619422925121
 30
0.0
 40
2.61
 50
180.0
 51
240.0000000000244
  0
LINE
  5
20352
  8
0
 10
29.30199999996933
 20
8.763099999991255
 30
0.0
 11
30.74199999996927
 21
8.763099999991255
 31
0.0
1001
ACAD
1000
ASC_BOUNDS
1002
{
1070
    19
1005
2035B
1002
}
  0
LINE
  5
20353
  8
0
 10
30.74199999996927
 20
8.763099999991255
 30
0.0
 11
30.74199999996927
 21
2.373099999991211
 31
0.0
1001
ACAD
1000
ASC_BOUNDS
1002
{
1070
    19
1005
2035B
1002
}
  0
LINE
  5
20354
  8
0
 10
26.02015566812236
 20
0.0330999999912365
 30
0.0
 11
28.40199999996923
 21
0.0330999999912365
 31
0.0
1001
ACAD
1000
ASC_BOUNDS
1002
{
1070
    19
1005
2035B
1002
}
  0
LINE
  5
20355
  8
0
 10
29.30199999996933
 20
8.763099999991255
 30
0.0
 11
29.30199999996933
 21
2.283099999991236
 31
0.0
1001
ACAD
1000
ASC_BOUNDS
1002
{
1070
    19
1005
2035B
1002
}
  0
LINE
  5
20356
  8
0
 10
26.97358892824991
 20
1.383099999991202
 30
0.0
 11
28.40199999996923
 21
1.383099999991202
 31
0.0
1001
ACAD
1000
ASC_BOUNDS
1002
{
1070
    19
1005
2035B
1002
}
  0
ARC
  5
20357
  8
0
 10
28.40199999996923
 20
2.283099999991236
 30
0.0
 40
0.9
 50
270.0
 51
0.0
1001
ACAD
1000
ASC_BOUNDS
1002
{
1070
    19
1005
2035B
1002
}
  0
ARC
  5
20358
  8
0
 10
28.40199999996923
 20
2.373099999991211
 30
0.0
 40
2.34
 50
270.0
 51
0.0
1001
ACAD
1000
ASC_BOUNDS
1002
{
1070
    19
1005
2035B
1002
}
  0
INSERT
  5
20359
  8
0
  2
*X248
 10
0.0
 20
0.0
 30
0.0
1001
ACAD
1000
HATCH
1002
{
1070
    19
1000
ANSI37
1040
0.15
1040
0.0
1000
ASC_BOUNDS
1070
     2
1070
     2
1070
    12
1005
20318
1005
20319
1005
20320
1005
2032F
1005
20332
1005
20330
1005
20321
1005
20326
1005
20324
1005
20328
1005
20327
1005
20329
1070
     2
1070
     3
1005
20334
1005
20336
1005
20335
1000
ASC_SEEDPOINT
1011
3.614004224891801
1021
2.996669441146025
1031
0.0
1021
2.996669441146025
1031
0.0
1000
R14_HATCH_DATA
1000
20359
1011
1.0
1021
0.0
1031
0.0
1021
0.0
1031
0.0
1011
0.0
1021
1.0
1031
0.0
1021
1.0
1031
0.0
1011
0.0
1021
0.0
1031
1.0
1021
0.0
1031
1.0
1040
0.0
1010
0.0
1020
0.0
1030
1.0
1000
ANSI37
1070
     0
1070
     1
1071
        2
1071
        7
1070
     0
1070
     1
1071
       17
1040
13.26299999998673
1040
-0.0001000000000317
1040
9.236999999990758
1040
8.999899999990987
1040
9.236999999990758
1040
8.999999999991019
1040
5.657999999994331
1040
0.9999999999989768
1040
3.181999999996833
1040
4.668599999995308
1040
6.432999999993513
1040
8.763099999991255
1040
4.617999999995391
1040
8.763099999991255
1040
1.420999999998571
1040
4.736799999995242
1040
4.617999999995391
1040
-0.0001000000000317
1040
4.617999999995391
1040
0.0
1040
6.766999999993232
1040
0.0
1040
6.766999999993232
1040
-0.0001000000000317
1040
7.826999999992154
1040
2.368399999997621
1040
10.64699999998936
1040
2.368399999997621
1040
11.70599999998831
1040
-0.0001000000000317
1040
11.70599999998831
1040
0.0
1040
13.26299999998673
1040
0.0
1071
       12
1005
20318
1005
20319
1005
20320
1005
2032F
1005
20332
1005
20330
1005
20321
1005
20326
1005
20324
1005
20328
1005
20327
1005
20329
1071
       22
1070
     0
1070
     1
1071
        3
1040
9.236999999990758
1040
5.5200999999945
1040
10.06399999998996
1040
3.670999999996297
1040
8.409999999991555
1040
3.670999999996297
1071
        3
1005
20334
1005
20336
1005
20335
1070
     0
1070
     1
1040
0.0
1040
0.15
1070
     0
1070
     2
1040
0.7853981633974483
1040
49.29960901727088
1040
-10.17736998311392
1040
-0.3367596045400932
1040
0.3367596045400932
1070
     0
1040
2.356194490192345
1040
49.29960901727088
1040
-10.17736998311392
1040
-0.3367596045400932
1040
-0.3367596045400932
1070
     0
1040
0.0110235143455945
1071
        2
1040
3.614004224891801
1040
2.996669441146025
1040
0.0
1040
3.614004224891801
1040
2.996669441146025
1040
0.0
1002
}
  0
INSERT
  5
2035A
  8
0
  2
*X249
 10
0.0
 20
0.0
 30
0.0
1001
ACAD
1000
HATCH
1002
{
1070
    19
1000
ANSI37
1040
0.15
1040
0.0
1000
ASC_BOUNDS
1070
     1
1070
     2
1070
    10
1005
2031A
1005
2031B
1005
2033C
1005
2033A
1005
2033B
1005
2032E
1005
20333
1005
20337
1005
2031D
1005
2031C
1000
ASC_SEEDPOINT
1011
14.73245321214324
1021
2.798246178283421
1031
0.0
1021
2.798246178283421
1031
0.0
1000
R14_HATCH_DATA
1000
2035A
1011
1.0
1021
0.0
1031
0.0
1021
0.0
1031
0.0
1011
0.0
1021
1.0
1031
0.0
1021
1.0
1031
0.0
1011
0.0
1021
0.0
1031
1.0
1021
0.0
1031
1.0
1040
0.0
1010
0.0
1020
0.0
1030
1.0
1000
ANSI37
1070
     0
1070
     1
1071
        1
1071
        7
1070
     0
1070
     1
1071
       10
1040
16.46099999998353
1040
5.432899999994561
1040
18.59199999998134
1040
-0.2368999999997641
1040
22.38199999997767
1040
8.763099999991255
1040
20.89099999997916
1040
8.763099999991255
1040
18.59799999998143
1040
3.315799999996671
1040
16.46099999998353
1040
8.999899999990987
1040
14.32399999998563
1040
3.315799999996671
1040
12.02999999998792
1040
8.763099999991255
1040
10.53899999998941
1040
8.763099999991255
1040
14.32899999998563
1040
-0.2368999999997641
1071
       10
1005
2031A
1005
2031B
1005
2033C
1005
2033A
1005
2033B
1005
2032E
1005
20333
1005
20337
1005
2031D
1005
2031C
1070
     0
1070
     1
1040
0.0
1040
0.15
1070
     0
1070
     2
1040
0.7853981633974483
1040
49.29960901727088
1040
-10.17736998311392
1040
-0.3367596045400932
1040
0.3367596045400932
1070
     0
1040
2.356194490192345
1040
49.29960901727088
1040
-10.17736998311392
1040
-0.3367596045400932
1040
-0.3367596045400932
1070
     0
1040
0.0110235143455945
1071
        1
1040
14.73245321214324
1040
2.798246178283421
1040
0.0
1002
}
  0
INSERT
  5
2035B
  8
0
  2
*X250
 10
0.0
 20
0.0
 30
0.0
1001
ACAD
1000
HATCH
1002
{
1070
    19
1000
ANSI37
1040
0.15
1040
0.0
1000
ASC_BOUNDS
1070
     2
1070
     2
1070
    13
1005
2031E
1005
2032B
1005
2032C
1005
2032A
1005
2032D
1005
20354
1005
20358
1005
20353
1005
20352
1005
20355
1005
20357
1005
20356
1005
2031F
1070
     2
1070
     3
1005
20338
1005
2033D
1005
20339
1000
ASC_SEEDPOINT
1011
21.97929957367762
1021
3.294304244259308
1031
0.0
1021
3.294304244259308
1031
0.0
1000
R14_HATCH_DATA
1000
2035B
1011
1.0
1021
0.0
1031
0.0
1021
0.0
1031
0.0
1011
0.0
1021
1.0
1031
0.0
1021
1.0
1031
0.0
1011
0.0
1021
0.0
1031
1.0
1021
0.0
1031
1.0
1040
0.0
1010
0.0
1020
0.0
1030
1.0
1000
ANSI37
1070
     0
1070
     1
1071
        2
1071
        7
1070
     1
1070
     1
1071
       15
1040
23.56599999997638
1040
8.999899999990987
1040
0.0
1040
19.53899999998043
1040
-0.0001000000000317
1040
0.0
1040
19.53899999998043
1040
0.0
1040
0.0
1040
21.09599999997886
1040
0.0
1040
0.0
1040
21.09599999997886
1040
-0.0001000000000317
1040
0.0
1040
22.15599999997789
1040
2.368399999997621
1040
0.0
1040
24.97599999997499
1040
2.368399999997621
1040
0.0
1040
26.02015566812236
1040
0.0330999999912365
1040
0.0
1040
28.40199999996923
1040
0.0330999999912365
1040
0.414213562373095
1040
30.74199999996923
1040
2.373099999991211
1040
0.0
1040
30.74199999996927
1040
8.763099999991255
1040
0.0
1040
29.30199999996933
1040
8.763099999991255
1040
0.0
1040
29.30199999996933
1040
2.283099999991236
1040
-0.414213562373095
1040
28.40199999996923
1040
1.383099999991237
1040
0.0
1040
26.97358892824991
1040
1.383099999991202
1040
0.0
1071
       13
1005
2031E
1005
2032B
1005
2032C
1005
2032A
1005
2032D
1005
20354
1005
20358
1005
20353
1005
20352
1005
20355
1005
20357
1005
20356
1005
2031F
1071
       22
1070
     0
1070
     1
1071
        3
1040
22.7389999999773
1040
3.670999999996297
1040
23.56599999997638
1040
5.5200999999945
1040
24.39299999997559
1040
3.670999999996297
1071
        3
1005
20338
1005
2033D
1005
20339
1070
     0
1070
     1
1040
0.0
1040
0.15
1070
     0
1070
     2
1040
0.7853981633974483
1040
49.29960901727088
1040
-10.17736998311392
1040
-0.3367596045400932
1040
0.3367596045400932
1070
     0
1040
2.356194490192345
1040
49.29960901727088
1040
-10.17736998311392
1040
-0.3367596045400932
1040
-0.3367596045400932
1070
     0
1040
0.0110235143455945
1071
        2
1040
21.97929957367762
1040
3.294304244259308
1040
0.0
1040
21.97929957367762
1040
3.294304244259308
1040
0.0
1002
}
  0
INSERT
  5
2035C
  8
0
  2
*X251
 10
0.0
 20
0.0
 30
0.0
1001
ACAD
1000
HATCH
1002
{
1070
    19
1000
ANSI37
1040
0.15
1040
0.0
1000
R14_HATCH_DATA
1000
2035C
1011
1.0
1021
0.0
1031
0.0
1021
0.0
1031
0.0
1011
0.0
1021
1.0
1031
0.0
1021
1.0
1031
0.0
1011
0.0
1021
0.0
1031
1.0
1021
0.0
1031
1.0
1040
0.0
1010
0.0
1020
0.0
1030
1.0
1000
ANSI37
1070
     0
1070
     1
1071
        1
1071
        7
1070
     1
1070
     1
1071
       12
1040
31.64199999996833
1040
2.481619422925121
1040
0.2679491924310942
1040
32.94699999997067
1040
0.2212931190493919
1040
0.2679491924301353
1040
36.36699999995983
1040
0.2212931190459813
1040
0.2679491924321411
1040
37.67199999996831
1040
2.481619422928361
1040
0.0
1040
37.67199999996831
1040
8.763099999991255
1040
0.0
1040
36.23199999996837
1040
8.763099999991255
1040
0.0
1040
36.23199999996837
1040
2.481619422925064
1040
-0.2679491924310291
1040
35.64699999996708
1040
1.468369700498386
1040
-0.267949192430519
1040
33.66699999997093
1040
1.468369700497703
1040
-0.267949192431809
1040
33.08199999996839
1040
2.481619422926997
1040
0.0
1040
33.08199999996839
1040
8.763099999991255
1040
0.0
1040
31.64199999996833
1040
8.763099999991255
1040
0.0
1071
        0
1070
     0
1070
     1
1040
0.0
1040
0.15
1070
     0
1070
     2
1040
0.7853981633974483
1040
49.29960901727088
1040
-10.17736998311392
1040
-0.3367596045400932
1040
0.3367596045400932
1070
     0
1040
2.356194490192345
1040
49.29960901727088
1040
-10.17736998311392
1040
-0.3367596045400932
1040
-0.3367596045400932
1070
     0
1040
0.0110235143455945
1071
        1
1040
32.30357378967278
1040
3.988785755459219
1040
0.0
1002
}
  0
INSERT
  5
2035D
  8
0
  2
*X252
 10
0.0
 20
0.0
 30
0.0
1001
ACAD
1000
HATCH
1002
{
1070
    19
1000
ANSI37
1040
0.15
1040
0.0
1000
ASC_BOUNDS
1070
     1
1070
     2
1070
     8
1005
2033E
1005
20341
1005
20345
1005
20344
1005
20343
1005
20340
1005
20342
1005
2033F
1000
ASC_SEEDPOINT
1011
39.74896370716704
1021
4.484843821435049
1031
0.0
1021
4.484843821435049
1031
0.0
1000
R14_HATCH_DATA
1000
2035D
1011
1.0
1021
0.0
1031
0.0
1021
0.0
1031
0.0
1011
0.0
1021
1.0
1031
0.0
1021
1.0
1031
0.0
1011
0.0
1021
0.0
1031
1.0
1021
0.0
1031
1.0
1040
0.0
1010
0.0
1020
0.0
1030
1.0
1000
ANSI37
1070
     0
1070
     1
1071
        1
1071
        7
1070
     0
1070
     1
1071
        9
1040
40.02599999995994
1040
5.341799999994635
1040
44.99999999995498
1040
-0.2368999999997641
1040
44.99999999995498
1040
8.763099999991255
1040
43.57899999995641
1040
8.763099999991255
1040
43.57899999995641
1040
3.421199999996588
1040
38.60499999996136
1040
8.999899999990987
1040
38.60499999996136
1040
8.999999999991019
1040
38.60499999996136
1040
0.0
1040
40.02599999995994
1040
0.0
1071
        8
1005
2033E
1005
20341
1005
20345
1005
20344
1005
20343
1005
20340
1005
20342
1005
2033F
1070
     0
1070
     1
1040
0.0
1040
0.15
1070
     0
1070
     2
1040
0.7853981633974483
1040
49.29960901727088
1040
-10.17736998311392
1040
-0.3367596045400932
1040
0.3367596045400932
1070
     0
1040
2.356194490192345
1040
49.29960901727088
1040
-10.17736998311392
1040
-0.3367596045400932
1040
-0.3367596045400932
1070
     0
1040
0.0110235143455945
1071
        1
1040
39.74896370716704
1040
4.484843821435049
1040
0.0
1002
}
  0
INSERT
  5
2035E
  8
0
  2
*X253
 10
0.0
 20
0.0
 30
0.0
1001
ACAD
1000
HATCH
1002
{
1070
    19
1000
ANSI37
1040
0.15
1040
0.0
1000
ASC_BOUNDS
1070
     1
1070
     2
1070
     4
1005
20322
1005
20331
1005
20323
1005
20325
1000
ASC_SEEDPOINT
1011
1.079051535452663
1021
4.148538732891836
1031
0.0
1021
4.148538732891836
1031
0.0
1000
R14_HATCH_DATA
1000
2035E
1011
1.0
1021
0.0
1031
0.0
1021
0.0
1031
0.0
1011
0.0
1021
1.0
1031
0.0
1021
1.0
1031
0.0
1011
0.0
1021
0.0
1031
1.0
1021
0.0
1031
1.0
1040
0.0
1010
0.0
1020
0.0
1030
1.0
1000
ANSI37
1070
     0
1070
     1
1071
        1
1071
        7
1070
     0
1070
     1
1071
        4
1040
1.420999999998571
1040
0.0
1040
1.420999999998571
1040
8.763099999991255
1040
0.0
1040
8.763099999991255
1040
0.0
1040
0.0
1071
        4
1005
20322
1005
20331
1005
20323
1005
20325
1070
     0
1070
     1
1040
0.0
1040
0.15
1070
     0
1070
     2
1040
0.7853981633974483
1040
49.29960901727088
1040
-10.17736998311392
1040
-0.3367596045400932
1040
0.3367596045400932
1070
     0
1040
2.356194490192345
1040
49.29960901727088
1040
-10.17736998311392
1040
-0.3367596045400932
1040
-0.3367596045400932
1070
     0
1040
0.0053004257112761
1071
        1
1040
1.079051535452663
1040
4.148538732891836
1040
0.0
1002
}
  0
ENDBLK
  5
20A16
  8
0
  0
BLOCK
  8
0
  2
*X248
 70
     1
 10
0.0
 20
0.0
 30
0.0
  3
*X248
  1

  0
LINE
  5
260BC
  8
0
  6
CONTINUOUS
 10
3.418023043697893
 20
7.251849696850613
 30
0.0
 11
4.929273346838536
 21
8.763099999991255
 31
0.0
  0
LINE
  5
260BD
  8
0
  6
CONTINUOUS
 10
1.483656411257782
 20
4.643963855330318
 30
0.0
 11
5.60279255591872
 21
8.763099999991255
 31
0.0
  0
LINE
  5
260BE
  8
0
  6
CONTINUOUS
 10
1.755053947328235
 20
4.241842182320584
 30
0.0
 11
6.276311764998907
 21
8.763099999991255
 31
0.0
  0
LINE
  5
260BF
  8
0
  6
CONTINUOUS
 10
2.026451483398688
 20
3.839720509310849
 30
0.0
 11
4.441040904851878
 21
6.254309930764039
 31
0.0
  0
LINE
  5
260C0
  8
0
  6
CONTINUOUS
 10
2.297849019469139
 20
3.437598836301114
 30
0.0
 11
3.321765168359338
 21
4.461514985191313
 31
0.0
  0
LINE
  5
260C1
  8
0
  6
CONTINUOUS
 10
2.569246555539591
 20
3.03547716329138
 30
0.0
 11
3.593163397972743
 21
4.059394005724531
 31
0.0
  0
LINE
  5
260C2
  8
0
  6
CONTINUOUS
 10
2.840644091610043
 20
2.633355490281646
 30
0.0
 11
3.864561627586149
 21
3.657273026257751
 31
0.0
  0
LINE
  5
260C3
  8
0
  6
CONTINUOUS
 10
3.112041627680496
 20
2.231233817271911
 30
0.0
 11
4.135959857199554
 21
3.25515204679097
 31
0.0
  0
LINE
  5
260C4
  8
0
  6
CONTINUOUS
 10
3.383439163750948
 20
1.829112144262177
 30
0.0
 11
4.40735808681296
 21
2.853031067324189
 31
0.0
  0
LINE
  5
260C5
  8
0
  6
CONTINUOUS
 10
3.654836699821399
 20
1.426990471252442
 30
0.0
 11
4.678756316426365
 21
2.450910087857407
 31
0.0
  0
LINE
  5
260C6
  8
0
  6
CONTINUOUS
 10
3.926234235891853
 20
1.024868798242709
 30
0.0
 11
4.95015454603977
 21
2.048789108390626
 31
0.0
  0
LINE
  5
260C7
  8
0
  6
CONTINUOUS
 10
4.197631771962304
 20
0.6227471252329737
 30
0.0
 11
5.221552775653176
 21
1.646668128923846
 31
0.0
  0
LINE
  5
260C8
  8
0
  6
CONTINUOUS
 10
8.715877546767851
 20
7.835069736359266
 30
0.0
 11
9.435953450375058
 21
8.555145639966472
 31
0.0
  0
LINE
  5
260C9
  8
0
  6
CONTINUOUS
 10
8.170620868422267
 20
6.616293848933497
 30
0.0
 11
9.644120833743461
 21
8.08979381425469
 31
0.0
  0
LINE
  5
260CA
  8
0
  6
CONTINUOUS
 10
7.625364190076684
 20
5.397517961507727
 30
0.0
 11
9.852288217111864
 21
7.624441988542907
 31
0.0
  0
LINE
  5
260CB
  8
0
  6
CONTINUOUS
 10
7.080107511731101
 20
4.178742074081957
 30
0.0
 11
10.06045560048027
 21
7.159090162831124
 31
0.0
  0
LINE
  5
260CC
  8
0
  6
CONTINUOUS
 10
6.534850833385518
 20
2.959966186656187
 30
0.0
 11
10.26862298384867
 21
6.693738337119342
 31
0.0
  0
LINE
  5
260CD
  8
0
  6
CONTINUOUS
 10
4.469029308032756
 20
0.2206254522232385
 30
0.0
 11
5.492951005266582
 21
1.244547149457064
 31
0.0
  0
LINE
  5
260CE
  8
0
  6
CONTINUOUS
 10
5.989594155039935
 20
1.741190299230417
 30
0.0
 11
8.806950407233131
 21
4.558546551423613
 31
0.0
  0
LINE
  5
260CF
  8
0
  6
CONTINUOUS
 10
9.401251593263643
 20
5.152847737454126
 30
0.0
 11
10.47679036721708
 21
6.228386511407559
 31
0.0
  0
LINE
  5
260D0
  8
0
  6
CONTINUOUS
 10
4.921837203428691
 20
-0.0000858614610131
 30
0.0
 11
8.592923064886001
 21
3.670999999996297
 31
0.0
  0
LINE
  5
260D1
  8
0
  6
CONTINUOUS
 10
9.609390446785305
 20
4.6874673818956
 30
0.0
 11
10.68495775058548
 21
5.763034685695775
 31
0.0
  0
LINE
  5
260D2
  8
0
  6
CONTINUOUS
 10
5.595387755019432
 20
-0.0000545189504582
 30
0.0
 11
7.716137258923768
 21
2.120694984953879
 31
0.0
  0
LINE
  5
260D3
  8
0
  6
CONTINUOUS
 10
6.268938306610172
 20
-0.000023176439905
 30
0.0
 11
7.170485805526503
 21
0.9015243224764267
 31
0.0
  0
LINE
  5
260D4
  8
0
  6
CONTINUOUS
 10
7.963842273967511
 20
2.368399999997621
 30
0.0
 11
9.266442273966188
 21
3.670999999996297
 31
0.0
  0
LINE
  5
260D5
  8
0
  6
CONTINUOUS
 10
8.637361483047696
 20
2.368399999997621
 30
0.0
 11
9.939961483046375
 21
3.670999999996297
 31
0.0
  0
LINE
  5
260D6
  8
0
  6
CONTINUOUS
 10
9.817529300306965
 20
4.222087026337075
 30
0.0
 11
10.89312513395388
 21
5.297682859983993
 31
0.0
  0
LINE
  5
260D7
  8
0
  6
CONTINUOUS
 10
10.02566815382863
 20
3.756706670778549
 30
0.0
 11
11.10129251732229
 21
4.832331034272211
 31
0.0
  0
LINE
  5
260D8
  8
0
  6
CONTINUOUS
 10
9.310880692127883
 20
2.368399999997621
 30
0.0
 11
11.30945990069069
 21
4.366979208560428
 31
0.0
  0
LINE
  5
260D9
  8
0
  6
CONTINUOUS
 10
9.98439990120807
 20
2.36839999999762
 30
0.0
 11
11.5176272840591
 21
3.901627382848645
 31
0.0
  0
LINE
  5
260DA
  8
0
  6
CONTINUOUS
 10
10.65037369446246
 20
2.36085458417182
 30
0.0
 11
11.7257946674275
 21
3.436275557136862
 31
0.0
  0
LINE
  5
260DB
  8
0
  6
CONTINUOUS
 10
10.85847197087848
 20
1.895433651507656
 30
0.0
 11
11.9339620507959
 21
2.97092373142508
 31
0.0
  0
LINE
  5
260DC
  8
0
  6
CONTINUOUS
 10
11.0665702472945
 20
1.430012718843491
 30
0.0
 11
12.14212943416431
 21
2.505571905713296
 31
0.0
  0
LINE
  5
260DD
  8
0
  6
CONTINUOUS
 10
11.27466852371052
 20
0.9645917861793256
 30
0.0
 11
12.35029681753271
 21
2.040220080001513
 31
0.0
  0
LINE
  5
260DE
  8
0
  6
CONTINUOUS
 10
11.48276680012654
 20
0.4991708535151611
 30
0.0
 11
12.55846420090111
 21
1.57486825428973
 31
0.0
  0
LINE
  5
260DF
  8
0
  6
CONTINUOUS
 10
11.69086507654257
 20
0.0337499208509957
 30
0.0
 11
12.76663158426952
 21
1.109516428577947
 31
0.0
  0
LINE
  5
260E0
  8
0
  6
CONTINUOUS
 10
12.33057447873954
 20
-0.0000598860322123
 30
0.0
 11
12.97479896763792
 21
0.6441646028661663
 31
0.0
  0
LINE
  5
260E1
  8
0
  6
CONTINUOUS
 10
13.00413694809395
 20
-0.0000166257579952
 30
0.0
 11
13.18296635100632
 21
0.1788127771543824
 31
0.0
  0
LINE
  5
260E2
  8
0
  6
CONTINUOUS
 10
4.772852165289667
 20
-0.000092794222212
 30
0.0
 11
4.296495091028902
 21
0.4762642800385528
 31
0.0
  0
LINE
  5
260E3
  8
0
  6
CONTINUOUS
 10
5.446340034776103
 20
-0.0000614546284616
 30
0.0
 11
2.898195908335625
 21
2.548082671812017
 31
0.0
  0
LINE
  5
260E4
  8
0
  6
CONTINUOUS
 10
6.119827904262539
 20
-0.0000301150347113
 30
0.0
 11
1.499896725642348
 21
4.61990106358548
 31
0.0
  0
LINE
  5
260E5
  8
0
  6
CONTINUOUS
 10
6.775136745476159
 20
0.0181802528318542
 30
0.0
 11
5.699826040202669
 21
1.093490958105344
 31
0.0
  0
LINE
  5
260E6
  8
0
  6
CONTINUOUS
 10
6.983376846288489
 20
0.4834593610997118
 30
0.0
 11
5.908008617934405
 21
1.558827589453796
 31
0.0
  0
LINE
  5
260E7
  8
0
  6
CONTINUOUS
 10
5.377063484962296
 20
1.416253513345719
 30
0.0
 11
1.702276957014131
 21
5.091040041293883
 31
0.0
  0
LINE
  5
260E8
  8
0
  6
CONTINUOUS
 10
3.978745891735324
 20
3.488090315652877
 30
0.0
 11
2.000373521109399
 21
5.466462686278803
 31
0.0
  0
LINE
  5
260E9
  8
0
  6
CONTINUOUS
 10
7.191616947100819
 20
0.948738469367568
 30
0.0
 11
6.11619119566614
 21
2.024164220802247
 31
0.0
  0
LINE
  5
260EA
  8
0
  6
CONTINUOUS
 10
7.399857047913149
 20
1.414017577635424
 30
0.0
 11
6.324373773397875
 21
2.489500852150698
 31
0.0
  0
LINE
  5
260EB
  8
0
  6
CONTINUOUS
 10
7.608097148725479
 20
1.879296685903281
 30
0.0
 11
6.53255635112961
 21
2.95483748349915
 31
0.0
  0
LINE
  5
260EC
  8
0
  6
CONTINUOUS
 10
7.816337249537808
 20
2.344575794171138
 30
0.0
 11
6.740738928861345
 21
3.420174114847601
 31
0.0
  0
LINE
  5
260ED
  8
0
  6
CONTINUOUS
 10
3.310241080789734
 20
4.830114335678653
 30
0.0
 11
2.298470085204666
 21
5.84188533126372
 31
0.0
  0
LINE
  5
260EE
  8
0
  6
CONTINUOUS
 10
3.60832983563551
 20
5.205544789913063
 30
0.0
 11
2.596566649299935
 21
6.217307976248638
 31
0.0
  0
LINE
  5
260EF
  8
0
  6
CONTINUOUS
 10
3.906418590481286
 20
5.580975244147473
 30
0.0
 11
2.894663213395203
 21
6.592730621233557
 31
0.0
  0
LINE
  5
260F0
  8
0
  6
CONTINUOUS
 10
4.204507345327062
 20
5.956405698381884
 30
0.0
 11
3.192759777490472
 21
6.968153266218474
 31
0.0
  0
LINE
  5
260F1
  8
0
  6
CONTINUOUS
 10
8.466032252791512
 20
2.368399999997621
 30
0.0
 11
6.948921506593081
 21
3.885510746196053
 31
0.0
  0
LINE
  5
260F2
  8
0
  6
CONTINUOUS
 10
9.139551461871699
 20
2.36839999999762
 30
0.0
 11
7.157104084324816
 21
4.350847377544504
 31
0.0
  0
LINE
  5
260F3
  8
0
  6
CONTINUOUS
 10
4.502596100172839
 20
6.331836152616295
 30
0.0
 11
3.49085634158574
 21
7.343575911203393
 31
0.0
  0
LINE
  5
260F4
  8
0
  6
CONTINUOUS
 10
4.800684855018615
 20
6.707266606850705
 30
0.0
 11
3.788952905681008
 21
7.718998556188312
 31
0.0
  0
LINE
  5
260F5
  8
0
  6
CONTINUOUS
 10
12.18154012887317
 20
-0.0000694579236642
 30
0.0
 11
11.32140332908496
 21
0.8600673418645499
 31
0.0
  0
LINE
  5
260F6
  8
0
  6
CONTINUOUS
 10
12.85501608323566
 20
-0.0000262032059659
 30
0.0
 11
10.77672456435345
 21
2.078265315676246
 31
0.0
  0
LINE
  5
260F7
  8
0
  6
CONTINUOUS
 10
9.813070670951886
 20
2.36839999999762
 30
0.0
 11
8.51047067095321
 21
3.670999999996297
 31
0.0
  0
LINE
  5
260F8
  8
0
  6
CONTINUOUS
 10
10.48658988003207
 20
2.36839999999762
 30
0.0
 11
9.183989880033396
 21
3.670999999996297
 31
0.0
  0
LINE
  5
260F9
  8
0
  6
CONTINUOUS
 10
8.441048632286794
 20
3.740422038662712
 30
0.0
 11
7.365286662056551
 21
4.816184008892956
 31
0.0
  0
LINE
  5
260FA
  8
0
  6
CONTINUOUS
 10
8.649187485808454
 20
4.205802394221237
 30
0.0
 11
7.573469239788285
 21
5.281520640241407
 31
0.0
  0
LINE
  5
260FB
  8
0
  6
CONTINUOUS
 10
5.098773609864391
 20
7.082697061085115
 30
0.0
 11
4.087049469776277
 21
8.09442120117323
 31
0.0
  0
LINE
  5
260FC
  8
0
  6
CONTINUOUS
 10
5.396862364710167
 20
7.458127515319526
 30
0.0
 11
4.385146033871544
 21
8.469843846158149
 31
0.0
  0
LINE
  5
260FD
  8
0
  6
CONTINUOUS
 10
13.04801363231285
 20
0.4804954567970334
 30
0.0
 11
9.85750908911358
 21
3.670999999996297
 31
0.0
  0
LINE
  5
260FE
  8
0
  6
CONTINUOUS
 10
8.857326339330116
 20
4.671182749779763
 30
0.0
 11
7.781651817520021
 21
5.746857271589858
 31
0.0
  0
LINE
  5
260FF
  8
0
  6
CONTINUOUS
 10
5.694951119555943
 20
7.833557969553937
 30
0.0
 11
4.765409089118624
 21
8.763099999991255
 31
0.0
  0
LINE
  5
26100
  8
0
  6
CONTINUOUS
 10
12.50286117236978
 20
1.699167125820288
 30
0.0
 11
9.68611877250287
 21
4.515909525687196
 31
0.0
  0
LINE
  5
26101
  8
0
  6
CONTINUOUS
 10
9.065465192851777
 20
5.136563105338288
 30
0.0
 11
7.989834395251757
 21
6.21219390293831
 31
0.0
  0
LINE
  5
26102
  8
0
  6
CONTINUOUS
 10
5.993039874401719
 20
8.208988423788346
 30
0.0
 11
5.43892829819881
 21
8.763099999991255
 31
0.0
  0
LINE
  5
26103
  8
0
  6
CONTINUOUS
 10
11.95770871242671
 20
2.917838794843543
 30
0.0
 11
8.19801697298349
 21
6.677530534286761
 31
0.0
  0
LINE
  5
26104
  8
0
  6
CONTINUOUS
 10
6.291128629247495
 20
8.584418878022756
 30
0.0
 11
6.112447507278997
 21
8.763099999991255
 31
0.0
  0
LINE
  5
26105
  8
0
  6
CONTINUOUS
 10
11.41255625248364
 20
4.136510463866797
 30
0.0
 11
8.406199550715227
 21
7.142867165635211
 31
0.0
  0
LINE
  5
26106
  8
0
  6
CONTINUOUS
 10
10.86740379254057
 20
5.355182132890051
 30
0.0
 11
8.614382128446962
 21
7.608203796983664
 31
0.0
  0
LINE
  5
26107
  8
0
  6
CONTINUOUS
 10
10.3222513325975
 20
6.573853801913305
 30
0.0
 11
8.822564706178696
 21
8.073540428332114
 31
0.0
  0
LINE
  5
26108
  8
0
  6
CONTINUOUS
 10
9.777098872654436
 20
7.792525470936562
 30
0.0
 11
9.030747283910433
 21
8.538877059680566
 31
0.0
  0
ENDBLK
  5
2624A
  8
0
  0
BLOCK
  8
0
  2
*X249
 70
     1
 10
0.0
 20
0.0
 30
0.0
  3
*X249
  1

  0
LINE
  5
2610A
  8
0
  6
CONTINUOUS
 10
10.67292308101235
 20
8.445076852443387
 30
0.0
 11
10.99094622856022
 21
8.763099999991255
 31
0.0
  0
LINE
  5
2610B
  8
0
  6
CONTINUOUS
 10
10.87250383178748
 20
7.971138394138331
 30
0.0
 11
11.6644654376404
 21
8.763099999991255
 31
0.0
  0
LINE
  5
2610C
  8
0
  6
CONTINUOUS
 10
11.07208458256261
 20
7.497199935833273
 30
0.0
 11
12.12126590876355
 21
8.546381262034211
 31
0.0
  0
LINE
  5
2610D
  8
0
  6
CONTINUOUS
 10
11.27166533333774
 20
7.023261477528216
 30
0.0
 11
12.32085164573666
 21
8.072447789927136
 31
0.0
  0
LINE
  5
2610E
  8
0
  6
CONTINUOUS
 10
11.47124608411287
 20
6.549323019223158
 30
0.0
 11
12.52043738270977
 21
7.59851431782006
 31
0.0
  0
LINE
  5
2610F
  8
0
  6
CONTINUOUS
 10
11.670826834888
 20
6.075384560918101
 30
0.0
 11
12.72002311968288
 21
7.124580845712984
 31
0.0
  0
LINE
  5
26110
  8
0
  6
CONTINUOUS
 10
11.87040758566313
 20
5.601446102613043
 30
0.0
 11
12.91960885665599
 21
6.650647373605907
 31
0.0
  0
LINE
  5
26111
  8
0
  6
CONTINUOUS
 10
12.06998833643825
 20
5.127507644307986
 30
0.0
 11
13.1191945936291
 21
6.176713901498832
 31
0.0
  0
LINE
  5
26112
  8
0
  6
CONTINUOUS
 10
12.26956908721338
 20
4.65356918600293
 30
0.0
 11
13.31878033060221
 21
5.702780429391757
 31
0.0
  0
LINE
  5
26113
  8
0
  6
CONTINUOUS
 10
12.46914983798851
 20
4.179630727697873
 30
0.0
 11
13.51836606757532
 21
5.228846957284683
 31
0.0
  0
LINE
  5
26114
  8
0
  6
CONTINUOUS
 10
12.66873058876364
 20
3.705692269392816
 30
0.0
 11
13.71795180454843
 21
4.754913485177607
 31
0.0
  0
LINE
  5
26115
  8
0
  6
CONTINUOUS
 10
12.86831133953877
 20
3.231753811087759
 30
0.0
 11
13.91753754152154
 21
4.280980013070531
 31
0.0
  0
LINE
  5
26116
  8
0
  6
CONTINUOUS
 10
13.0678920903139
 20
2.757815352782702
 30
0.0
 11
14.11712327849465
 21
3.807046540963456
 31
0.0
  0
LINE
  5
26117
  8
0
  6
CONTINUOUS
 10
13.26747284108903
 20
2.283876894477644
 30
0.0
 11
14.31670901546777
 21
3.333113068856379
 31
0.0
  0
LINE
  5
26118
  8
0
  6
CONTINUOUS
 10
16.36767838827179
 20
8.751678487061342
 30
0.0
 11
16.50332410898388
 21
8.887324207773432
 31
0.0
  0
LINE
  5
26119
  8
0
  6
CONTINUOUS
 10
15.96190732182191
 20
7.67238821153127
 30
0.0
 11
16.68735328004734
 21
8.397834169756699
 31
0.0
  0
LINE
  5
2611A
  8
0
  6
CONTINUOUS
 10
15.55613625537202
 20
6.593097936001196
 30
0.0
 11
16.87138245111079
 21
7.908344131739965
 31
0.0
  0
LINE
  5
2611B
  8
0
  6
CONTINUOUS
 10
15.15036518892213
 20
5.513807660471122
 30
0.0
 11
17.05541162217424
 21
7.418854093723231
 31
0.0
  0
LINE
  5
2611C
  8
0
  6
CONTINUOUS
 10
14.74459412247225
 20
4.434517384941048
 30
0.0
 11
17.2394407932377
 21
6.929364055706499
 31
0.0
  0
LINE
  5
2611D
  8
0
  6
CONTINUOUS
 10
14.33882305602236
 20
3.355227109410975
 30
0.0
 11
17.42346996430115
 21
6.439874017689766
 31
0.0
  0
LINE
  5
2611E
  8
0
  6
CONTINUOUS
 10
13.46705359186416
 20
1.809938436172586
 30
0.0
 11
16.0819338255367
 21
4.424818669845129
 31
0.0
  0
LINE
  5
2611F
  8
0
  6
CONTINUOUS
 10
16.63283254238972
 20
4.975717386698149
 30
0.0
 11
17.60749913536461
 21
5.950383979673033
 31
0.0
  0
LINE
  5
26120
  8
0
  6
CONTINUOUS
 10
13.66663434263929
 20
1.335999977867529
 30
0.0
 11
15.67604797733754
 21
3.345413612565779
 31
0.0
  0
LINE
  5
26121
  8
0
  6
CONTINUOUS
 10
13.86621509341442
 20
0.8620615195624723
 30
0.0
 11
15.27016212913838
 21
2.26600855528643
 31
0.0
  0
LINE
  5
26122
  8
0
  6
CONTINUOUS
 10
16.81682257348267
 20
4.486188208710908
 30
0.0
 11
17.79152830642806
 21
5.460893941656299
 31
0.0
  0
LINE
  5
26123
  8
0
  6
CONTINUOUS
 10
17.00081260457561
 20
3.996659030723667
 30
0.0
 11
17.97555747749151
 21
4.971403903639565
 31
0.0
  0
LINE
  5
26124
  8
0
  6
CONTINUOUS
 10
20.74362343514722
 20
8.412989070375462
 30
0.0
 11
21.09373436476302
 21
8.763099999991256
 31
0.0
  0
LINE
  5
26125
  8
0
  6
CONTINUOUS
 10
20.25401257174777
 20
7.249858997895826
 30
0.0
 11
21.7672535738432
 21
8.763099999991255
 31
0.0
  0
LINE
  5
26126
  8
0
  6
CONTINUOUS
 10
14.06579584418955
 20
0.3881230612574149
 30
0.0
 11
14.86427628093921
 21
1.186603498007082
 31
0.0
  0
LINE
  5
26127
  8
0
  6
CONTINUOUS
 10
14.26537659496467
 20
-0.0858153970476412
 30
0.0
 11
14.45839043274005
 21
0.1071984407277329
 31
0.0
  0
LINE
  5
26128
  8
0
  6
CONTINUOUS
 10
17.18480263566856
 20
3.507129852736426
 30
0.0
 11
18.15958664855496
 21
4.481913865622833
 31
0.0
  0
LINE
  5
26129
  8
0
  6
CONTINUOUS
 10
17.3687926667615
 20
3.017600674749186
 30
0.0
 11
18.34361581961842
 21
3.9924238276061
 31
0.0
  0
LINE
  5
2612A
  8
0
  6
CONTINUOUS
 10
19.76440170834832
 20
6.086728925416191
 30
0.0
 11
22.33924590259489
 21
8.661573119662755
 31
0.0
  0
LINE
  5
2612B
  8
0
  6
CONTINUOUS
 10
19.27479084494887
 20
4.923598852936555
 30
0.0
 11
21.84929622842713
 21
7.498104236414807
 31
0.0
  0
LINE
  5
2612C
  8
0
  6
CONTINUOUS
 10
17.55278269785445
 20
2.528071496761945
 30
0.0
 11
18.52764499068187
 21
3.502933789589366
 31
0.0
  0
LINE
  5
2612D
  8
0
  6
CONTINUOUS
 10
18.78517998154942
 20
3.760468780456919
 30
0.0
 11
21.35934655425936
 21
6.33463535316686
 31
0.0
  0
LINE
  5
2612E
  8
0
  6
CONTINUOUS
 10
17.73677272894739
 20
2.038542318774704
 30
0.0
 11
20.8693968800916
 21
5.171166469918914
 31
0.0
  0
LINE
  5
2612F
  8
0
  6
CONTINUOUS
 10
17.92076276004034
 20
1.549013140787464
 30
0.0
 11
20.37944720592384
 21
4.007697586670968
 31
0.0
  0
LINE
  5
26130
  8
0
  6
CONTINUOUS
 10
18.10475279113329
 20
1.059483962800223
 30
0.0
 11
19.88949753175608
 21
2.84422870342302
 31
0.0
  0
LINE
  5
26131
  8
0
  6
CONTINUOUS
 10
18.28874282222623
 20
0.5699547848129822
 30
0.0
 11
19.39954785758832
 21
1.680759820175074
 31
0.0
  0
LINE
  5
26132
  8
0
  6
CONTINUOUS
 10
18.47273285331918
 20
0.0804256068257416
 30
0.0
 11
18.90959818342056
 21
0.517290936927127
 31
0.0
  0
LINE
  5
26133
  8
0
  6
CONTINUOUS
 10
14.3590401358224
 20
-0.1570118376323384
 30
0.0
 11
14.24903296539946
 21
-0.0470046672093929
 31
0.0
  0
LINE
  5
26134
  8
0
  6
CONTINUOUS
 10
14.54309291258661
 20
0.332454594683643
 30
0.0
 11
13.75908329123172
 21
1.116464216038529
 31
0.0
  0
LINE
  5
26135
  8
0
  6
CONTINUOUS
 10
14.72714568935081
 20
0.8219210269996244
 30
0.0
 11
13.26913361706399
 21
2.27993309928645
 31
0.0
  0
LINE
  5
26136
  8
0
  6
CONTINUOUS
 10
14.91119846611502
 20
1.311387459315606
 30
0.0
 11
12.77918394289625
 21
3.443401982534371
 31
0.0
  0
LINE
  5
26137
  8
0
  6
CONTINUOUS
 10
15.09525124287922
 20
1.800853891631587
 30
0.0
 11
12.28923426872852
 21
4.606870865782293
 31
0.0
  0
LINE
  5
26138
  8
0
  6
CONTINUOUS
 10
15.27930401964343
 20
2.290320323947569
 30
0.0
 11
11.79928459456078
 21
5.770339749030213
 31
0.0
  0
LINE
  5
26139
  8
0
  6
CONTINUOUS
 10
15.46335679640763
 20
2.77978675626355
 30
0.0
 11
14.48885470994921
 21
3.754288842721972
 31
0.0
  0
LINE
  5
2613A
  8
0
  6
CONTINUOUS
 10
13.88507249233704
 20
4.358071060334137
 30
0.0
 11
11.30933492039305
 21
6.933808632278135
 31
0.0
  0
LINE
  5
2613B
  8
0
  6
CONTINUOUS
 10
18.75840522805855
 20
0.1582575336928151
 30
0.0
 11
18.25383727664818
 21
0.6628254851031863
 31
0.0
  0
LINE
  5
2613C
  8
0
  6
CONTINUOUS
 10
15.64740957317184
 20
3.269253188579531
 30
0.0
 11
14.67288388101266
 21
4.243778880738705
 31
0.0
  0
LINE
  5
2613D
  8
0
  6
CONTINUOUS
 10
13.39509276772158
 20
5.521569994029786
 30
0.0
 11
10.81938524622531
 21
8.097277515526056
 31
0.0
  0
LINE
  5
2613E
  8
0
  6
CONTINUOUS
 10
18.95798597883369
 20
0.6321959919978686
 30
0.0
 11
17.84825644852853
 21
1.741925522303024
 31
0.0
  0
LINE
  5
2613F
  8
0
  6
CONTINUOUS
 10
19.15756672960882
 20
1.106134450302922
 30
0.0
 11
17.44267562040888
 21
2.821025559502861
 31
0.0
  0
LINE
  5
26140
  8
0
  6
CONTINUOUS
 10
15.83146234993604
 20
3.758719620895513
 30
0.0
 11
14.85691305207612
 21
4.733268918755439
 31
0.0
  0
LINE
  5
26141
  8
0
  6
CONTINUOUS
 10
16.01551512670025
 20
4.248186053211494
 30
0.0
 11
15.04094222313957
 21
5.222758956772172
 31
0.0
  0
LINE
  5
26142
  8
0
  6
CONTINUOUS
 10
12.90511304310612
 20
6.685068927725435
 30
0.0
 11
10.8270819708403
 21
8.763099999991255
 31
0.0
  0
LINE
  5
26143
  8
0
  6
CONTINUOUS
 10
12.41513331849066
 20
7.848567861421083
 30
0.0
 11
11.50060117992049
 21
8.763099999991255
 31
0.0
  0
LINE
  5
26144
  8
0
  6
CONTINUOUS
 10
19.35714748038395
 20
1.580072908607975
 30
0.0
 11
17.03709479228923
 21
3.900125596702697
 31
0.0
  0
LINE
  5
26145
  8
0
  6
CONTINUOUS
 10
19.55672823115909
 20
2.054011366913028
 30
0.0
 11
16.63151396416958
 21
4.979225633902534
 31
0.0
  0
LINE
  5
26146
  8
0
  6
CONTINUOUS
 10
16.19956790346445
 20
4.737652485527476
 30
0.0
 11
15.22497139420302
 21
5.712248994788904
 31
0.0
  0
LINE
  5
26147
  8
0
  6
CONTINUOUS
 10
16.38362068022866
 20
5.227118917843457
 30
0.0
 11
15.40900056526648
 21
6.201739032805637
 31
0.0
  0
LINE
  5
26148
  8
0
  6
CONTINUOUS
 10
19.75630898193422
 20
2.527949825218081
 30
0.0
 11
18.70774536448286
 21
3.576513442669441
 31
0.0
  0
LINE
  5
26149
  8
0
  6
CONTINUOUS
 10
19.95588973270936
 20
3.001888283523134
 30
0.0
 11
18.90726987211446
 21
4.050508144118028
 31
0.0
  0
LINE
  5
2614A
  8
0
  6
CONTINUOUS
 10
20.15547048348449
 20
3.475826741828186
 30
0.0
 11
19.10679437974606
 21
4.524502845566614
 31
0.0
  0
LINE
  5
2614B
  8
0
  6
CONTINUOUS
 10
20.35505123425962
 20
3.94976520013324
 30
0.0
 11
19.30631888737766
 21
4.998497547015201
 31
0.0
  0
LINE
  5
2614C
  8
0
  6
CONTINUOUS
 10
20.55463198503475
 20
4.423703658438292
 30
0.0
 11
19.50584339500926
 21
5.472492248463787
 31
0.0
  0
LINE
  5
2614D
  8
0
  6
CONTINUOUS
 10
18.37481191085755
 20
3.909446896294752
 30
0.0
 11
15.59302973632993
 21
6.691229070822371
 31
0.0
  0
LINE
  5
2614E
  8
0
  6
CONTINUOUS
 10
17.96904084440766
 20
4.988737171824825
 30
0.0
 11
15.77705890739338
 21
7.180719108839104
 31
0.0
  0
LINE
  5
2614F
  8
0
  6
CONTINUOUS
 10
17.56326977795777
 20
6.068027447354899
 30
0.0
 11
15.96108807845684
 21
7.670209146855838
 31
0.0
  0
LINE
  5
26150
  8
0
  6
CONTINUOUS
 10
17.15749871150789
 20
7.147317722884972
 30
0.0
 11
16.14511724952029
 21
8.15969918487257
 31
0.0
  0
LINE
  5
26151
  8
0
  6
CONTINUOUS
 10
16.751727645058
 20
8.226607998415046
 30
0.0
 11
16.32914642058374
 21
8.649189222889303
 31
0.0
  0
LINE
  5
26152
  8
0
  6
CONTINUOUS
 10
20.75421273580989
 20
4.897642116743345
 30
0.0
 11
19.70536790264086
 21
5.946486949912374
 31
0.0
  0
LINE
  5
26153
  8
0
  6
CONTINUOUS
 10
20.95379348658502
 20
5.371580575048398
 30
0.0
 11
19.90489241027246
 21
6.42048165136096
 31
0.0
  0
LINE
  5
26154
  8
0
  6
CONTINUOUS
 10
21.15337423736015
 20
5.845519033353452
 30
0.0
 11
20.10441691790406
 21
6.894476352809547
 31
0.0
  0
LINE
  5
26155
  8
0
  6
CONTINUOUS
 10
21.35295498813529
 20
6.319457491658505
 30
0.0
 11
20.30394142553566
 21
7.368471054258134
 31
0.0
  0
LINE
  5
26156
  8
0
  6
CONTINUOUS
 10
21.55253573891042
 20
6.793395949963558
 30
0.0
 11
20.50346593316726
 21
7.842465755706721
 31
0.0
  0
LINE
  5
26157
  8
0
  6
CONTINUOUS
 10
21.75211648968556
 20
7.267334408268612
 30
0.0
 11
20.70299044079886
 21
8.316460457155308
 31
0.0
  0
LINE
  5
26158
  8
0
  6
CONTINUOUS
 10
21.95169724046069
 20
7.741272866573663
 30
0.0
 11
20.9298701070431
 21
8.763099999991256
 31
0.0
  0
LINE
  5
26159
  8
0
  6
CONTINUOUS
 10
22.15127799123582
 20
8.215211324878716
 30
0.0
 11
21.60338931612328
 21
8.763099999991256
 31
0.0
  0
LINE
  5
2615A
  8
0
  6
CONTINUOUS
 10
22.35085874201096
 20
8.689149783183769
 30
0.0
 11
22.27690852520347
 21
8.763099999991255
 31
0.0
  0
ENDBLK
  5
2624C
  8
0
  0
BLOCK
  8
0
  2
*X250
 70
     1
 10
0.0
 20
0.0
 30
0.0
  3
*X250
  1

  0
LINE
  5
2615C
  8
0
  6
CONTINUOUS
 10
23.19462913593892
 20
8.169917934846424
 30
0.0
 11
23.70775465517246
 21
8.683043454079957
 31
0.0
  0
LINE
  5
2615D
  8
0
  6
CONTINUOUS
 10
22.64923161835078
 20
6.951001208178088
 30
0.0
 11
23.9159364069932
 21
8.217705996820516
 31
0.0
  0
LINE
  5
2615E
  8
0
  6
CONTINUOUS
 10
22.10383410076263
 20
5.732084481509751
 30
0.0
 11
24.12411815881395
 21
7.752368539561078
 31
0.0
  0
LINE
  5
2615F
  8
0
  6
CONTINUOUS
 10
21.55843658317447
 20
4.513167754841414
 30
0.0
 11
24.3322999106347
 21
7.287031082301639
 31
0.0
  0
LINE
  5
26160
  8
0
  6
CONTINUOUS
 10
21.01303906558632
 20
3.294251028173077
 30
0.0
 11
24.54048166245544
 21
6.821693625042199
 31
0.0
  0
LINE
  5
26161
  8
0
  6
CONTINUOUS
 10
20.46764154799817
 20
2.075334301504738
 30
0.0
 11
23.28571549467848
 21
4.89340824818505
 31
0.0
  0
LINE
  5
26162
  8
0
  6
CONTINUOUS
 10
19.92224403041002
 20
0.8564175748364002
 30
0.0
 11
22.74075865492779
 21
3.674932199354171
 31
0.0
  0
LINE
  5
26163
  8
0
  6
CONTINUOUS
 10
23.67305085490148
 20
5.280743608408048
 30
0.0
 11
24.74866341427619
 21
6.356356167782759
 31
0.0
  0
LINE
  5
26164
  8
0
  6
CONTINUOUS
 10
23.88118970842314
 20
4.815363252849522
 30
0.0
 11
24.95684516609694
 21
5.89101871052332
 31
0.0
  0
LINE
  5
26165
  8
0
  6
CONTINUOUS
 10
19.73925852647308
 20
-0.0000871381807288
 30
0.0
 11
23.4103456646501
 21
3.670999999996297
 31
0.0
  0
LINE
  5
26166
  8
0
  6
CONTINUOUS
 10
24.0893285619448
 20
4.349982897290997
 30
0.0
 11
25.16502691791769
 21
5.42568125326388
 31
0.0
  0
LINE
  5
26167
  8
0
  6
CONTINUOUS
 10
20.41282099582748
 20
-0.0000438779065108
 30
0.0
 11
21.64944178675636
 21
1.236576913022366
 31
0.0
  0
LINE
  5
26168
  8
0
  6
CONTINUOUS
 10
22.78126487373161
 20
2.36839999999762
 30
0.0
 11
24.08386487373029
 21
3.670999999996297
 31
0.0
  0
LINE
  5
26169
  8
0
  6
CONTINUOUS
 10
24.29746741546646
 20
3.884602541732471
 30
0.0
 11
25.37320866973843
 21
4.960343796004441
 31
0.0
  0
LINE
  5
2616A
  8
0
  6
CONTINUOUS
 10
21.08638346518189
 20
-0.0000006176322938
 30
0.0
 11
21.10379033335899
 21
0.0174062505448083
 31
0.0
  0
LINE
  5
2616B
  8
0
  6
CONTINUOUS
 10
23.4547840828118
 20
2.36839999999762
 30
0.0
 11
25.58139042155918
 21
4.495006338745002
 31
0.0
  0
LINE
  5
2616C
  8
0
  6
CONTINUOUS
 10
29.30199999996933
 20
8.215615917155148
 30
0.0
 11
29.84948408280543
 21
8.763099999991255
 31
0.0
  0
LINE
  5
2616D
  8
0
  6
CONTINUOUS
 10
24.12830329189199
 20
2.36839999999762
 30
0.0
 11
25.78957217337993
 21
4.029668881485562
 31
0.0
  0
LINE
  5
2616E
  8
0
  6
CONTINUOUS
 10
29.30199999996933
 20
7.54209670807496
 30
0.0
 11
30.52300329188562
 21
8.763099999991255
 31
0.0
  0
LINE
  5
2616F
  8
0
  6
CONTINUOUS
 10
24.80182250097217
 20
2.36839999999762
 30
0.0
 11
25.99775392520067
 21
3.564331424226122
 31
0.0
  0
LINE
  5
26170
  8
0
  6
CONTINUOUS
 10
29.30199999996933
 20
6.868577498994774
 30
0.0
 11
30.74199999996926
 21
8.308577498994712
 31
0.0
  0
LINE
  5
26171
  8
0
  6
CONTINUOUS
 10
25.13028238392013
 20
2.023340673865392
 30
0.0
 11
26.20593567702142
 21
3.098993966966683
 31
0.0
  0
LINE
  5
26172
  8
0
  6
CONTINUOUS
 10
25.33838066033617
 20
1.557919741201244
 30
0.0
 11
26.41411742884217
 21
2.633656509707244
 31
0.0
  0
LINE
  5
26173
  8
0
  6
CONTINUOUS
 10
25.54647893675221
 20
1.092498808537098
 30
0.0
 11
26.62229918066291
 21
2.168319052447804
 31
0.0
  0
LINE
  5
26174
  8
0
  6
CONTINUOUS
 10
25.75457721316825
 20
0.62707787587295
 30
0.0
 11
26.83048093248366
 21
1.702981595188365
 31
0.0
  0
LINE
  5
26175
  8
0
  6
CONTINUOUS
 10
29.30199999996933
 20
6.195058289914587
 30
0.0
 11
30.74199999996926
 21
7.635058289914522
 31
0.0
  0
LINE
  5
26176
  8
0
  6
CONTINUOUS
 10
29.30199999996933
 20
5.521539080834401
 30
0.0
 11
30.74199999996926
 21
6.961539080834331
 31
0.0
  0
LINE
  5
26177
  8
0
  6
CONTINUOUS
 10
29.30199999996933
 20
4.848019871754214
 30
0.0
 11
30.74199999996925
 21
6.288019871754143
 31
0.0
  0
LINE
  5
26178
  8
0
  6
CONTINUOUS
 10
29.30199999996933
 20
4.174500662674028
 30
0.0
 11
30.74199999996925
 21
5.614500662673953
 31
0.0
  0
LINE
  5
26179
  8
0
  6
CONTINUOUS
 10
25.96267548958429
 20
0.1616569432088024
 30
0.0
 11
27.18411854636669
 21
1.383099999991207
 31
0.0
  0
LINE
  5
2617A
  8
0
  6
CONTINUOUS
 10
29.30199999996933
 20
3.500981453593841
 30
0.0
 11
30.74199999996925
 21
4.940981453593762
 31
0.0
  0
LINE
  5
2617B
  8
0
  6
CONTINUOUS
 10
26.50763775544691
 20
0.0330999999912356
 30
0.0
 11
27.85763775544689
 21
1.383099999991223
 31
0.0
  0
LINE
  5
2617C
  8
0
  6
CONTINUOUS
 10
29.30199999996933
 20
2.827462244513656
 30
0.0
 11
30.74199999996925
 21
4.267462244513574
 31
0.0
  0
LINE
  5
2617D
  8
0
  6
CONTINUOUS
 10
27.18115696452709
 20
0.0330999999912356
 30
0.0
 11
28.55073879889363
 21
1.402681834357775
 31
0.0
  0
LINE
  5
2617E
  8
0
  6
CONTINUOUS
 10
29.28241816560272
 20
2.134361201066866
 30
0.0
 11
30.74199999996924
 21
3.593943035433383
 31
0.0
  0
LINE
  5
2617F
  8
0
  6
CONTINUOUS
 10
27.85467617360728
 20
0.0330999999912356
 30
0.0
 11
30.74199999996924
 21
2.920423826353195
 31
0.0
  0
LINE
  5
26180
  8
0
  6
CONTINUOUS
 10
28.53897559587887
 20
0.0438802131826428
 30
0.0
 11
30.73121978677781
 21
2.236124404081585
 31
0.0
  0
LINE
  5
26181
  8
0
  6
CONTINUOUS
 10
29.45140055588722
 20
0.2827859641107988
 30
0.0
 11
30.49231403584965
 21
1.323699444073236
 31
0.0
  0
LINE
  5
26182
  8
0
  6
CONTINUOUS
 10
19.59027867740337
 20
-0.0000967065718083
 30
0.0
 11
19.55485265190471
 21
0.035329318926844
 31
0.0
  0
LINE
  5
26183
  8
0
  6
CONTINUOUS
 10
20.26375463176586
 20
-0.0000534518541091
 30
0.0
 11
19.76305575737534
 21
0.5006454225364014
 31
0.0
  0
LINE
  5
26184
  8
0
  6
CONTINUOUS
 10
20.93723058612834
 20
-0.0000101971364099
 30
0.0
 11
19.97125886284597
 21
0.965961526145958
 31
0.0
  0
LINE
  5
26185
  8
0
  6
CONTINUOUS
 10
21.25514828313686
 20
0.355591314935257
 30
0.0
 11
20.1794619683166
 21
1.431277629755512
 31
0.0
  0
LINE
  5
26186
  8
0
  6
CONTINUOUS
 10
21.46338838394921
 20
0.8208704232030986
 30
0.0
 11
20.38766507378723
 21
1.896593733365069
 31
0.0
  0
LINE
  5
26187
  8
0
  6
CONTINUOUS
 10
21.67162848476155
 20
1.28614953147094
 30
0.0
 11
20.59586817925786
 21
2.361909836974626
 31
0.0
  0
LINE
  5
26188
  8
0
  6
CONTINUOUS
 10
21.8798685855739
 20
1.751428639738782
 30
0.0
 11
20.80407128472849
 21
2.827225940584183
 31
0.0
  0
LINE
  5
26189
  8
0
  6
CONTINUOUS
 10
22.08810868638624
 20
2.216707748006623
 30
0.0
 11
21.01227439019912
 21
3.292542044193739
 31
0.0
  0
LINE
  5
2618A
  8
0
  6
CONTINUOUS
 10
22.60993564347543
 20
2.36839999999762
 30
0.0
 11
21.22047749566975
 21
3.757858147803296
 31
0.0
  0
LINE
  5
2618B
  8
0
  6
CONTINUOUS
 10
23.28345485255561
 20
2.36839999999762
 30
0.0
 11
21.42868060114038
 21
4.223174251412853
 31
0.0
  0
LINE
  5
2618C
  8
0
  6
CONTINUOUS
 10
26.29227406164219
 20
0.0330999999912356
 30
0.0
 11
25.80009199592872
 21
0.5252820657046957
 31
0.0
  0
LINE
  5
2618D
  8
0
  6
CONTINUOUS
 10
23.9569740616358
 20
2.36839999999762
 30
0.0
 11
21.63688370661101
 21
4.688490355022409
 31
0.0
  0
LINE
  5
2618E
  8
0
  6
CONTINUOUS
 10
26.96579327072237
 20
0.0330999999912356
 30
0.0
 11
25.2554132311971
 21
1.743480039516508
 31
0.0
  0
LINE
  5
2618F
  8
0
  6
CONTINUOUS
 10
24.63049327071599
 20
2.36839999999762
 30
0.0
 11
23.32789327071731
 21
3.670999999996297
 31
0.0
  0
LINE
  5
26190
  8
0
  6
CONTINUOUS
 10
22.92098674744635
 20
4.077906523267254
 30
0.0
 11
21.84508681208164
 21
5.153806458631966
 31
0.0
  0
LINE
  5
26191
  8
0
  6
CONTINUOUS
 10
27.63931247980256
 20
0.0330999999912356
 30
0.0
 11
24.0014124797975
 21
3.670999999996297
 31
0.0
  0
LINE
  5
26192
  8
0
  6
CONTINUOUS
 10
23.129125600968
 20
4.5432868788258
 30
0.0
 11
22.05328991755227
 21
5.619122562241522
 31
0.0
  0
LINE
  5
26193
  8
0
  6
CONTINUOUS
 10
28.31283168888275
 20
0.0330999999912356
 30
0.0
 11
24.16488385994816
 21
4.181047828925828
 31
0.0
  0
LINE
  5
26194
  8
0
  6
CONTINUOUS
 10
23.33726445448964
 20
5.008667234384345
 30
0.0
 11
22.2614930230229
 21
6.084438665851079
 31
0.0
  0
LINE
  5
26195
  8
0
  6
CONTINUOUS
 10
28.92085740005492
 20
0.0985934978992438
 30
0.0
 11
27.63635089796295
 21
1.383099999991217
 31
0.0
  0
LINE
  5
26196
  8
0
  6
CONTINUOUS
 10
26.43704649509776
 20
2.582404402856405
 30
0.0
 11
23.61992702019732
 21
5.399523877756844
 31
0.0
  0
LINE
  5
26197
  8
0
  6
CONTINUOUS
 10
23.54540330801128
 20
5.47404758994289
 30
0.0
 11
22.46969612849353
 21
6.549754769460635
 31
0.0
  0
LINE
  5
26198
  8
0
  6
CONTINUOUS
 10
29.42225615078443
 20
0.2707139562499279
 30
0.0
 11
28.30987010704312
 21
1.383099999991234
 31
0.0
  0
LINE
  5
26199
  8
0
  6
CONTINUOUS
 10
25.89179548232307
 20
3.801174624711282
 30
0.0
 11
22.67789923396416
 21
7.015070873070191
 31
0.0
  0
LINE
  5
2619A
  8
0
  6
CONTINUOUS
 10
29.83624534690007
 20
0.5302439692144705
 30
0.0
 11
28.85811781497101
 21
1.508371501143527
 31
0.0
  0
LINE
  5
2619B
  8
0
  6
CONTINUOUS
 10
25.34654446954838
 20
5.01994484656616
 30
0.0
 11
22.88610233943479
 21
7.480386976679748
 31
0.0
  0
LINE
  5
2619C
  8
0
  6
CONTINUOUS
 10
30.17865975401872
 20
0.8613487711760022
 30
0.0
 11
29.18888744090175
 21
1.851121084292977
 31
0.0
  0
LINE
  5
2619D
  8
0
  6
CONTINUOUS
 10
24.80129345677369
 20
6.238715068421037
 30
0.0
 11
23.09430544490542
 21
7.945703080289305
 31
0.0
  0
LINE
  5
2619E
  8
0
  6
CONTINUOUS
 10
30.45496647202376
 20
1.258561262251155
 30
0.0
 11
29.30199999996933
 21
2.411527734305588
 31
0.0
  0
LINE
  5
2619F
  8
0
  6
CONTINUOUS
 10
24.256042443999
 20
7.457485290275915
 30
0.0
 11
23.30250855037605
 21
8.411019183898862
 31
0.0
  0
LINE
  5
261A0
  8
0
  6
CONTINUOUS
 10
30.64868582078271
 20
1.738361122572387
 30
0.0
 11
29.30199999996933
 21
3.085046943385775
 31
0.0
  0
LINE
  5
261A1
  8
0
  6
CONTINUOUS
 10
23.71079143122431
 20
8.676255512130794
 30
0.0
 11
23.51071165584668
 21
8.876335287508416
 31
0.0
  0
LINE
  5
261A2
  8
0
  6
CONTINUOUS
 10
30.73802122914428
 20
2.322544923291007
 30
0.0
 11
29.30199999996933
 21
3.758566152465961
 31
0.0
  0
LINE
  5
261A3
  8
0
  6
CONTINUOUS
 10
30.74199999996924
 20
2.992085361546236
 30
0.0
 11
29.30199999996933
 21
4.432085361546148
 31
0.0
  0
LINE
  5
261A4
  8
0
  6
CONTINUOUS
 10
30.74199999996924
 20
3.665604570626419
 30
0.0
 11
29.30199999996933
 21
5.105604570626333
 31
0.0
  0
LINE
  5
261A5
  8
0
  6
CONTINUOUS
 10
30.74199999996925
 20
4.339123779706602
 30
0.0
 11
29.30199999996933
 21
5.77912377970652
 31
0.0
  0
LINE
  5
261A6
  8
0
  6
CONTINUOUS
 10
30.74199999996925
 20
5.012642988786785
 30
0.0
 11
29.30199999996933
 21
6.452642988786707
 31
0.0
  0
LINE
  5
261A7
  8
0
  6
CONTINUOUS
 10
30.74199999996925
 20
5.68616219786697
 30
0.0
 11
29.30199999996933
 21
7.126162197866894
 31
0.0
  0
LINE
  5
261A8
  8
0
  6
CONTINUOUS
 10
30.74199999996925
 20
6.359681406947153
 30
0.0
 11
29.30199999996933
 21
7.799681406947081
 31
0.0
  0
LINE
  5
261A9
  8
0
  6
CONTINUOUS
 10
30.74199999996926
 20
7.033200616027337
 30
0.0
 11
29.30199999996933
 21
8.473200616027269
 31
0.0
  0
LINE
  5
261AA
  8
0
  6
CONTINUOUS
 10
30.74199999996926
 20
7.706719825107518
 30
0.0
 11
29.68561982508552
 21
8.763099999991255
 31
0.0
  0
LINE
  5
261AB
  8
0
  6
CONTINUOUS
 10
30.74199999996926
 20
8.380239034187703
 30
0.0
 11
30.35913903416571
 21
8.763099999991255
 31
0.0
  0
ENDBLK
  5
2624E
  8
0
  0
BLOCK
  8
0
  2
*X251
 70
     1
 10
0.0
 20
0.0
 30
0.0
  3
*X251
  1

  0
LINE
  5
261AD
  8
0
  6
CONTINUOUS
 10
31.64199999996833
 20
8.535058289913598
 30
0.0
 11
31.87004171004599
 21
8.763099999991255
 31
0.0
  0
LINE
  5
261AE
  8
0
  6
CONTINUOUS
 10
31.64199999996833
 20
7.861539080833412
 30
0.0
 11
32.54356091912618
 21
8.763099999991255
 31
0.0
  0
LINE
  5
261AF
  8
0
  6
CONTINUOUS
 10
31.64199999996833
 20
7.188019871753226
 30
0.0
 11
33.08199999996839
 21
8.628019871753281
 31
0.0
  0
LINE
  5
261B0
  8
0
  6
CONTINUOUS
 10
31.64199999996833
 20
6.51450066267304
 30
0.0
 11
33.08199999996839
 21
7.954500662673095
 31
0.0
  0
LINE
  5
261B1
  8
0
  6
CONTINUOUS
 10
31.64199999996833
 20
5.840981453592853
 30
0.0
 11
33.08199999996839
 21
7.280981453592908
 31
0.0
  0
LINE
  5
261B2
  8
0
  6
CONTINUOUS
 10
31.64199999996833
 20
5.167462244512667
 30
0.0
 11
33.08199999996839
 21
6.607462244512721
 31
0.0
  0
LINE
  5
261B3
  8
0
  6
CONTINUOUS
 10
31.64199999996833
 20
4.493943035432481
 30
0.0
 11
33.08199999996839
 21
5.933943035432535
 31
0.0
  0
LINE
  5
261B4
  8
0
  6
CONTINUOUS
 10
31.64199999996833
 20
3.820423826352293
 30
0.0
 11
33.08199999996839
 21
5.260423826352348
 31
0.0
  0
LINE
  5
261B5
  8
0
  6
CONTINUOUS
 10
31.64199999996833
 20
3.146904617272106
 30
0.0
 11
33.08199999996839
 21
4.586904617272161
 31
0.0
  0
LINE
  5
261B6
  8
0
  6
CONTINUOUS
 10
36.23199999996837
 20
8.410423826352325
 30
0.0
 11
36.5846761736073
 21
8.763099999991255
 31
0.0
  0
LINE
  5
261B7
  8
0
  6
CONTINUOUS
 10
36.23199999996837
 20
7.73690461727214
 30
0.0
 11
37.25819538268748
 21
8.763099999991255
 31
0.0
  0
LINE
  5
261B8
  8
0
  6
CONTINUOUS
 10
31.64257403601376
 20
2.473959444237348
 30
0.0
 11
33.08199999996839
 21
3.913385408191974
 31
0.0
  0
LINE
  5
261B9
  8
0
  6
CONTINUOUS
 10
36.23199999996837
 20
7.063385408191953
 30
0.0
 11
37.67199999996831
 21
8.503385408191894
 31
0.0
  0
LINE
  5
261BA
  8
0
  6
CONTINUOUS
 10
31.72013636841932
 20
1.87800256756272
 30
0.0
 11
33.08199999996839
 21
3.239866199111788
 31
0.0
  0
LINE
  5
261BB
  8
0
  6
CONTINUOUS
 10
36.23199999996837
 20
6.389866199111767
 30
0.0
 11
37.67199999996831
 21
7.829866199111708
 31
0.0
  0
LINE
  5
261BC
  8
0
  6
CONTINUOUS
 10
31.89042734314753
 20
1.374774333210744
 30
0.0
 11
33.08199999996839
 21
2.566346990031601
 31
0.0
  0
LINE
  5
261BD
  8
0
  6
CONTINUOUS
 10
36.23199999996837
 20
5.71634699003158
 30
0.0
 11
37.67199999996831
 21
7.156346990031521
 31
0.0
  0
LINE
  5
261BE
  8
0
  6
CONTINUOUS
 10
32.14210568064475
 20
0.952933461627778
 30
0.0
 11
33.18745552475986
 21
1.998283305742888
 31
0.0
  0
LINE
  5
261BF
  8
0
  6
CONTINUOUS
 10
36.23199999996837
 20
5.042827780951393
 30
0.0
 11
37.67199999996831
 21
6.482827780951334
 31
0.0
  0
LINE
  5
261C0
  8
0
  6
CONTINUOUS
 10
32.45820639400955
 20
0.5955149659123915
 30
0.0
 11
33.47242681921943
 21
1.60973539112227
 31
0.0
  0
LINE
  5
261C1
  8
0
  6
CONTINUOUS
 10
36.23199999996837
 20
4.369308571871207
 30
0.0
 11
37.67199999996831
 21
5.809308571871147
 31
0.0
  0
LINE
  5
261C2
  8
0
  6
CONTINUOUS
 10
32.83432456621412
 20
0.2981139290367771
 30
0.0
 11
33.89722476612215
 21
1.361014128944803
 31
0.0
  0
LINE
  5
261C3
  8
0
  6
CONTINUOUS
 10
36.23199999996837
 20
3.69578936279102
 30
0.0
 11
37.67199999996831
 21
5.135789362790962
 31
0.0
  0
LINE
  5
261C4
  8
0
  6
CONTINUOUS
 10
33.2711633111245
 20
0.0614334648669672
 30
0.0
 11
34.43247338014423
 21
1.222743533886696
 31
0.0
  0
LINE
  5
261C5
  8
0
  6
CONTINUOUS
 10
36.23199999996837
 20
3.022270153710834
 30
0.0
 11
37.67199999996831
 21
4.462270153710775
 31
0.0
  0
LINE
  5
261C6
  8
0
  6
CONTINUOUS
 10
33.76515245874577
 20
-0.1180965965919523
 30
0.0
 11
35.1587445516215
 21
1.27549549628378
 31
0.0
  0
LINE
  5
261C7
  8
0
  6
CONTINUOUS
 10
36.21639478609585
 20
2.333145730758136
 30
0.0
 11
37.67199999996831
 21
3.788750944630588
 31
0.0
  0
LINE
  5
261C8
  8
0
  6
CONTINUOUS
 10
34.34060583368432
 20
-0.2161624307335863
 30
0.0
 11
37.67199999996831
 21
3.115231735550401
 31
0.0
  0
LINE
  5
261C9
  8
0
  6
CONTINUOUS
 10
35.01698193613905
 20
-0.2133055373590427
 30
0.0
 11
37.66876712070525
 21
2.438479647207154
 31
0.0
  0
LINE
  5
261CA
  8
0
  6
CONTINUOUS
 10
35.90743367693304
 20
0.0036269943547609
 30
0.0
 11
37.51723902192366
 21
1.613432339345381
 31
0.0
  0
LINE
  5
261CB
  8
0
  6
CONTINUOUS
 10
32.55309425579761
 20
0.5074718966376706
 30
0.0
 11
32.27784730925847
 21
0.7827188431768102
 31
0.0
  0
LINE
  5
261CC
  8
0
  6
CONTINUOUS
 10
33.87496468909684
 20
-0.1408793275813673
 30
0.0
 11
31.67993083278052
 21
2.054154528734943
 31
0.0
  0
LINE
  5
261CD
  8
0
  6
CONTINUOUS
 10
34.64362813207632
 20
-0.2360235614806649
 30
0.0
 11
31.64199999996833
 21
2.765604570627322
 31
0.0
  0
LINE
  5
261CE
  8
0
  6
CONTINUOUS
 10
35.25801106796118
 20
-0.1768872882853429
 30
0.0
 11
31.64199999996833
 21
3.439123779707508
 31
0.0
  0
LINE
  5
261CF
  8
0
  6
CONTINUOUS
 10
35.79065650332146
 20
-0.0360135145654361
 30
0.0
 11
34.54143210838231
 21
1.213210880373721
 31
0.0
  0
LINE
  5
261D0
  8
0
  6
CONTINUOUS
 10
33.08199999996839
 20
2.67264298878764
 30
0.0
 11
31.64199999996833
 21
4.112642988787695
 31
0.0
  0
LINE
  5
261D1
  8
0
  6
CONTINUOUS
 10
36.25975597779143
 20
0.1684062200447833
 30
0.0
 11
35.15395110240023
 21
1.274211095435983
 31
0.0
  0
LINE
  5
261D2
  8
0
  6
CONTINUOUS
 10
33.08199999996839
 20
3.346162197867826
 30
0.0
 11
31.64199999996833
 21
4.786162197867881
 31
0.0
  0
LINE
  5
261D3
  8
0
  6
CONTINUOUS
 10
36.67226329638774
 20
0.4294181105286579
 30
0.0
 11
35.63766478748767
 21
1.464016619428737
 31
0.0
  0
LINE
  5
261D4
  8
0
  6
CONTINUOUS
 10
33.08199999996839
 20
4.019681406948012
 30
0.0
 11
31.64199999996833
 21
5.459681406948068
 31
0.0
  0
LINE
  5
261D5
  8
0
  6
CONTINUOUS
 10
37.01677749710036
 20
0.7584231188962329
 30
0.0
 11
35.99563422741351
 21
1.779566388583076
 31
0.0
  0
LINE
  5
261D6
  8
0
  6
CONTINUOUS
 10
33.08199999996839
 20
4.693200616028199
 30
0.0
 11
31.64199999996833
 21
6.133200616028255
 31
0.0
  0
LINE
  5
261D7
  8
0
  6
CONTINUOUS
 10
37.29859977568887
 20
1.1501200493879
 30
0.0
 11
36.20680593341555
 21
2.241913891661226
 31
0.0
  0
LINE
  5
261D8
  8
0
  6
CONTINUOUS
 10
33.08199999996839
 20
5.366719825108386
 30
0.0
 11
31.64199999996833
 21
6.80671982510844
 31
0.0
  0
LINE
  5
261D9
  8
0
  6
CONTINUOUS
 10
37.5148623517228
 20
1.607376682434161
 30
0.0
 11
36.23199999996837
 21
2.890239034188594
 31
0.0
  0
LINE
  5
261DA
  8
0
  6
CONTINUOUS
 10
33.08199999996839
 20
6.040239034188573
 30
0.0
 11
31.64199999996833
 21
7.480239034188627
 31
0.0
  0
LINE
  5
261DB
  8
0
  6
CONTINUOUS
 10
37.64705163358367
 20
2.148706609653477
 30
0.0
 11
36.23199999996837
 21
3.56375824326878
 31
0.0
  0
LINE
  5
261DC
  8
0
  6
CONTINUOUS
 10
33.08199999996839
 20
6.713758243268758
 30
0.0
 11
31.64199999996833
 21
8.153758243268815
 31
0.0
  0
LINE
  5
261DD
  8
0
  6
CONTINUOUS
 10
37.67199999996831
 20
2.797277452349026
 30
0.0
 11
36.23199999996837
 21
4.237277452348967
 31
0.0
  0
LINE
  5
261DE
  8
0
  6
CONTINUOUS
 10
37.67199999996831
 20
3.470796661429213
 30
0.0
 11
36.23199999996837
 21
4.910796661429154
 31
0.0
  0
LINE
  5
261DF
  8
0
  6
CONTINUOUS
 10
37.67199999996831
 20
4.144315870509399
 30
0.0
 11
36.23199999996837
 21
5.58431587050934
 31
0.0
  0
LINE
  5
261E0
  8
0
  6
CONTINUOUS
 10
33.08199999996839
 20
7.387277452348945
 30
0.0
 11
31.70617745232608
 21
8.763099999991255
 31
0.0
  0
LINE
  5
261E1
  8
0
  6
CONTINUOUS
 10
33.08199999996839
 20
8.060796661429132
 30
0.0
 11
32.37969666140626
 21
8.763099999991255
 31
0.0
  0
LINE
  5
261E2
  8
0
  6
CONTINUOUS
 10
33.08199999996839
 20
8.734315870509318
 30
0.0
 11
33.05321587048645
 21
8.763099999991255
 31
0.0
  0
LINE
  5
261E3
  8
0
  6
CONTINUOUS
 10
37.67199999996831
 20
4.817835079589585
 30
0.0
 11
36.23199999996837
 21
6.257835079589526
 31
0.0
  0
LINE
  5
261E4
  8
0
  6
CONTINUOUS
 10
37.67199999996831
 20
5.491354288669771
 30
0.0
 11
36.23199999996837
 21
6.931354288669713
 31
0.0
  0
LINE
  5
261E5
  8
0
  6
CONTINUOUS
 10
37.67199999996831
 20
6.164873497749958
 30
0.0
 11
36.23199999996837
 21
7.6048734977499
 31
0.0
  0
LINE
  5
261E6
  8
0
  6
CONTINUOUS
 10
37.67199999996831
 20
6.838392706830144
 30
0.0
 11
36.23199999996837
 21
8.278392706830086
 31
0.0
  0
LINE
  5
261E7
  8
0
  6
CONTINUOUS
 10
37.67199999996831
 20
7.511911915910332
 30
0.0
 11
36.42081191588738
 21
8.763099999991255
 31
0.0
  0
LINE
  5
261E8
  8
0
  6
CONTINUOUS
 10
37.67199999996831
 20
8.185431124990519
 30
0.0
 11
37.09433112496757
 21
8.763099999991255
 31
0.0
  0
ENDBLK
  5
26250
  8
0
  0
BLOCK
  8
0
  2
*X252
 70
     1
 10
0.0
 20
0.0
 30
0.0
  3
*X252
  1

  0
LINE
  5
261EA
  8
0
  6
CONTINUOUS
 10
38.60499999996136
 20
8.762866199104765
 30
0.0
 11
38.71672554182345
 21
8.874591740966855
 31
0.0
  0
LINE
  5
261EB
  8
0
  6
CONTINUOUS
 10
38.60499999996136
 20
8.089346990024577
 30
0.0
 11
39.03418785440363
 21
8.518534844466847
 31
0.0
  0
LINE
  5
261EC
  8
0
  6
CONTINUOUS
 10
38.60499999996136
 20
7.41582778094439
 30
0.0
 11
39.35165016698382
 21
8.16247794796684
 31
0.0
  0
LINE
  5
261ED
  8
0
  6
CONTINUOUS
 10
38.60499999996136
 20
6.742308571864204
 30
0.0
 11
39.66911247956399
 21
7.806421051466834
 31
0.0
  0
LINE
  5
261EE
  8
0
  6
CONTINUOUS
 10
38.60499999996136
 20
6.068789362784018
 30
0.0
 11
39.98657479214418
 21
7.450364154966827
 31
0.0
  0
LINE
  5
261EF
  8
0
  6
CONTINUOUS
 10
38.60499999996136
 20
5.395270153703832
 30
0.0
 11
40.30403710472435
 21
7.09430725846682
 31
0.0
  0
LINE
  5
261F0
  8
0
  6
CONTINUOUS
 10
38.60499999996136
 20
4.721750944623645
 30
0.0
 11
40.62149941730453
 21
6.738250361966813
 31
0.0
  0
LINE
  5
261F1
  8
0
  6
CONTINUOUS
 10
38.60499999996136
 20
4.048231735543458
 30
0.0
 11
40.93896172988471
 21
6.382193465466806
 31
0.0
  0
LINE
  5
261F2
  8
0
  6
CONTINUOUS
 10
38.60499999996136
 20
3.374712526463272
 30
0.0
 11
40.02599999995994
 21
4.795712526461843
 31
0.0
  0
LINE
  5
261F3
  8
0
  6
CONTINUOUS
 10
38.60499999996136
 20
2.701193317383085
 30
0.0
 11
40.02599999995994
 21
4.122193317381657
 31
0.0
  0
LINE
  5
261F4
  8
0
  6
CONTINUOUS
 10
40.28339754687704
 20
5.053110073378947
 30
0.0
 11
41.25642404246489
 21
6.026136568966799
 31
0.0
  0
LINE
  5
261F5
  8
0
  6
CONTINUOUS
 10
40.60085985945722
 20
4.697053176878939
 30
0.0
 11
41.57388635504507
 21
5.670079672466793
 31
0.0
  0
LINE
  5
261F6
  8
0
  6
CONTINUOUS
 10
43.57899999995641
 20
8.348712526458318
 30
0.0
 11
43.99338747348935
 21
8.763099999991255
 31
0.0
  0
LINE
  5
261F7
  8
0
  6
CONTINUOUS
 10
43.57899999995641
 20
7.675193317378131
 30
0.0
 11
44.66690668256953
 21
8.763099999991255
 31
0.0
  0
LINE
  5
261F8
  8
0
  6
CONTINUOUS
 10
38.60499999996136
 20
2.027674108302898
 30
0.0
 11
40.02599999995994
 21
3.44867410830147
 31
0.0
  0
LINE
  5
261F9
  8
0
  6
CONTINUOUS
 10
38.60499999996136
 20
1.354154899222712
 30
0.0
 11
40.02599999995994
 21
2.775154899221284
 31
0.0
  0
LINE
  5
261FA
  8
0
  6
CONTINUOUS
 10
38.60499999996136
 20
0.6806356901425255
 30
0.0
 11
40.02599999995994
 21
2.101635690141098
 31
0.0
  0
LINE
  5
261FB
  8
0
  6
CONTINUOUS
 10
38.60499999996136
 20
0.0071164810623383
 30
0.0
 11
40.02599999995994
 21
1.428116481060911
 31
0.0
  0
LINE
  5
261FC
  8
0
  6
CONTINUOUS
 10
40.9183221720374
 20
4.340996280378933
 30
0.0
 11
41.89134866762525
 21
5.314022775966786
 31
0.0
  0
LINE
  5
261FD
  8
0
  6
CONTINUOUS
 10
41.23578448461758
 20
3.984939383878926
 30
0.0
 11
42.20881098020543
 21
4.957965879466778
 31
0.0
  0
LINE
  5
261FE
  8
0
  6
CONTINUOUS
 10
41.55324679719776
 20
3.628882487378919
 30
0.0
 11
42.52627329278561
 21
4.601908982966772
 31
0.0
  0
LINE
  5
261FF
  8
0
  6
CONTINUOUS
 10
41.87070910977793
 20
3.272825590878912
 30
0.0
 11
42.84373560536579
 21
4.245852086466765
 31
0.0
  0
LINE
  5
26200
  8
0
  6
CONTINUOUS
 10
43.57899999995641
 20
7.001674108297943
 30
0.0
 11
44.99999999995498
 21
8.422674108296516
 31
0.0
  0
LINE
  5
26201
  8
0
  6
CONTINUOUS
 10
43.57899999995641
 20
6.328154899217758
 30
0.0
 11
44.99999999995498
 21
7.749154899216329
 31
0.0
  0
LINE
  5
26202
  8
0
  6
CONTINUOUS
 10
43.57899999995641
 20
5.654635690137571
 30
0.0
 11
44.99999999995498
 21
7.075635690136142
 31
0.0
  0
LINE
  5
26203
  8
0
  6
CONTINUOUS
 10
43.57899999995641
 20
4.981116481057384
 30
0.0
 11
44.99999999995498
 21
6.402116481055955
 31
0.0
  0
LINE
  5
26204
  8
0
  6
CONTINUOUS
 10
39.27140272797921
 20
-0.0000000000000009
 30
0.0
 11
40.02599999995994
 21
0.7545972719807246
 31
0.0
  0
LINE
  5
26205
  8
0
  6
CONTINUOUS
 10
39.9449219370594
 20
-0.0000000000000009
 30
0.0
 11
40.02599999995994
 21
0.0810780629005379
 31
0.0
  0
LINE
  5
26206
  8
0
  6
CONTINUOUS
 10
42.18817142235812
 20
2.916768694378905
 30
0.0
 11
43.16119791794597
 21
3.889795189966758
 31
0.0
  0
LINE
  5
26207
  8
0
  6
CONTINUOUS
 10
42.50563373493829
 20
2.560711797878898
 30
0.0
 11
43.47866023052615
 21
3.533738293466751
 31
0.0
  0
LINE
  5
26208
  8
0
  6
CONTINUOUS
 10
43.57899999995641
 20
4.307597271977198
 30
0.0
 11
44.99999999995498
 21
5.728597271975769
 31
0.0
  0
LINE
  5
26209
  8
0
  6
CONTINUOUS
 10
43.57899999995641
 20
3.634078062897011
 30
0.0
 11
44.99999999995498
 21
5.055078062895582
 31
0.0
  0
LINE
  5
2620A
  8
0
  6
CONTINUOUS
 10
42.82309604751848
 20
2.204654901378891
 30
0.0
 11
44.99999999995498
 21
4.381558853815395
 31
0.0
  0
LINE
  5
2620B
  8
0
  6
CONTINUOUS
 10
43.14055836009865
 20
1.848598004878885
 30
0.0
 11
44.99999999995498
 21
3.70803964473521
 31
0.0
  0
LINE
  5
2620C
  8
0
  6
CONTINUOUS
 10
43.45802067267883
 20
1.492541108378878
 30
0.0
 11
44.99999999995498
 21
3.034520435655023
 31
0.0
  0
LINE
  5
2620D
  8
0
  6
CONTINUOUS
 10
43.77548298525902
 20
1.136484211878871
 30
0.0
 11
44.99999999995498
 21
2.361001226574837
 31
0.0
  0
LINE
  5
2620E
  8
0
  6
CONTINUOUS
 10
44.09294529783919
 20
0.7804273153788639
 30
0.0
 11
44.99999999995498
 21
1.687482017494649
 31
0.0
  0
LINE
  5
2620F
  8
0
  6
CONTINUOUS
 10
44.41040761041938
 20
0.4243704188788566
 30
0.0
 11
44.99999999995498
 21
1.013962808414463
 31
0.0
  0
LINE
  5
26210
  8
0
  6
CONTINUOUS
 10
44.72786992299955
 20
0.0683135223788494
 30
0.0
 11
44.99999999995498
 21
0.340443599334276
 31
0.0
  0
LINE
  5
26211
  8
0
  6
CONTINUOUS
 10
39.12223903415696
 20
-0.0000000000000009
 30
0.0
 11
38.60499999996136
 21
0.5172390341955961
 31
0.0
  0
LINE
  5
26212
  8
0
  6
CONTINUOUS
 10
39.79575824323715
 20
-0.0000000000000009
 30
0.0
 11
38.60499999996136
 21
1.190758243275783
 31
0.0
  0
LINE
  5
26213
  8
0
  6
CONTINUOUS
 10
40.02599999995994
 20
0.443277452357397
 30
0.0
 11
38.60499999996136
 21
1.864277452355969
 31
0.0
  0
LINE
  5
26214
  8
0
  6
CONTINUOUS
 10
40.02599999995994
 20
1.116796661437583
 30
0.0
 11
38.60499999996136
 21
2.537796661436155
 31
0.0
  0
LINE
  5
26215
  8
0
  6
CONTINUOUS
 10
40.02599999995994
 20
1.79031587051777
 30
0.0
 11
38.60499999996136
 21
3.211315870516341
 31
0.0
  0
LINE
  5
26216
  8
0
  6
CONTINUOUS
 10
40.02599999995994
 20
2.463835079597956
 30
0.0
 11
38.60499999996136
 21
3.884835079596527
 31
0.0
  0
LINE
  5
26217
  8
0
  6
CONTINUOUS
 10
40.02599999995994
 20
3.137354288678143
 30
0.0
 11
38.60499999996136
 21
4.558354288676714
 31
0.0
  0
LINE
  5
26218
  8
0
  6
CONTINUOUS
 10
40.02599999995994
 20
3.810873497758329
 30
0.0
 11
38.60499999996136
 21
5.2318734977569
 31
0.0
  0
LINE
  5
26219
  8
0
  6
CONTINUOUS
 10
40.02599999995994
 20
4.484392706838515
 30
0.0
 11
38.60499999996136
 21
5.905392706837086
 31
0.0
  0
LINE
  5
2621A
  8
0
  6
CONTINUOUS
 10
44.99999999995498
 20
0.183911915923658
 30
0.0
 11
41.53858364506288
 21
3.64532827081576
 31
0.0
  0
LINE
  5
2621B
  8
0
  6
CONTINUOUS
 10
40.02599999995994
 20
5.157911915918703
 30
0.0
 11
38.60499999996136
 21
6.578911915917274
 31
0.0
  0
LINE
  5
2621C
  8
0
  6
CONTINUOUS
 10
44.99999999995498
 20
0.8574311250038447
 30
0.0
 11
38.60499999996136
 21
7.25243112499746
 31
0.0
  0
LINE
  5
2621D
  8
0
  6
CONTINUOUS
 10
44.99999999995498
 20
1.530950334084031
 30
0.0
 11
38.60499999996136
 21
7.925950334077647
 31
0.0
  0
LINE
  5
2621E
  8
0
  6
CONTINUOUS
 10
44.99999999995498
 20
2.204469543164218
 30
0.0
 11
43.57899999995641
 21
3.625469543162789
 31
0.0
  0
LINE
  5
2621F
  8
0
  6
CONTINUOUS
 10
41.89876730984767
 20
5.305702233271528
 30
0.0
 11
38.60499999996136
 21
8.599469543157834
 31
0.0
  0
LINE
  5
26220
  8
0
  6
CONTINUOUS
 10
44.99999999995498
 20
2.877988752244405
 30
0.0
 11
43.57899999995641
 21
4.298988752242975
 31
0.0
  0
LINE
  5
26221
  8
0
  6
CONTINUOUS
 10
44.99999999995498
 20
3.551507961324591
 30
0.0
 11
43.57899999995641
 21
4.972507961323163
 31
0.0
  0
LINE
  5
26222
  8
0
  6
CONTINUOUS
 10
44.99999999995498
 20
4.225027170404777
 30
0.0
 11
43.57899999995641
 21
5.646027170403348
 31
0.0
  0
LINE
  5
26223
  8
0
  6
CONTINUOUS
 10
44.99999999995498
 20
4.898546379484964
 30
0.0
 11
43.57899999995641
 21
6.319546379483535
 31
0.0
  0
LINE
  5
26224
  8
0
  6
CONTINUOUS
 10
44.99999999995498
 20
5.572065588565151
 30
0.0
 11
43.57899999995641
 21
6.993065588563722
 31
0.0
  0
LINE
  5
26225
  8
0
  6
CONTINUOUS
 10
44.99999999995498
 20
6.245584797645336
 30
0.0
 11
43.57899999995641
 21
7.666584797643908
 31
0.0
  0
LINE
  5
26226
  8
0
  6
CONTINUOUS
 10
44.99999999995498
 20
6.919104006725522
 30
0.0
 11
43.57899999995641
 21
8.340104006724093
 31
0.0
  0
LINE
  5
26227
  8
0
  6
CONTINUOUS
 10
44.99999999995498
 20
7.592623215805709
 30
0.0
 11
43.82952321576943
 21
8.763099999991255
 31
0.0
  0
LINE
  5
26228
  8
0
  6
CONTINUOUS
 10
44.99999999995498
 20
8.266142424885896
 30
0.0
 11
44.50304242484962
 21
8.763099999991255
 31
0.0
  0
ENDBLK
  5
26252
  8
0
  0
BLOCK
  8
0
  2
*X253
 70
     1
 10
0.0
 20
0.0
 30
0.0
  3
*X253
  1

  0
LINE
  5
2622A
  8
0
  6
CONTINUOUS
 10
0.0
 20
8.548461116714023
 30
0.0
 11
0.2146388832772324
 21
8.763099999991255
 31
0.0
  0
LINE
  5
2622B
  8
0
  6
CONTINUOUS
 10
-0.0000000000000002
 20
7.874941907633837
 30
0.0
 11
0.8881580923574184
 21
8.763099999991255
 31
0.0
  0
LINE
  5
2622C
  8
0
  6
CONTINUOUS
 10
0.0
 20
7.20142269855365
 30
0.0
 11
1.420999999998572
 21
8.622422698552223
 31
0.0
  0
LINE
  5
2622D
  8
0
  6
CONTINUOUS
 10
-0.0000000000000001
 20
6.527903489473465
 30
0.0
 11
1.420999999998571
 21
7.948903489472036
 31
0.0
  0
LINE
  5
2622E
  8
0
  6
CONTINUOUS
 10
-0.0000000000000002
 20
5.854384280393278
 30
0.0
 11
1.420999999998571
 21
7.275384280391849
 31
0.0
  0
LINE
  5
2622F
  8
0
  6
CONTINUOUS
 10
-0.0000000000000002
 20
5.180865071313091
 30
0.0
 11
1.420999999998571
 21
6.601865071311663
 31
0.0
  0
LINE
  5
26230
  8
0
  6
CONTINUOUS
 10
0.0
 20
4.507345862232905
 30
0.0
 11
1.420999999998571
 21
5.928345862231477
 31
0.0
  0
LINE
  5
26231
  8
0
  6
CONTINUOUS
 10
-0.0000000000000003
 20
3.833826653152718
 30
0.0
 11
1.420999999998571
 21
5.25482665315129
 31
0.0
  0
LINE
  5
26232
  8
0
  6
CONTINUOUS
 10
-0.0000000000000002
 20
3.160307444072532
 30
0.0
 11
1.420999999998571
 21
4.581307444071103
 31
0.0
  0
LINE
  5
26233
  8
0
  6
CONTINUOUS
 10
-0.0000000000000001
 20
2.486788234992345
 30
0.0
 11
1.420999999998571
 21
3.907788234990917
 31
0.0
  0
LINE
  5
26234
  8
0
  6
CONTINUOUS
 10
-0.0000000000000006
 20
1.813269025912159
 30
0.0
 11
1.420999999998571
 21
3.234269025910731
 31
0.0
  0
LINE
  5
26235
  8
0
  6
CONTINUOUS
 10
0.0
 20
1.139749816831973
 30
0.0
 11
1.420999999998571
 21
2.560749816830544
 31
0.0
  0
LINE
  5
26236
  8
0
  6
CONTINUOUS
 10
0.0000000000000002
 20
0.466230607751787
 30
0.0
 11
1.420999999998571
 21
1.887230607750358
 31
0.0
  0
LINE
  5
26237
  8
0
  6
CONTINUOUS
 10
0.2072886013284003
 20
-0.0000000000000009
 30
0.0
 11
1.420999999998571
 21
1.213711398670171
 31
0.0
  0
LINE
  5
26238
  8
0
  6
CONTINUOUS
 10
0.8808078104085864
 20
-0.0000000000000009
 30
0.0
 11
1.420999999998571
 21
0.5401921895899839
 31
0.0
  0
LINE
  5
26239
  8
0
  6
CONTINUOUS
 10
0.0581249075061505
 20
-0.0000000000000009
 30
0.0
 11
-0.0000000000000002
 21
0.0581249075061496
 31
0.0
  0
LINE
  5
2623A
  8
0
  6
CONTINUOUS
 10
0.7316441165863372
 20
-0.0000000000000009
 30
0.0
 11
-0.0000000000000002
 21
0.7316441165863363
 31
0.0
  0
LINE
  5
2623B
  8
0
  6
CONTINUOUS
 10
1.405163325666523
 20
-0.0000000000000009
 30
0.0
 11
-0.0000000000000002
 21
1.405163325666523
 31
0.0
  0
LINE
  5
2623C
  8
0
  6
CONTINUOUS
 10
1.420999999998572
 20
0.6576825347481381
 30
0.0
 11
-0.0000000000000001
 21
2.07868253474671
 31
0.0
  0
LINE
  5
2623D
  8
0
  6
CONTINUOUS
 10
1.420999999998571
 20
1.331201743828324
 30
0.0
 11
-0.0000000000000001
 21
2.752201743826896
 31
0.0
  0
LINE
  5
2623E
  8
0
  6
CONTINUOUS
 10
1.420999999998571
 20
2.004720952908511
 30
0.0
 11
-0.0000000000000002
 21
3.425720952907082
 31
0.0
  0
LINE
  5
2623F
  8
0
  6
CONTINUOUS
 10
1.420999999998571
 20
2.678240161988697
 30
0.0
 11
-0.0000000000000001
 21
4.099240161987269
 31
0.0
  0
LINE
  5
26240
  8
0
  6
CONTINUOUS
 10
1.420999999998572
 20
3.351759371068884
 30
0.0
 11
0.0
 21
4.772759371067455
 31
0.0
  0
LINE
  5
26241
  8
0
  6
CONTINUOUS
 10
1.420999999998571
 20
4.02527858014907
 30
0.0
 11
-0.0000000000000003
 21
5.446278580147642
 31
0.0
  0
LINE
  5
26242
  8
0
  6
CONTINUOUS
 10
1.420999999998571
 20
4.698797789229257
 30
0.0
 11
0.0
 21
6.119797789227828
 31
0.0
  0
LINE
  5
26243
  8
0
  6
CONTINUOUS
 10
1.420999999998571
 20
5.372316998309444
 30
0.0
 11
-0.0000000000000001
 21
6.793316998308015
 31
0.0
  0
LINE
  5
26244
  8
0
  6
CONTINUOUS
 10
1.420999999998572
 20
6.045836207389629
 30
0.0
 11
-0.0000000000000004
 21
7.466836207388202
 31
0.0
  0
LINE
  5
26245
  8
0
  6
CONTINUOUS
 10
1.420999999998571
 20
6.719355416469816
 30
0.0
 11
0.0
 21
8.140355416468388
 31
0.0
  0
LINE
  5
26246
  8
0
  6
CONTINUOUS
 10
1.420999999998571
 20
7.392874625550003
 30
0.0
 11
0.0507746255573185
 21
8.763099999991255
 31
0.0
  0
LINE
  5
26247
  8
0
  6
CONTINUOUS
 10
1.420999999998571
 20
8.06639383463019
 30
0.0
 11
0.7242938346375052
 21
8.763099999991255
 31
0.0
  0
LINE
  5
26248
  8
0
  6
CONTINUOUS
 10
1.420999999998571
 20
8.739913043710375
 30
0.0
 11
1.397813043717691
 21
8.763099999991255
 31
0.0
  0
ENDBLK
  5
26254
  8
0
  0
ENDSEC
  0
SECTION
  2
ENTITIES
  0
LINE
  5
244DB
  8
01
  6
CONTINUOUS
 10
3024.750012969971
 20
-395.4348625776835
 30
0.0
 11
1647.250000452995
 21
-395.4348625776835
 31
0.0
  0
LINE
  5
244DC
  8
01
  6
CONTINUOUS
 10
1625.499999886751
 20
-374.9348631755926
 30
0.0
 11
1625.499999886751
 21
168.5651307763985
 31
0.0
  0
LINE
  5
244DD
  8
01
  6
CONTINUOUS
 10
3046.500014877319
 20
168.5651307763985
 30
0.0
 11
3046.500014877319
 21
-374.9348631755926
 31
0.0
  0
LINE
  5
244DE
  8
01
  6
CONTINUOUS
 10
1580.000000810623
 20
175.0253205957345
 30
0.0
 11
1580.999999111891
 21
175.0253205957345
 31
0.0
  0
LINE
  5
244E1
  8
01
  6
CONTINUOUS
 10
1580.000000810623
 20
169.5253318014077
 30
0.0
 11
1580.000000810623
 21
175.0253205957345
 31
0.0
  0
LINE
  5
244E2
  8
01
  6
CONTINUOUS
 10
1641.500000181049
 20
169.0253084363869
 30
0.0
 11
1641.000000099093
 21
169.0253084363869
 31
0.0
  0
ARC
  5
244E5
  8
01
  6
CONTINUOUS
 10
1641.5
 20
169.5253189169891
 30
0.0
 40
0.5000000000001137
 50
270.0
 51
0.0
  0
LINE
  5
244E8
  8
01
  6
CONTINUOUS
 10
1580.999999111891
 20
175.0253205957345
 30
0.0
 11
1641.000000099093
 21
175.0253205957345
 31
0.0
  0
LINE
  5
244E9
  8
01
  6
CONTINUOUS
 10
1641.999999797344
 20
175.0253205957345
 30
0.0
 11
1641.999999797344
 21
169.5253318014077
 31
0.0
  0
LINE
  5
244EA
  8
01
  6
CONTINUOUS
 10
1641.000000099093
 20
175.0253205957345
 30
0.0
 11
1641.999999797344
 21
175.0253205957345
 31
0.0
  0
LINE
  5
244EB
  8
01
  6
CONTINUOUS
 10
1641.000000099093
 20
169.0253084363869
 30
0.0
 11
1580.999999111891
 21
169.0253084363869
 31
0.0
  0
LINE
  5
244ED
  8
01
  6
CONTINUOUS
 10
1580.999999111891
 20
169.0253084363869
 30
0.0
 11
1580.500001823902
 21
169.0253084363869
 31
0.0
  0
ARC
  5
244EE
  8
01
  6
CONTINUOUS
 10
1580.5
 20
169.5253189169891
 30
0.0
 40
0.5
 50
180.0
 51
270.0
  0
LINE
  5
244EF
  8
01
  6
CONTINUOUS
 10
3030.999946212768
 20
175.0253205957345
 30
0.0
 11
3091.000008201599
 21
175.0253205957345
 31
0.0
  0
LINE
  5
244F3
  8
01
  6
CONTINUOUS
 10
3091.000008201599
 20
169.0253084363869
 30
0.0
 11
3030.999946212768
 21
169.0253084363869
 31
0.0
  0
LINE
  5
244F6
  8
01
  6
CONTINUOUS
 10
3091.499971961975
 20
169.0253084363869
 30
0.0
 11
3091.000008201599
 21
169.0253084363869
 31
0.0
  0
ARC
  5
244F8
  8
01
  6
CONTINUOUS
 10
3091.5
 20
169.5253189169891
 30
0.0
 40
0.5
 50
270.0
 51
0.0
  0
LINE
  5
244F9
  8
01
  6
CONTINUOUS
 10
3030.999946212768
 20
169.0253084363869
 30
0.0
 11
3030.499982452392
 21
169.0253084363869
 31
0.0
  0
ARC
  5
244FA
  8
01
  6
CONTINUOUS
 10
3030.5
 20
169.5253189169891
 30
0.0
 40
0.5
 50
180.0
 51
270.0
  0
LINE
  5
244FC
  8
01
  6
CONTINUOUS
 10
3030.000018692017
 20
169.5253318014077
 30
0.0
 11
3030.000018692017
 21
175.0253205957345
 31
0.0
  0
LINE
  5
244FD
  8
01
  6
CONTINUOUS
 10
3030.000018692017
 20
175.0253205957345
 30
0.0
 11
3030.999946212768
 21
175.0253205957345
 31
0.0
  0
LINE
  5
244FE
  8
01
  6
CONTINUOUS
 10
3092.000054931641
 20
175.0253205957345
 30
0.0
 11
3092.000054931641
 21
169.5253318014077
 31
0.0
  0
LINE
  5
244FF
  8
01
  6
CONTINUOUS
 10
3091.000008201599
 20
175.0253205957345
 30
0.0
 11
3092.000054931641
 21
175.0253205957345
 31
0.0
  0
LINE
  5
24513
  8
01
  6
CONTINUOUS
 10
3023.500012969971
 20
-396.9348637548752
 30
0.0
 11
1646.000000452995
 21
-396.9348637548752
 31
0.0
  0
LINE
  5
24516
  8
01
  6
CONTINUOUS
 10
3024.750012969971
 20
-396.9348637548752
 30
0.0
 11
3024.750012969971
 21
-395.6577895370789
 31
0.0
  0
LINE
  5
24517
  8
01
  6
CONTINUOUS
 10
3024.750012969971
 20
-395.6577895370789
 30
0.0
 11
3024.750012969971
 21
-395.4348625776835
 31
0.0
  0
LINE
  5
24519
  8
01
  6
CONTINUOUS
 10
1646.000000452995
 20
-423.4348634419508
 30
0.0
 11
1646.000000452995
 21
-397.2348632452555
 31
0.0
  0
LINE
  5
2451B
  8
01
  6
CONTINUOUS
 10
3025.99995098114
 20
-423.4348634419508
 30
0.0
 11
3025.99995098114
 21
-397.2348632452555
 31
0.0
  0
LINE
  5
2451C
  8
01
  6
CONTINUOUS
 10
1646.000000452995
 20
-396.9348637548752
 30
0.0
 11
3025.99995098114
 21
-396.9348637548752
 31
0.0
  0
LINE
  5
2451D
  8
01
  6
CONTINUOUS
 10
3025.99995098114
 20
-424.4348617432184
 30
0.0
 11
1646.000000452995
 21
-424.4348617432184
 31
0.0
  0
LINE
  5
2451E
  8
01
  6
CONTINUOUS
 10
1623.999999640882
 20
168.5651307763985
 30
0.0
 11
1623.999999640882
 21
-374.9348631755926
 31
0.0
  0
LINE
  5
24520
  8
01
  6
CONTINUOUS
 10
1624.280047407746
 20
168.5651307763985
 30
0.0
 11
1623.999999640882
 21
168.5651307763985
 31
0.0
  0
LINE
  5
24522
  8
01
  6
CONTINUOUS
 10
1625.277072927356
 20
168.5651307763985
 30
0.0
 11
1624.280047407746
 21
168.5651307763985
 31
0.0
  0
LINE
  5
24523
  8
01
  6
CONTINUOUS
 10
1625.499999886751
 20
168.5651307763985
 30
0.0
 11
1625.277072927356
 21
168.5651307763985
 31
0.0
  0
LINE
  5
24525
  8
01
  6
CONTINUOUS
 10
3048.000025367737
 20
168.5651307763985
 30
0.0
 11
3047.720002746582
 21
168.5651307763985
 31
0.0
  0
LINE
  5
24526
  8
01
  6
CONTINUOUS
 10
3048.000025367737
 20
165.8083552629091
 30
0.0
 11
3048.000025367737
 21
-374.9348631755926
 31
0.0
  0
LINE
  5
24528
  8
01
  6
CONTINUOUS
 10
3047.720002746582
 20
168.5651307763985
 30
0.0
 11
3046.722936248779
 21
168.5651307763985
 31
0.0
  0
LINE
  5
24529
  8
01
  6
CONTINUOUS
 10
3046.722936248779
 20
168.5651307763985
 30
0.0
 11
3046.500014877319
 21
168.5651307763985
 31
0.0
  0
LINE
  5
2452A
  8
01
  6
CONTINUOUS
 10
3074.500012016296
 20
-374.9348631755926
 30
0.0
 11
3048.299955940246
 21
-374.9348631755926
 31
0.0
  0
LINE
  5
2452B
  8
01
  6
CONTINUOUS
 10
3075.500058746338
 20
169.0253084363869
 30
0.0
 11
3075.500058746338
 21
-374.9348631755926
 31
0.0
  0
LINE
  5
2452C
  8
01
  6
CONTINUOUS
 10
3048.000025367737
 20
-374.9348631755926
 30
0.0
 11
3048.000025367737
 21
169.0253084363869
 31
0.0
  0
LINE
  5
2452D
  8
01
  6
CONTINUOUS
 10
1623.700000150502
 20
-374.9348631755926
 30
0.0
 11
1597.499999022484
 21
-374.9348631755926
 31
0.0
  0
LINE
  5
2452E
  8
01
  6
CONTINUOUS
 10
1596.500000721216
 20
-374.9348631755926
 30
0.0
 11
1596.500000721216
 21
169.025308436387
 31
0.0
  0
LINE
  5
2452F
  8
01
  6
CONTINUOUS
 10
1623.999999640882
 20
169.0253084363869
 30
0.0
 11
1623.999999640882
 21
-374.9348631755926
 31
0.0
  0
LINE
  5
24534
  8
01
  6
CONTINUOUS
 10
1646.000000452995
 20
-423.9348644552298
 30
0.0
 11
1646.000000452995
 21
-424.4348617432184
 31
0.0
  0
ARC
  5
24535
  8
01
  6
CONTINUOUS
 10
1645.5
 20
-424.4348631813933
 30
0.0
 40
0.5
 50
270.0
 51
0.0
  0
LINE
  5
24539
  8
01
  6
CONTINUOUS
 10
1645.500000371039
 20
-424.9348627564974
 30
0.0
 11
1576.499999210983
 21
-424.9348631813933
 31
0.0
  0
LINE
  5
2453A
  8
01
  6
CONTINUOUS
 10
1597.000001734495
 20
-374.9348631755926
 30
0.0
 11
1624.499999722838
 21
-374.9348631755926
 31
0.0
  0
LINE
  5
2453E
  8
01
  6
CONTINUOUS
 10
1646.000000452995
 20
-396.4348627415962
 30
0.0
 11
1646.000000452995
 21
-423.9348644552298
 31
0.0
  0
LINE
  5
24541
  8
01
  6
CONTINUOUS
 10
1595.999999210983
 20
-392.9348631813933
 30
0.0
 11
1595.999999707937
 21
-375.434863257549
 31
0.0
  0
LINE
  5
24547
  8
01
  6
CONTINUOUS
 10
1646.000000452995
 20
-395.4348625776835
 30
0.0
 11
1646.000000452995
 21
-396.4348627415962
 31
0.0
  0
ARC
  5
24549
  8
01
  6
CONTINUOUS
 10
1645.5
 20
-395.4348631813933
 30
0.0
 40
0.5
 50
0.0
 51
90.0
  0
LINE
  5
2454B
  8
01
  6
CONTINUOUS
 10
1628.000000296533
 20
-394.9348634270497
 30
0.0
 11
1645.500000371039
 21
-394.9348634270497
 31
0.0
  0
ARC
  5
2454C
  8
01
  6
CONTINUOUS
 10
1628.0
 20
-392.9348631813933
 30
0.0
 40
2.0
 50
180.0
 51
270.0
  0
LINE
  5
2454E
  8
01
  6
CONTINUOUS
 10
1624.499999722838
 20
-374.9348631755926
 30
0.0
 11
1625.499999886751
 21
-374.9348631755926
 31
0.0
  0
ARC
  5
2454F
  8
01
  6
CONTINUOUS
 10
1625.5
 20
-375.4348631813932
 30
0.0
 40
0.4999999999998863
 50
0.0
 51
90.0
  0
LINE
  5
24551
  8
01
  6
CONTINUOUS
 10
1625.999999968707
 20
-375.434863257549
 30
0.0
 11
1625.999999968707
 21
-392.9348630992241
 31
0.0
  0
LINE
  5
24552
  8
01
  6
CONTINUOUS
 10
1596.500000721216
 20
-374.9348631755926
 30
0.0
 11
1597.000001734495
 21
-374.9348631755926
 31
0.0
  0
ARC
  5
24553
  8
01
  6
CONTINUOUS
 10
1596.5
 20
-375.4348631813932
 30
0.0
 40
0.5
 50
90.0
 51
180.0
  0
LINE
  5
24556
  8
01
  6
CONTINUOUS
 10
3025.99995098114
 20
-423.9348644552298
 30
0.0
 11
3025.99995098114
 21
-396.4348627415962
 31
0.0
  0
LINE
  5
24558
  8
01
  6
CONTINUOUS
 10
3025.99995098114
 20
-396.4348627415962
 30
0.0
 11
3025.99995098114
 21
-395.4348625776835
 31
0.0
  0
ARC
  5
24559
  8
01
  6
CONTINUOUS
 10
3026.5
 20
-395.4348631813933
 30
0.0
 40
0.5
 50
90.0
 51
180.0
  0
LINE
  5
24563
  8
01
  6
CONTINUOUS
 10
3026.500033950806
 20
-394.9348634270497
 30
0.0
 11
3043.99995765686
 21
-394.9348634270497
 31
0.0
  0
ARC
  5
24565
  8
01
  6
CONTINUOUS
 10
3026.5
 20
-424.4348631813933
 30
0.0
 40
0.5
 50
180.0
 51
270.0
  0
LINE
  5
24566
  8
01
  6
CONTINUOUS
 10
3025.99995098114
 20
-424.4348617432184
 30
0.0
 11
3025.99995098114
 21
-423.9348644552298
 31
0.0
  0
LINE
  5
24568
  8
01
  6
CONTINUOUS
 10
3074.500012016296
 20
-424.9348627564974
 30
0.0
 11
3026.500033950806
 21
-424.9348627564974
 31
0.0
  0
ARC
  5
24569
  8
01
  6
CONTINUOUS
 10
3044.0
 20
-392.9348631813933
 30
0.0
 40
2.0
 50
270.0
 51
0.0
  0
ARC
  5
2456C
  8
01
  6
CONTINUOUS
 10
3046.5
 20
-375.4348631813932
 30
0.0
 40
0.4999999999998863
 50
90.0
 51
180.0
  0
LINE
  5
2456D
  8
01
  6
CONTINUOUS
 10
3046.500014877319
 20
-374.9348631755926
 30
0.0
 11
3047.499942398071
 21
-374.9348631755926
 31
0.0
  0
LINE
  5
2456F
  8
01
  6
CONTINUOUS
 10
3046.000051116943
 20
-392.9348630992241
 30
0.0
 11
3046.000051116943
 21
-375.434863257549
 31
0.0
  0
LINE
  5
24570
  8
01
  6
CONTINUOUS
 10
3047.499942398071
 20
-374.9348631755926
 30
0.0
 11
3074.999975776672
 21
-374.9348631755926
 31
0.0
  0
LINE
  5
24574
  8
01
  6
CONTINUOUS
 10
3076.000022506714
 20
-375.434863257549
 30
0.0
 11
3076.000022506714
 21
-423.4348634419508
 31
0.0
  0
LINE
  5
24575
  8
01
  6
CONTINUOUS
 10
3074.999975776672
 20
-374.9348631755926
 30
0.0
 11
3075.500058746338
 21
-374.9348631755926
 31
0.0
  0
ARC
  5
24576
  8
01
  6
CONTINUOUS
 10
3075.5
 20
-375.4348631813932
 30
0.0
 40
0.5
 50
0.0
 51
90.0
  0
ARC
  5
24577
  8
01
  6
CONTINUOUS
 10
3074.5
 20
-423.4348631813933
 30
0.0
 40
1.500000000000114
 50
270.0
 51
0.0
  0
LINE
  5
24580
  8
01
  6
CONTINUOUS
 10
3190.967225294112
 20
175.0253205957345
 30
0.0
 11
3190.967225294112
 21
169.5253318014077
 31
0.0
  0
LINE
  5
24583
  8
01
  6
CONTINUOUS
 10
3157.967226637079
 20
175.0253205957345
 30
0.0
 11
3190.967225294112
 21
175.0253205957345
 31
0.0
  0
ARC
  5
2458D
  8
01
  6
CONTINUOUS
 10
3190.467226748647
 20
169.5253189169891
 30
0.0
 40
0.5
 50
270.0
 51
0.0
  0
LINE
  5
2458E
  8
01
  6
CONTINUOUS
 10
3190.467228006123
 20
169.0253084363869
 30
0.0
 11
3189.967226992844
 21
169.0253084363869
 31
0.0
  0
LINE
  5
24590
  8
01
  6
CONTINUOUS
 10
3189.967226992844
 20
169.0253084363869
 30
0.0
 11
3158.967226800992
 21
169.0253084363869
 31
0.0
  0
LINE
  5
24593
  8
01
  6
CONTINUOUS
 10
3157.967226637079
 20
169.5253318014077
 30
0.0
 11
3157.967226637079
 21
175.0253205957345
 31
0.0
  0
LINE
  5
24595
  8
01
  6
CONTINUOUS
 10
3158.967226800992
 20
169.0253084363869
 30
0.0
 11
3158.467226719035
 21
169.0253084363869
 31
0.0
  0
ARC
  5
24596
  8
01
  6
CONTINUOUS
 10
3158.467226748647
 20
169.5253189169891
 30
0.0
 40
0.5
 50
180.0
 51
270.0
  0
LINE
  5
245A2
  8
01
  6
CONTINUOUS
 10
3167.467227030097
 20
-374.9348631755926
 30
0.0
 11
3167.467227030097
 21
169.025308436387
 31
0.0
  0
LINE
  5
245A3
  8
01
  6
CONTINUOUS
 10
3181.467226530908
 20
169.025308436387
 30
0.0
 11
3181.467226530908
 21
-374.9348631755926
 31
0.0
  0
LINE
  5
245A4
  8
01
  6
CONTINUOUS
 10
3180.467226366995
 20
-374.9348631755926
 30
0.0
 11
3168.46722719401
 21
-374.9348631755926
 31
0.0
  0
LINE
  5
245A5
  8
01
  6
CONTINUOUS
 10
3181.967227544187
 20
-423.4348634419508
 30
0.0
 11
3181.967227544187
 21
-423.9348644552298
 31
0.0
  0
ARC
  5
245A6
  8
01
  6
CONTINUOUS
 10
3180.967226748652
 20
-423.9348631813932
 30
0.0
 40
1.000000000000114
 50
270.0
 51
0.0
  0
ARC
  5
245AA
  8
01
  6
CONTINUOUS
 10
3167.967226748652
 20
-423.9348631813932
 30
0.0
 40
1.000000000000114
 50
180.0
 51
270.0
  0
LINE
  5
245AB
  8
01
  6
CONTINUOUS
 10
3166.967226948141
 20
-423.9348644552298
 30
0.0
 11
3166.967226948141
 21
-423.4348634419508
 31
0.0
  0
LINE
  5
245B1
  8
01
  6
CONTINUOUS
 10
3167.967227112053
 20
-374.9348631755926
 30
0.0
 11
3180.967227380274
 21
-374.9348631755926
 31
0.0
  0
LINE
  5
245B4
  8
01
  6
CONTINUOUS
 10
3167.467227030097
 20
-374.9348631755926
 30
0.0
 11
3167.967227112053
 21
-374.9348631755926
 31
0.0
  0
ARC
  5
245B6
  8
01
  6
CONTINUOUS
 10
3167.467226748652
 20
-375.4348631813932
 30
0.0
 40
0.5
 50
90.0
 51
180.0
  0
LINE
  5
245B7
  8
01
  6
CONTINUOUS
 10
3180.967227380274
 20
-424.9348627564974
 30
0.0
 11
3167.967227112053
 21
-424.9348627564974
 31
0.0
  0
LINE
  5
245B9
  8
01
  6
CONTINUOUS
 10
3181.967227544187
 20
-375.434863257549
 30
0.0
 11
3181.967227544187
 21
-423.4348634419508
 31
0.0
  0
LINE
  5
245BA
  8
01
  6
CONTINUOUS
 10
3180.967227380274
 20
-374.9348631755926
 30
0.0
 11
3181.467226530908
 21
-374.9348631755926
 31
0.0
  0
ARC
  5
245BB
  8
01
  6
CONTINUOUS
 10
3181.467226748652
 20
-375.4348631813932
 30
0.0
 40
0.5
 50
0.0
 51
90.0
  0
LINE
  5
245BC
  8
01
  6
CONTINUOUS
 10
3166.967226948141
 20
-423.4348634419508
 30
0.0
 11
3166.967226948141
 21
-375.434863257549
 31
0.0
  0
ARC
  5
245C3
  8
01
  6
CONTINUOUS
 10
1581.0
 20
-628.5812035995493
 30
0.0
 40
1.0
 50
180.0
 51
270.0
  0
LINE
  5
245C7
  8
01
  6
CONTINUOUS
 10
1641.000000099093
 20
-629.5812021450147
 30
0.0
 11
1580.999999111891
 21
-629.5812021450147
 31
0.0
  0
ARC
  5
245CA
  8
01
  6
CONTINUOUS
 10
1641.0
 20
-628.5812035995493
 30
0.0
 40
1.0
 50
270.0
 51
0.0
  0
LINE
  5
245CB
  8
01
  6
CONTINUOUS
 10
1580.000000810623
 20
-628.5812038437471
 30
0.0
 11
1580.000000810623
 21
-620.5812036399028
 31
0.0
  0
LINE
  5
245CF
  8
01
  6
CONTINUOUS
 10
1641.999999797344
 20
-597.5812036518946
 30
0.0
 11
1641.999999797344
 21
-605.5812037990436
 31
0.0
  0
LINE
  5
245D0
  8
01
  6
CONTINUOUS
 10
1641.999999797344
 20
-620.58120439509
 30
0.0
 11
1641.999999797344
 21
-628.5812038437471
 31
0.0
  0
LINE
  5
245D4
  8
01
  6
CONTINUOUS
 10
1580.999999111891
 20
-596.5812034879818
 30
0.0
 11
1641.000000099093
 21
-596.5812034879818
 31
0.0
  0
ARC
  5
245D7
  8
01
  6
CONTINUOUS
 10
1641.0
 20
-597.5812035995493
 30
0.0
 40
1.0
 50
0.0
 51
90.0
  0
ARC
  5
245D8
  8
01
  6
CONTINUOUS
 10
1581.0
 20
-597.5812035995493
 30
0.0
 40
1.0
 50
90.0
 51
180.0
  0
LINE
  5
245D9
  8
01
  6
CONTINUOUS
 10
3092.000054931641
 20
-597.5812036518946
 30
0.0
 11
3092.000054931641
 21
-628.5812038437471
 31
0.0
  0
ARC
  5
245DF
  8
01
  6
CONTINUOUS
 10
3031.0
 20
-628.5812035995493
 30
0.0
 40
1.0
 50
180.0
 51
270.0
  0
LINE
  5
245E1
  8
01
  6
CONTINUOUS
 10
3030.000018692017
 20
-628.5812038437471
 30
0.0
 11
3030.000018692017
 21
-620.58120439509
 31
0.0
  0
LINE
  5
245E2
  8
01
  6
CONTINUOUS
 10
3030.000018692017
 20
-605.5812037990436
 30
0.0
 11
3030.000018692017
 21
-597.5812036518946
 31
0.0
  0
ARC
  5
245E9
  8
01
  6
CONTINUOUS
 10
3091.0
 20
-628.5812035995493
 30
0.0
 40
1.0
 50
270.0
 51
0.0
  0
LINE
  5
245EB
  8
01
  6
CONTINUOUS
 10
3091.000008201599
 20
-629.5812021450147
 30
0.0
 11
3030.999946212769
 21
-629.5812021450147
 31
0.0
  0
LINE
  5
245ED
  8
01
  6
CONTINUOUS
 10
3030.999946212769
 20
-596.5812034879818
 30
0.0
 11
3091.000008201599
 21
-596.5812034879818
 31
0.0
  0
ARC
  5
245EF
  8
01
  6
CONTINUOUS
 10
3031.0
 20
-597.5812035995493
 30
0.0
 40
1.0
 50
90.0
 51
180.0
  0
ARC
  5
245F0
  8
01
  6
CONTINUOUS
 10
3091.0
 20
-597.5812035995493
 30
0.0
 40
1.0
 50
0.0
 51
90.0
  0
LINE
  5
245F1
  8
01
  6
CONTINUOUS
 10
3025.999950981141
 20
-620.0812033818111
 30
0.0
 11
1646.000000452995
 21
-620.0812033818111
 31
0.0
  0
LINE
  5
245F4
  8
01
  6
CONTINUOUS
 10
3025.999950981141
 20
-619.0812032178983
 30
0.0
 11
3025.999950981141
 21
-607.0812040449127
 31
0.0
  0
LINE
  5
245F5
  8
01
  6
CONTINUOUS
 10
1646.000000452995
 20
-619.0812032178983
 30
0.0
 11
1646.000000452995
 21
-607.0812040449127
 31
0.0
  0
LINE
  5
245F6
  8
01
  6
CONTINUOUS
 10
1646.000000452995
 20
-606.081203881
 30
0.0
 11
3025.999950981141
 21
-606.081203881
 31
0.0
  0
LINE
  5
245FD
  8
01
  6
CONTINUOUS
 10
1645.500000371039
 20
-620.58120439509
 30
0.0
 11
1576.499999210984
 21
-620.5812035995493
 31
0.0
  0
LINE
  5
24604
  8
01
  6
CONTINUOUS
 10
1646.000000452995
 20
-606.5812039629564
 30
0.0
 11
1646.000000452995
 21
-619.5812042311773
 31
0.0
  0
LINE
  5
24606
  8
01
  6
CONTINUOUS
 10
1646.000000452995
 20
-619.5812042311773
 30
0.0
 11
1646.000000452995
 21
-620.0812033818111
 31
0.0
  0
ARC
  5
24607
  8
01
  6
CONTINUOUS
 10
1645.5
 20
-620.0812035995493
 30
0.0
 40
0.5000000000000568
 50
270.0
 51
0.0
  0
LINE
  5
24609
  8
01
  6
CONTINUOUS
 10
1576.499999210984
 20
-605.5812035995493
 30
0.0
 11
1645.500000371039
 21
-605.5812037990436
 31
0.0
  0
LINE
  5
2460D
  8
01
  6
CONTINUOUS
 10
1646.000000452995
 20
-606.081203881
 30
0.0
 11
1646.000000452995
 21
-606.5812039629564
 31
0.0
  0
ARC
  5
2460E
  8
01
  6
CONTINUOUS
 10
1645.5
 20
-606.0812035995493
 30
0.0
 40
0.5
 50
0.0
 51
90.0
  0
LINE
  5
24614
  8
01
  6
CONTINUOUS
 10
3074.500012016297
 20
-620.58120439509
 30
0.0
 11
3026.500033950806
 21
-620.58120439509
 31
0.0
  0
LINE
  5
24617
  8
01
  6
CONTINUOUS
 10
3025.999950981141
 20
-619.5812042311773
 30
0.0
 11
3025.999950981141
 21
-606.5812039629564
 31
0.0
  0
LINE
  5
24619
  8
01
  6
CONTINUOUS
 10
3025.999950981141
 20
-620.0812033818111
 30
0.0
 11
3025.999950981141
 21
-619.5812042311773
 31
0.0
  0
ARC
  5
2461A
  8
01
  6
CONTINUOUS
 10
3026.5
 20
-620.0812035995548
 30
0.0
 40
0.5
 50
180.0
 51
270.0
  0
LINE
  5
2461D
  8
01
  6
CONTINUOUS
 10
3076.000022506714
 20
-606.5812039629564
 30
0.0
 11
3076.000022506714
 21
-619.5812042311773
 31
0.0
  0
LINE
  5
2461E
  8
01
  6
CONTINUOUS
 10
3074.999975776673
 20
-620.58120439509
 30
0.0
 11
3074.500012016297
 21
-620.58120439509
 31
0.0
  0
ARC
  5
2461F
  8
01
  6
CONTINUOUS
 10
3075.0
 20
-619.581203599555
 30
0.0
 40
1.000000000000114
 50
270.0
 51
0.0
  0
LINE
  5
24622
  8
01
  6
CONTINUOUS
 10
3026.500033950806
 20
-605.5812037990436
 30
0.0
 11
3074.500012016297
 21
-605.5812037990436
 31
0.0
  0
LINE
  5
24623
  8
01
  6
CONTINUOUS
 10
3025.999950981141
 20
-606.5812039629564
 30
0.0
 11
3025.999950981141
 21
-606.081203881
 31
0.0
  0
ARC
  5
24624
  8
01
  6
CONTINUOUS
 10
3026.5
 20
-606.0812035995548
 30
0.0
 40
0.5
 50
90.0
 51
180.0
  0
LINE
  5
24625
  8
01
  6
CONTINUOUS
 10
3074.500012016297
 20
-605.5812037990436
 30
0.0
 11
3074.999975776673
 21
-605.5812037990436
 31
0.0
  0
ARC
  5
24626
  8
01
  6
CONTINUOUS
 10
3075.0
 20
-606.581203599555
 30
0.0
 40
1.0
 50
0.0
 51
90.0
  0
LINE
  5
2462B
  8
01
 10
1647.250000452995
 20
-395.4348625776835
 30
0.0
 11
1647.250000452995
 21
-396.9348637548752
 31
0.0
  0
CIRCLE
  5
24ECA
  8
01
 10
1591.000040554402
 20
-613.0812340990873
 30
0.0
 40
2.25
  0
LINE
  5
24ECB
  8
1CENTER
 10
1587.624998939037
 20
-613.0812037478208
 30
0.0
 11
1594.374998939037
 21
-613.0812037478208
 31
0.0
  0
LINE
  5
24ECC
  8
1CENTER
 10
1590.999998939037
 20
-616.4562037478208
 30
0.0
 11
1590.999998939037
 21
-609.7062037478208
 31
0.0
  0
CIRCLE
  5
24ECD
  8
01
 10
1631.000040554402
 20
-613.0812340990873
 30
0.0
 40
2.25
  0
LINE
  5
24ECE
  8
1CENTER
 10
1627.624998939037
 20
-613.0812037478208
 30
0.0
 11
1634.374998939037
 21
-613.0812037478208
 31
0.0
  0
LINE
  5
24ECF
  8
1CENTER
 10
1630.999998939037
 20
-616.4562037478208
 30
0.0
 11
1630.999998939037
 21
-609.7062037478208
 31
0.0
  0
CIRCLE
  5
24ED0
  8
01
 10
3040.999994110464
 20
-613.0812340990873
 30
0.0
 40
2.25
  0
LINE
  5
24ED1
  8
1CENTER
 10
3037.624952495099
 20
-613.0812037478208
 30
0.0
 11
3044.374952495099
 21
-613.0812037478208
 31
0.0
  0
LINE
  5
24ED2
  8
1CENTER
 10
3040.999952495099
 20
-616.4562037478208
 30
0.0
 11
3040.999952495099
 21
-609.7062037478208
 31
0.0
  0
CIRCLE
  5
24ED3
  8
01
 10
3080.999994110464
 20
-613.0812340990873
 30
0.0
 40
2.25
  0
LINE
  5
24ED4
  8
1CENTER
 10
3077.624952495099
 20
-613.0812037478208
 30
0.0
 11
3084.374952495099
 21
-613.0812037478208
 31
0.0
  0
LINE
  5
24ED5
  8
1CENTER
 10
3080.999952495099
 20
-616.4562037478208
 30
0.0
 11
3080.999952495099
 21
-609.7062037478208
 31
0.0
  0
TEXT
  5
24ED6
  8
1TEXT
 10
1763.482508381062
 20
47.4473080469082
 30
0.0
 40
40.0
  1
AC-901-※-2962-600
 72
     2
 11
2407.075100973654
 21
47.4473080469082
 31
0.0
 73
     1
  0
TEXT
  5
24ED7
  8
1TEXT
 10
1715.075100973654
 20
-5.052691953091795
 30
0.0
 40
20.0
  1
※には色品番が入ります。
 72
     2
 11
1983.741767640321
 21
-5.052691953091795
 31
0.0
 73
     1
  0
LINE
  5
25AB5
  8
01
  6
PHANTOM2
 10
1582.650000810623
 20
175.0253205957345
 30
0.0
 11
1591.000000810623
 21
175.0253205957345
 31
0.0
  0
LINE
  5
25ABA
  8
01
  6
PHANTOM2
 10
1631.000000810623
 20
175.0253205957345
 30
0.0
 11
1639.350000810623
 21
175.0253205957345
 31
0.0
  0
LINE
  5
25ABE
  8
01
  6
PHANTOM2
 10
1581.650000810623
 20
175.0253205957345
 30
0.0
 11
1582.650000810623
 21
175.0253205957345
 31
0.0
  0
LINE
  5
25AC0
  8
01
  6
PHANTOM2
 10
1581.650000810623
 20
172.0253205957345
 30
0.0
 11
1581.650000810623
 21
175.0253205957345
 31
0.0
  0
LINE
  5
25AC1
  8
01
  6
PHANTOM2
 10
1640.350000810623
 20
175.0253205957345
 30
0.0
 11
1640.350000810623
 21
172.0253205957345
 31
0.0
  0
LINE
  5
25AC3
  8
01
  6
PHANTOM2
 10
1639.350000810623
 20
175.0253205957345
 30
0.0
 11
1640.350000810623
 21
175.0253205957345
 31
0.0
  0
LINE
  5
25AC4
  8
01
  6
PHANTOM2
 10
1639.350000810623
 20
171.5253205957345
 30
0.0
 11
1616.200000810623
 21
171.5253205957345
 31
0.0
  0
LINE
  5
25AC7
  8
01
  6
PHANTOM2
 10
1582.650000810623
 20
171.5253205957345
 30
0.0
 11
1582.150000810623
 21
171.5253205957345
 31
0.0
  0
LINE
  5
25AC8
  8
01
  6
PHANTOM2
 10
1582.150000810623
 20
171.5253205957345
 30
0.0
 11
1581.650000810623
 21
172.0253205957345
 31
0.0
  0
LINE
  5
25AC9
  8
01
  6
PHANTOM2
 10
1639.850000810623
 20
171.5253205957345
 30
0.0
 11
1639.350000810623
 21
171.5253205957345
 31
0.0
  0
LINE
  5
25ACA
  8
01
  6
PHANTOM2
 10
1639.850000810623
 20
171.5253205957345
 30
0.0
 11
1640.350000810623
 21
172.0253205957345
 31
0.0
  0
LINE
  5
25ACC
  8
01
  6
PHANTOM2
 10
1591.000000810623
 20
175.0253205957345
 30
0.0
 11
1631.000000810623
 21
175.0253205957345
 31
0.0
  0
ARC
  5
25AD0
  8
01
  6
PHANTOM2
 10
1616.200000810623
 20
170.5253205957345
 30
0.0
 40
1.0
 50
90.0
 51
180.0
  0
ARC
  5
25AD3
  8
01
  6
PHANTOM2
 10
1597.300000810623
 20
170.5253205957345
 30
0.0
 40
1.0
 50
0.0
 51
90.0
  0
LINE
  5
25AD8
  8
01
  6
PHANTOM2
 10
1615.200000810623
 20
170.5253205957345
 30
0.0
 11
1615.200000810623
 21
141.5253205957345
 31
0.0
  0
LINE
  5
25ADA
  8
01
  6
PHANTOM2
 10
1598.300000810623
 20
141.5253205957345
 30
0.0
 11
1598.300000810623
 21
170.5253205957345
 31
0.0
  0
LINE
  5
25ADB
  8
01
  6
PHANTOM2
 10
1613.700000810623
 20
140.5253205957345
 30
0.0
 11
1599.800000810623
 21
140.5253205957345
 31
0.0
  0
LINE
  5
25ADE
  8
01
  6
PHANTOM2
 10
1614.200000810623
 20
140.5253205957345
 30
0.0
 11
1613.700000810623
 21
140.5253205957345
 31
0.0
  0
LINE
  5
25ADF
  8
01
  6
PHANTOM2
 10
1614.200000810623
 20
140.5253205957345
 30
0.0
 11
1615.200000810623
 21
141.5253205957345
 31
0.0
  0
LINE
  5
25AE0
  8
01
  6
PHANTOM2
 10
1599.800000810623
 20
140.5253205957345
 30
0.0
 11
1599.300000810623
 21
140.5253205957345
 31
0.0
  0
LINE
  5
25AE1
  8
01
  6
PHANTOM2
 10
1598.300000810623
 20
141.5253205957345
 30
0.0
 11
1599.300000810623
 21
140.5253205957345
 31
0.0
  0
LINE
  5
25AE2
  8
01
  6
PHANTOM2
 10
3160.617225965595
 20
171.5253205957344
 30
0.0
 11
3160.117225965595
 21
171.5253205957344
 31
0.0
  0
LINE
  5
25AE3
  8
01
  6
PHANTOM2
 10
3160.117225965595
 20
171.5253205957344
 30
0.0
 11
3159.617225965595
 21
172.0253205957344
 31
0.0
  0
LINE
  5
25AE7
  8
01
  6
PHANTOM2
 10
3159.617225965595
 20
172.0253205957344
 30
0.0
 11
3159.617225965595
 21
175.0253205957345
 31
0.0
  0
LINE
  5
25AE8
  8
01
  6
PHANTOM2
 10
3159.617225965595
 20
175.0253205957345
 30
0.0
 11
3160.617225965595
 21
175.0253205957345
 31
0.0
  0
LINE
  5
25AEA
  8
01
  6
PHANTOM2
 10
3189.317225965595
 20
172.0253205957344
 30
0.0
 11
3188.817225965595
 21
171.5253205957344
 31
0.0
  0
LINE
  5
25AEB
  8
01
  6
PHANTOM2
 10
3188.817225965595
 20
171.5253205957344
 30
0.0
 11
3188.317225965595
 21
171.5253205957344
 31
0.0
  0
LINE
  5
25AF3
  8
01
  6
PHANTOM2
 10
3160.617225965595
 20
175.0253205957345
 30
0.0
 11
3188.317225965595
 21
175.0253205957345
 31
0.0
  0
LINE
  5
25AF6
  8
01
  6
PHANTOM2
 10
3189.317225965595
 20
175.0253205957345
 30
0.0
 11
3189.317225965595
 21
172.0253205957344
 31
0.0
  0
LINE
  5
25AF7
  8
01
  6
PHANTOM2
 10
3188.317225965595
 20
175.0253205957345
 30
0.0
 11
3189.317225965595
 21
175.0253205957345
 31
0.0
  0
ARC
  5
25B01
  8
01
  6
PHANTOM2
 10
3168.117225965595
 20
170.5253205957344
 30
0.0
 40
1.0
 50
0.0
 51
90.0
  0
ARC
  5
25B04
  8
01
  6
PHANTOM2
 10
3180.817225965595
 20
170.5253205957344
 30
0.0
 40
1.0
 50
90.0
 51
180.0
  0
LINE
  5
25B08
  8
01
  6
PHANTOM2
 10
3178.817225965595
 20
140.5253205957344
 30
0.0
 11
3178.317225965595
 21
140.5253205957344
 31
0.0
  0
LINE
  5
25B0B
  8
01
  6
PHANTOM2
 10
3178.817225965595
 20
140.5253205957344
 30
0.0
 11
3179.817225965595
 21
141.5253205957344
 31
0.0
  0
LINE
  5
25B0D
  8
01
  6
PHANTOM2
 10
3179.817225965595
 20
170.5253205957344
 30
0.0
 11
3179.817225965595
 21
141.5253205957344
 31
0.0
  0
LINE
  5
25B11
  8
01
  6
PHANTOM2
 10
3178.317225965595
 20
140.5253205957344
 30
0.0
 11
3170.617225965595
 21
140.5253205957344
 31
0.0
  0
LINE
  5
25B14
  8
01
  6
PHANTOM2
 10
3169.117225965595
 20
141.5253205957344
 30
0.0
 11
3169.117225965595
 21
170.5253205957344
 31
0.0
  0
LINE
  5
25B16
  8
01
  6
PHANTOM2
 10
3170.617225965595
 20
140.5253205957344
 30
0.0
 11
3170.117225965595
 21
140.5253205957344
 31
0.0
  0
LINE
  5
25B17
  8
01
  6
PHANTOM2
 10
3170.117225965595
 20
140.5253205957344
 30
0.0
 11
3169.117225965595
 21
141.5253205957344
 31
0.0
  0
LINE
  5
25B47
  8
01
  6
PHANTOM2
 10
3160.617225965595
 20
171.5253205957344
 30
0.0
 11
3168.117225965595
 21
171.5253205957344
 31
0.0
  0
LINE
  5
25B48
  8
01
  6
PHANTOM2
 10
3188.317225965595
 20
171.5253205957344
 30
0.0
 11
3180.817225965595
 21
171.5253205957344
 31
0.0
  0
LINE
  5
25B4F
  8
01
  6
PHANTOM2
 10
1597.300000810623
 20
171.5253205957345
 30
0.0
 11
1582.650000810623
 21
171.5253205957345
 31
0.0
  0
LINE
  5
25B57
  8
01
  6
PHANTOM2
 10
1617.699999934435
 20
156.2253071250848
 30
0.0
 11
1617.699999934435
 21
163.8253071250847
 31
0.0
  0
LINE
  5
25B58
  8
01
  6
PHANTOM2
 10
1617.699999934435
 20
163.8253071250847
 30
0.0
 11
1616.699999934435
 21
163.8253071250847
 31
0.0
  0
LINE
  5
25B59
  8
01
  6
PHANTOM2
 10
1616.699999934435
 20
163.8253071250847
 30
0.0
 11
1616.699999934435
 21
156.2253071250848
 31
0.0
  0
LINE
  5
25B5A
  8
01
  6
PHANTOM2
 10
1616.699999934435
 20
156.2253071250848
 30
0.0
 11
1617.699999934435
 21
156.2253071250848
 31
0.0
  0
LINE
  5
25B5C
  8
01
  6
PHANTOM2
 10
1617.699991790545
 20
148.5253530649361
 30
0.0
 11
1617.699996444242
 21
146.5253065290381
 31
0.0
  0
LINE
  5
25B5D
  8
01
  6
PHANTOM2
 10
1617.700003424628
 20
143.5253065290385
 30
0.0
 11
1617.700008078109
 21
141.5253530649366
 31
0.0
  0
LINE
  5
25B5E
  8
01
  6
PHANTOM2
 10
1617.699999934435
 20
141.2253065290383
 30
0.0
 11
1617.699999934435
 21
148.8253065290382
 31
0.0
  0
LINE
  5
25B5F
  8
01
  6
PHANTOM2
 10
1617.699999934435
 20
148.8253065290382
 30
0.0
 11
1616.699999934435
 21
148.8253065290382
 31
0.0
  0
LINE
  5
25B60
  8
01
  6
PHANTOM2
 10
1616.699999934435
 20
148.8253065290382
 30
0.0
 11
1616.699999934435
 21
141.2253065290383
 31
0.0
  0
LINE
  5
25B61
  8
01
  6
PHANTOM2
 10
1616.699999934435
 20
141.2253065290383
 30
0.0
 11
1617.699999934435
 21
141.2253065290383
 31
0.0
  0
LINE
  5
25B64
  8
01
  6
PHANTOM2
 10
3089.349950623512
 20
175.0253205957345
 30
0.0
 11
3080.999950623512
 21
175.0253205957345
 31
0.0
  0
LINE
  5
25B65
  8
01
  6
PHANTOM2
 10
3040.999950623512
 20
175.0253205957345
 30
0.0
 11
3032.649950623512
 21
175.0253205957345
 31
0.0
  0
LINE
  5
25B66
  8
01
  6
PHANTOM2
 10
3090.349950623512
 20
175.0253205957345
 30
0.0
 11
3089.349950623512
 21
175.0253205957345
 31
0.0
  0
LINE
  5
25B67
  8
01
  6
PHANTOM2
 10
3090.349950623512
 20
172.0253205957345
 30
0.0
 11
3090.349950623512
 21
175.0253205957345
 31
0.0
  0
LINE
  5
25B68
  8
01
  6
PHANTOM2
 10
3031.649950623512
 20
175.0253205957345
 30
0.0
 11
3031.649950623512
 21
172.0253205957345
 31
0.0
  0
LINE
  5
25B69
  8
01
  6
PHANTOM2
 10
3032.649950623512
 20
175.0253205957345
 30
0.0
 11
3031.649950623512
 21
175.0253205957345
 31
0.0
  0
LINE
  5
25B6A
  8
01
  6
PHANTOM2
 10
3032.649950623512
 20
171.5253205957345
 30
0.0
 11
3055.799950623512
 21
171.5253205957345
 31
0.0
  0
LINE
  5
25B6B
  8
01
  6
PHANTOM2
 10
3089.349950623512
 20
171.5253205957345
 30
0.0
 11
3089.849950623512
 21
171.5253205957345
 31
0.0
  0
LINE
  5
25B6C
  8
01
  6
PHANTOM2
 10
3089.849950623512
 20
171.5253205957345
 30
0.0
 11
3090.349950623512
 21
172.0253205957345
 31
0.0
  0
LINE
  5
25B6D
  8
01
  6
PHANTOM2
 10
3032.149950623512
 20
171.5253205957345
 30
0.0
 11
3032.649950623512
 21
171.5253205957345
 31
0.0
  0
LINE
  5
25B6E
  8
01
  6
PHANTOM2
 10
3032.149950623512
 20
171.5253205957345
 30
0.0
 11
3031.649950623512
 21
172.0253205957345
 31
0.0
  0
LINE
  5
25B6F
  8
01
  6
PHANTOM2
 10
3080.999950623512
 20
175.0253205957345
 30
0.0
 11
3040.999950623512
 21
175.0253205957345
 31
0.0
  0
ARC
  5
25B70
  8
01
  6
PHANTOM2
 10
3055.799950623512
 20
170.5253205957345
 30
0.0
 40
1.0
 50
0.0
 51
90.0
  0
ARC
  5
25B71
  8
01
  6
PHANTOM2
 10
3074.699950623512
 20
170.5253205957345
 30
0.0
 40
1.0
 50
90.0
 51
180.0
  0
LINE
  5
25B72
  8
01
  6
PHANTOM2
 10
3056.799950623512
 20
170.5253205957345
 30
0.0
 11
3056.799950623512
 21
141.5253205957345
 31
0.0
  0
LINE
  5
25B73
  8
01
  6
PHANTOM2
 10
3073.699950623512
 20
141.5253205957345
 30
0.0
 11
3073.699950623512
 21
170.5253205957345
 31
0.0
  0
LINE
  5
25B74
  8
01
  6
PHANTOM2
 10
3058.299950623512
 20
140.5253205957345
 30
0.0
 11
3072.199950623512
 21
140.5253205957345
 31
0.0
  0
LINE
  5
25B75
  8
01
  6
PHANTOM2
 10
3057.799950623512
 20
140.5253205957345
 30
0.0
 11
3058.299950623512
 21
140.5253205957345
 31
0.0
  0
LINE
  5
25B76
  8
01
  6
PHANTOM2
 10
3057.799950623512
 20
140.5253205957345
 30
0.0
 11
3056.799950623512
 21
141.5253205957345
 31
0.0
  0
LINE
  5
25B77
  8
01
  6
PHANTOM2
 10
3072.199950623512
 20
140.5253205957345
 30
0.0
 11
3072.699950623512
 21
140.5253205957345
 31
0.0
  0
LINE
  5
25B78
  8
01
  6
PHANTOM2
 10
3073.699950623512
 20
141.5253205957345
 30
0.0
 11
3072.699950623512
 21
140.5253205957345
 31
0.0
  0
LINE
  5
25B79
  8
01
  6
PHANTOM2
 10
3074.699950623512
 20
171.5253205957345
 30
0.0
 11
3089.349950623512
 21
171.5253205957345
 31
0.0
  0
LINE
  5
25B7B
  8
01
  6
PHANTOM2
 10
3054.2999514997
 20
156.2253071250848
 30
0.0
 11
3054.2999514997
 21
163.8253071250847
 31
0.0
  0
LINE
  5
25B7C
  8
01
  6
PHANTOM2
 10
3054.2999514997
 20
163.8253071250847
 30
0.0
 11
3055.2999514997
 21
163.8253071250847
 31
0.0
  0
LINE
  5
25B7D
  8
01
  6
PHANTOM2
 10
3055.2999514997
 20
163.8253071250847
 30
0.0
 11
3055.2999514997
 21
156.2253071250848
 31
0.0
  0
LINE
  5
25B7E
  8
01
  6
PHANTOM2
 10
3055.2999514997
 20
156.2253071250848
 30
0.0
 11
3054.2999514997
 21
156.2253071250848
 31
0.0
  0
LINE
  5
25B80
  8
01
  6
PHANTOM2
 10
3054.299959643591
 20
148.5253530649361
 30
0.0
 11
3054.299954989894
 21
146.5253065290381
 31
0.0
  0
LINE
  5
25B81
  8
01
  6
PHANTOM2
 10
3054.299948009507
 20
143.5253065290385
 30
0.0
 11
3054.299943356027
 21
141.5253530649366
 31
0.0
  0
LINE
  5
25B82
  8
01
  6
PHANTOM2
 10
3054.2999514997
 20
141.2253065290383
 30
0.0
 11
3054.2999514997
 21
148.8253065290382
 31
0.0
  0
LINE
  5
25B83
  8
01
  6
PHANTOM2
 10
3054.2999514997
 20
148.8253065290382
 30
0.0
 11
3055.2999514997
 21
148.8253065290382
 31
0.0
  0
LINE
  5
25B84
  8
01
  6
PHANTOM2
 10
3055.2999514997
 20
148.8253065290382
 30
0.0
 11
3055.2999514997
 21
141.2253065290383
 31
0.0
  0
LINE
  5
25B85
  8
01
  6
PHANTOM2
 10
3055.2999514997
 20
141.2253065290383
 30
0.0
 11
3054.2999514997
 21
141.2253065290383
 31
0.0
  0
TEXT
  5
25BDF
  8
1TEXT
 10
1718.70117488535
 20
-56.71935861975888
 30
0.0
 40
20.0
  1
取付け可能な下地については取扱説明書をご参照ください。
 72
     2
 11
2347.367841552017
 21
-56.71935861975888
 31
0.0
 73
     1
  0
LINE
  5
25C04
  8
01
  6
CONTINUOUS
 10
197.2499862410127
 20
-395.4348625776835
 30
0.0
 11
1574.749998757988
 21
-395.4348625776835
 31
0.0
  0
LINE
  5
25C05
  8
01
  6
CONTINUOUS
 10
175.4999843336641
 20
168.5651307763985
 30
0.0
 11
175.4999843336641
 21
-374.9348631755926
 31
0.0
  0
LINE
  5
25C06
  8
01
  6
CONTINUOUS
 10
191.0000529982149
 20
175.0253205957345
 30
0.0
 11
130.9999910093843
 21
175.0253205957345
 31
0.0
  0
LINE
  5
25C07
  8
01
  6
CONTINUOUS
 10
130.9999910093843
 20
169.0253084363869
 30
0.0
 11
191.0000529982149
 21
169.0253084363869
 31
0.0
  0
LINE
  5
25C08
  8
01
  6
CONTINUOUS
 10
130.5000272490083
 20
169.0253084363869
 30
0.0
 11
130.9999910093843
 21
169.0253084363869
 31
0.0
  0
ARC
  5
25C09
  8
01
  6
CONTINUOUS
 10
130.4999992109833
 20
169.5253189169891
 30
0.0
 40
0.5
 50
180.0
 51
270.0
  0
LINE
  5
25C0A
  8
01
  6
CONTINUOUS
 10
191.0000529982149
 20
169.0253084363869
 30
0.0
 11
191.5000167585908
 21
169.0253084363869
 31
0.0
  0
ARC
  5
25C0B
  8
01
  6
CONTINUOUS
 10
191.4999992109833
 20
169.5253189169891
 30
0.0
 40
0.5
 50
270.0
 51
0.0
  0
LINE
  5
25C0C
  8
01
  6
CONTINUOUS
 10
191.9999805189668
 20
169.5253318014077
 30
0.0
 11
191.9999805189668
 21
175.0253205957345
 31
0.0
  0
LINE
  5
25C0D
  8
01
  6
CONTINUOUS
 10
191.9999805189668
 20
175.0253205957345
 30
0.0
 11
191.0000529982149
 21
175.0253205957345
 31
0.0
  0
LINE
  5
25C0E
  8
01
  6
CONTINUOUS
 10
129.9999442793428
 20
175.0253205957345
 30
0.0
 11
129.9999442793428
 21
169.5253318014077
 31
0.0
  0
LINE
  5
25C0F
  8
01
  6
CONTINUOUS
 10
130.9999910093843
 20
175.0253205957345
 30
0.0
 11
129.9999442793428
 21
175.0253205957345
 31
0.0
  0
LINE
  5
25C10
  8
01
  6
CONTINUOUS
 10
198.4999862410127
 20
-396.9348637548752
 30
0.0
 11
1575.999998757988
 21
-396.9348637548752
 31
0.0
  0
LINE
  5
25C11
  8
01
  6
CONTINUOUS
 10
197.2499862410127
 20
-396.9348637548752
 30
0.0
 11
197.2499862410127
 21
-395.6577895370789
 31
0.0
  0
LINE
  5
25C12
  8
01
  6
CONTINUOUS
 10
197.2499862410127
 20
-395.6577895370789
 30
0.0
 11
197.2499862410127
 21
-395.4348625776835
 31
0.0
  0
LINE
  5
25C13
  8
01
  6
CONTINUOUS
 10
1575.999998757988
 20
-423.4348634419508
 30
0.0
 11
1575.999998757988
 21
-397.2348632452555
 31
0.0
  0
LINE
  5
25C14
  8
01
  6
CONTINUOUS
 10
196.0000482298433
 20
-423.4348634419508
 30
0.0
 11
196.0000482298433
 21
-397.2348632452555
 31
0.0
  0
LINE
  5
25C15
  8
01
  6
CONTINUOUS
 10
1575.999998757988
 20
-396.9348637548752
 30
0.0
 11
196.0000482298433
 21
-396.9348637548752
 31
0.0
  0
LINE
  5
25C16
  8
01
  6
CONTINUOUS
 10
196.0000482298433
 20
-424.4348617432184
 30
0.0
 11
1575.999998757988
 21
-424.4348617432184
 31
0.0
  0
LINE
  5
25C17
  8
01
  6
CONTINUOUS
 10
173.9999738432466
 20
168.5651307763985
 30
0.0
 11
174.2799964644014
 21
168.5651307763985
 31
0.0
  0
LINE
  5
25C18
  8
01
  6
CONTINUOUS
 10
173.9999738432466
 20
168.5651307763985
 30
0.0
 11
173.9999738432466
 21
-374.9348631755926
 31
0.0
  0
LINE
  5
25C19
  8
01
  6
CONTINUOUS
 10
174.2799964644014
 20
168.5651307763985
 30
0.0
 11
175.2770629622041
 21
168.5651307763985
 31
0.0
  0
LINE
  5
25C1A
  8
01
  6
CONTINUOUS
 10
175.2770629622041
 20
168.5651307763985
 30
0.0
 11
175.4999843336641
 21
168.5651307763985
 31
0.0
  0
LINE
  5
25C1B
  8
01
  6
CONTINUOUS
 10
147.499987194687
 20
-374.9348631755926
 30
0.0
 11
173.7000432707368
 21
-374.9348631755926
 31
0.0
  0
LINE
  5
25C1C
  8
01
  6
CONTINUOUS
 10
146.4999404646455
 20
169.0253084363869
 30
0.0
 11
146.4999404646455
 21
-374.9348631755926
 31
0.0
  0
LINE
  5
25C1D
  8
01
  6
CONTINUOUS
 10
173.9999738432466
 20
-374.9348631755926
 30
0.0
 11
173.9999738432466
 21
169.0253084363869
 31
0.0
  0
LINE
  5
25C1E
  8
01
  6
CONTINUOUS
 10
1575.999998757988
 20
-423.9348644552298
 30
0.0
 11
1575.999998757988
 21
-424.4348617432184
 31
0.0
  0
ARC
  5
25C1F
  8
01
  6
CONTINUOUS
 10
1576.499999210983
 20
-424.4348631813933
 30
0.0
 40
0.5
 50
180.0
 51
270.0
  0
LINE
  5
25C20
  8
01
  6
CONTINUOUS
 10
1575.999998757988
 20
-396.4348627415962
 30
0.0
 11
1575.999998757988
 21
-423.9348644552298
 31
0.0
  0
LINE
  5
25C21
  8
01
  6
CONTINUOUS
 10
1575.999998757988
 20
-395.4348625776835
 30
0.0
 11
1575.999998757988
 21
-396.4348627415962
 31
0.0
  0
ARC
  5
25C22
  8
01
  6
CONTINUOUS
 10
1576.499999210983
 20
-395.4348631813933
 30
0.0
 40
0.5
 50
90.0
 51
180.0
  0
LINE
  5
25C23
  8
01
  6
CONTINUOUS
 10
196.0000482298433
 20
-423.9348644552298
 30
0.0
 11
196.0000482298433
 21
-396.4348627415962
 31
0.0
  0
LINE
  5
25C24
  8
01
  6
CONTINUOUS
 10
196.0000482298433
 20
-396.4348627415962
 30
0.0
 11
196.0000482298433
 21
-395.4348625776835
 31
0.0
  0
ARC
  5
25C25
  8
01
  6
CONTINUOUS
 10
195.4999992109833
 20
-395.4348631813933
 30
0.0
 40
0.5
 50
0.0
 51
90.0
  0
LINE
  5
25C26
  8
01
  6
CONTINUOUS
 10
195.4999652601778
 20
-394.9348634270497
 30
0.0
 11
178.0000415541231
 21
-394.9348634270497
 31
0.0
  0
ARC
  5
25C27
  8
01
  6
CONTINUOUS
 10
195.4999992109833
 20
-424.4348631813933
 30
0.0
 40
0.5
 50
270.0
 51
0.0
  0
LINE
  5
25C28
  8
01
  6
CONTINUOUS
 10
196.0000482298433
 20
-424.4348617432184
 30
0.0
 11
196.0000482298433
 21
-423.9348644552298
 31
0.0
  0
LINE
  5
25C29
  8
01
  6
CONTINUOUS
 10
147.499987194687
 20
-424.9348627564974
 30
0.0
 11
195.4999652601778
 21
-424.9348627564974
 31
0.0
  0
ARC
  5
25C2A
  8
01
  6
CONTINUOUS
 10
177.9999992109833
 20
-392.9348631813933
 30
0.0
 40
2.0
 50
180.0
 51
270.0
  0
ARC
  5
25C2B
  8
01
  6
CONTINUOUS
 10
175.4999992109833
 20
-375.4348631813932
 30
0.0
 40
0.4999999999998863
 50
0.0
 51
90.0
  0
LINE
  5
25C2C
  8
01
  6
CONTINUOUS
 10
175.4999843336641
 20
-374.9348631755926
 30
0.0
 11
174.5000568129121
 21
-374.9348631755926
 31
0.0
  0
LINE
  5
25C2D
  8
01
  6
CONTINUOUS
 10
175.9999480940401
 20
-392.9348630992241
 30
0.0
 11
175.9999480940401
 21
-375.434863257549
 31
0.0
  0
LINE
  5
25C2E
  8
01
  6
CONTINUOUS
 10
174.5000568129121
 20
-374.9348631755926
 30
0.0
 11
147.0000234343111
 21
-374.9348631755926
 31
0.0
  0
LINE
  5
25C2F
  8
01
  6
CONTINUOUS
 10
145.9999767042696
 20
-375.434863257549
 30
0.0
 11
145.9999767042696
 21
-423.4348634419508
 31
0.0
  0
LINE
  5
25C30
  8
01
  6
CONTINUOUS
 10
147.0000234343111
 20
-374.9348631755926
 30
0.0
 11
146.4999404646455
 21
-374.9348631755926
 31
0.0
  0
ARC
  5
25C31
  8
01
  6
CONTINUOUS
 10
146.4999992109833
 20
-375.4348631813932
 30
0.0
 40
0.5
 50
90.0
 51
180.0
  0
ARC
  5
25C32
  8
01
  6
CONTINUOUS
 10
147.4999992109833
 20
-423.4348631813933
 30
0.0
 40
1.500000000000114
 50
180.0
 51
270.0
  0
LINE
  5
25C33
  8
01
 10
1574.749998757988
 20
-395.4348625776835
 30
0.0
 11
1574.749998757988
 21
-396.9348637548752
 31
0.0
  0
LINE
  5
25C36
  8
01
  6
PHANTOM2
 10
132.6500485874712
 20
175.0253205957345
 30
0.0
 11
141.0000485874712
 21
175.0253205957345
 31
0.0
  0
LINE
  5
25C37
  8
01
  6
PHANTOM2
 10
181.0000485874712
 20
175.0253205957345
 30
0.0
 11
189.3500485874711
 21
175.0253205957345
 31
0.0
  0
LINE
  5
25C38
  8
01
  6
PHANTOM2
 10
131.6500485874712
 20
175.0253205957345
 30
0.0
 11
132.6500485874712
 21
175.0253205957345
 31
0.0
  0
LINE
  5
25C39
  8
01
  6
PHANTOM2
 10
131.6500485874712
 20
172.0253205957345
 30
0.0
 11
131.6500485874712
 21
175.0253205957345
 31
0.0
  0
LINE
  5
25C3A
  8
01
  6
PHANTOM2
 10
190.3500485874711
 20
175.0253205957345
 30
0.0
 11
190.3500485874711
 21
172.0253205957345
 31
0.0
  0
LINE
  5
25C3B
  8
01
  6
PHANTOM2
 10
189.3500485874711
 20
175.0253205957345
 30
0.0
 11
190.3500485874711
 21
175.0253205957345
 31
0.0
  0
LINE
  5
25C3C
  8
01
  6
PHANTOM2
 10
189.3500485874711
 20
171.5253205957345
 30
0.0
 11
166.2000485874714
 21
171.5253205957345
 31
0.0
  0
LINE
  5
25C3D
  8
01
  6
PHANTOM2
 10
132.6500485874712
 20
171.5253205957345
 30
0.0
 11
132.1500485874712
 21
171.5253205957345
 31
0.0
  0
LINE
  5
25C3E
  8
01
  6
PHANTOM2
 10
132.1500485874712
 20
171.5253205957345
 30
0.0
 11
131.6500485874712
 21
172.0253205957345
 31
0.0
  0
LINE
  5
25C3F
  8
01
  6
PHANTOM2
 10
189.8500485874711
 20
171.5253205957345
 30
0.0
 11
189.3500485874711
 21
171.5253205957345
 31
0.0
  0
LINE
  5
25C40
  8
01
  6
PHANTOM2
 10
189.8500485874711
 20
171.5253205957345
 30
0.0
 11
190.3500485874711
 21
172.0253205957345
 31
0.0
  0
LINE
  5
25C41
  8
01
  6
PHANTOM2
 10
141.0000485874712
 20
175.0253205957345
 30
0.0
 11
181.0000485874712
 21
175.0253205957345
 31
0.0
  0
ARC
  5
25C42
  8
01
  6
PHANTOM2
 10
166.2000485874714
 20
170.5253205957345
 30
0.0
 40
1.0
 50
90.0
 51
180.0
  0
ARC
  5
25C43
  8
01
  6
PHANTOM2
 10
147.3000485874709
 20
170.5253205957345
 30
0.0
 40
1.0
 50
0.0
 51
90.0
  0
LINE
  5
25C44
  8
01
  6
PHANTOM2
 10
165.2000485874714
 20
170.5253205957345
 30
0.0
 11
165.2000485874714
 21
141.5253205957345
 31
0.0
  0
LINE
  5
25C45
  8
01
  6
PHANTOM2
 10
148.3000485874709
 20
141.5253205957345
 30
0.0
 11
148.3000485874709
 21
170.5253205957345
 31
0.0
  0
LINE
  5
25C46
  8
01
  6
PHANTOM2
 10
163.7000485874714
 20
140.5253205957345
 30
0.0
 11
149.8000485874709
 21
140.5253205957345
 31
0.0
  0
LINE
  5
25C47
  8
01
  6
PHANTOM2
 10
164.2000485874714
 20
140.5253205957345
 30
0.0
 11
163.7000485874714
 21
140.5253205957345
 31
0.0
  0
LINE
  5
25C48
  8
01
  6
PHANTOM2
 10
164.2000485874714
 20
140.5253205957345
 30
0.0
 11
165.2000485874714
 21
141.5253205957345
 31
0.0
  0
LINE
  5
25C49
  8
01
  6
PHANTOM2
 10
149.8000485874709
 20
140.5253205957345
 30
0.0
 11
149.3000485874709
 21
140.5253205957345
 31
0.0
  0
LINE
  5
25C4A
  8
01
  6
PHANTOM2
 10
148.3000485874709
 20
141.5253205957345
 30
0.0
 11
149.3000485874709
 21
140.5253205957345
 31
0.0
  0
LINE
  5
25C4B
  8
01
  6
PHANTOM2
 10
147.3000485874709
 20
171.5253205957345
 30
0.0
 11
132.6500485874712
 21
171.5253205957345
 31
0.0
  0
LINE
  5
25C4D
  8
01
  6
PHANTOM2
 10
167.7000477112829
 20
156.2253071250848
 30
0.0
 11
167.7000477112829
 21
163.8253071250847
 31
0.0
  0
LINE
  5
25C4E
  8
01
  6
PHANTOM2
 10
167.7000477112829
 20
163.8253071250847
 30
0.0
 11
166.7000477112829
 21
163.8253071250847
 31
0.0
  0
LINE
  5
25C4F
  8
01
  6
PHANTOM2
 10
166.7000477112829
 20
163.8253071250847
 30
0.0
 11
166.7000477112829
 21
156.2253071250848
 31
0.0
  0
LINE
  5
25C50
  8
01
  6
PHANTOM2
 10
166.7000477112829
 20
156.2253071250848
 30
0.0
 11
167.7000477112829
 21
156.2253071250848
 31
0.0
  0
LINE
  5
25C52
  8
01
  6
PHANTOM2
 10
167.7000395673927
 20
148.5253530649361
 30
0.0
 11
167.7000442210897
 21
146.5253065290381
 31
0.0
  0
LINE
  5
25C53
  8
01
  6
PHANTOM2
 10
167.7000512014761
 20
143.5253065290385
 30
0.0
 11
167.7000558549566
 21
141.5253530649366
 31
0.0
  0
LINE
  5
25C54
  8
01
  6
PHANTOM2
 10
167.7000477112829
 20
141.2253065290383
 30
0.0
 11
167.7000477112829
 21
148.8253065290382
 31
0.0
  0
LINE
  5
25C55
  8
01
  6
PHANTOM2
 10
167.7000477112829
 20
148.8253065290382
 30
0.0
 11
166.7000477112829
 21
148.8253065290382
 31
0.0
  0
LINE
  5
25C56
  8
01
  6
PHANTOM2
 10
166.7000477112829
 20
148.8253065290382
 30
0.0
 11
166.7000477112829
 21
141.2253065290383
 31
0.0
  0
LINE
  5
25C57
  8
01
  6
PHANTOM2
 10
166.7000477112829
 20
141.2253065290383
 30
0.0
 11
167.7000477112829
 21
141.2253065290383
 31
0.0
  0
LINE
  5
25C5E
  8
01
  6
CONTINUOUS
 10
1593.99999891445
 20
-394.9348634270497
 30
0.0
 11
1576.499998839945
 21
-394.9348634270497
 31
0.0
  0
ARC
  5
25C5F
  8
01
  6
CONTINUOUS
 10
1593.999999210983
 20
-392.9348631813933
 30
0.0
 40
2.0
 50
270.0
 51
0.0
  0
LINE
  5
25C60
  8
01
  6
CONTINUOUS
 10
129.9999442793428
 20
-597.5812036518946
 30
0.0
 11
129.9999442793428
 21
-628.5812038437471
 31
0.0
  0
LINE
  5
25C61
  8
01
  6
CONTINUOUS
 10
129.9999442793428
 20
-628.5812038437471
 30
0.0
 11
130.5000272490083
 21
-628.5812038437471
 31
0.0
  0
ARC
  5
25C62
  8
01
  6
CONTINUOUS
 10
190.9999992109838
 20
-628.5812035995493
 30
0.0
 40
1.0
 50
270.0
 51
0.0
  0
LINE
  5
25C63
  8
01
  6
CONTINUOUS
 10
191.9999805189668
 20
-628.5812038437471
 30
0.0
 11
191.9999805189668
 21
-620.58120439509
 31
0.0
  0
LINE
  5
25C64
  8
01
  6
CONTINUOUS
 10
191.9999805189668
 20
-605.5812037990436
 30
0.0
 11
191.9999805189668
 21
-597.5812036518946
 31
0.0
  0
ARC
  5
25C65
  8
01
  6
CONTINUOUS
 10
130.9999992109838
 20
-628.5812035995493
 30
0.0
 40
1.0
 50
180.0
 51
270.0
  0
LINE
  5
25C66
  8
01
  6
CONTINUOUS
 10
130.9999910093843
 20
-629.5812021450147
 30
0.0
 11
191.0000529982149
 21
-629.5812021450147
 31
0.0
  0
LINE
  5
25C67
  8
01
  6
CONTINUOUS
 10
191.0000529982149
 20
-596.5812034879818
 30
0.0
 11
130.9999910093843
 21
-596.5812034879818
 31
0.0
  0
ARC
  5
25C68
  8
01
  6
CONTINUOUS
 10
190.9999992109838
 20
-597.5812035995493
 30
0.0
 40
1.0
 50
0.0
 51
90.0
  0
ARC
  5
25C69
  8
01
  6
CONTINUOUS
 10
130.9999992109838
 20
-597.5812035995493
 30
0.0
 40
1.0
 50
90.0
 51
180.0
  0
LINE
  5
25C6A
  8
01
  6
CONTINUOUS
 10
196.0000482298433
 20
-620.0812033818111
 30
0.0
 11
1575.999998757988
 21
-620.0812033818111
 31
0.0
  0
LINE
  5
25C6B
  8
01
  6
CONTINUOUS
 10
196.0000482298433
 20
-619.0812032178983
 30
0.0
 11
196.0000482298433
 21
-607.0812040449127
 31
0.0
  0
LINE
  5
25C6C
  8
01
  6
CONTINUOUS
 10
1575.999998757988
 20
-619.0812032178983
 30
0.0
 11
1575.999998757988
 21
-607.0812040449127
 31
0.0
  0
LINE
  5
25C6D
  8
01
  6
CONTINUOUS
 10
1575.999998757988
 20
-606.081203881
 30
0.0
 11
196.0000482298433
 21
-606.081203881
 31
0.0
  0
LINE
  5
25C6E
  8
01
  6
CONTINUOUS
 10
1575.999998757988
 20
-606.5812039629564
 30
0.0
 11
1575.999998757988
 21
-619.5812042311773
 31
0.0
  0
LINE
  5
25C6F
  8
01
  6
CONTINUOUS
 10
1575.999998757988
 20
-619.5812042311773
 30
0.0
 11
1575.999998757988
 21
-620.0812033818111
 31
0.0
  0
ARC
  5
25C70
  8
01
  6
CONTINUOUS
 10
1576.499999210984
 20
-620.0812035995493
 30
0.0
 40
0.5000000000000568
 50
180.0
 51
270.0
  0
LINE
  5
25C71
  8
01
  6
CONTINUOUS
 10
1575.999998757988
 20
-606.081203881
 30
0.0
 11
1575.999998757988
 21
-606.5812039629564
 31
0.0
  0
ARC
  5
25C72
  8
01
  6
CONTINUOUS
 10
1576.499999210984
 20
-606.0812035995493
 30
0.0
 40
0.5
 50
90.0
 51
180.0
  0
LINE
  5
25C73
  8
01
  6
CONTINUOUS
 10
147.499987194687
 20
-620.58120439509
 30
0.0
 11
195.4999652601778
 21
-620.58120439509
 31
0.0
  0
LINE
  5
25C74
  8
01
  6
CONTINUOUS
 10
196.0000482298433
 20
-619.5812042311773
 30
0.0
 11
196.0000482298433
 21
-606.5812039629564
 31
0.0
  0
LINE
  5
25C75
  8
01
  6
CONTINUOUS
 10
196.0000482298433
 20
-620.0812033818111
 30
0.0
 11
196.0000482298433
 21
-619.5812042311773
 31
0.0
  0
ARC
  5
25C76
  8
01
  6
CONTINUOUS
 10
195.4999992109838
 20
-620.0812035995548
 30
0.0
 40
0.5
 50
270.0
 51
0.0
  0
LINE
  5
25C77
  8
01
  6
CONTINUOUS
 10
145.9999767042696
 20
-606.5812039629564
 30
0.0
 11
145.9999767042696
 21
-619.5812042311773
 31
0.0
  0
LINE
  5
25C78
  8
01
  6
CONTINUOUS
 10
147.0000234343111
 20
-620.58120439509
 30
0.0
 11
147.499987194687
 21
-620.58120439509
 31
0.0
  0
ARC
  5
25C79
  8
01
  6
CONTINUOUS
 10
146.9999992109838
 20
-619.581203599555
 30
0.0
 40
1.000000000000114
 50
180.0
 51
270.0
  0
LINE
  5
25C7A
  8
01
  6
CONTINUOUS
 10
195.4999652601778
 20
-605.5812037990436
 30
0.0
 11
147.499987194687
 21
-605.5812037990436
 31
0.0
  0
LINE
  5
25C7B
  8
01
  6
CONTINUOUS
 10
196.0000482298433
 20
-606.5812039629564
 30
0.0
 11
196.0000482298433
 21
-606.081203881
 31
0.0
  0
ARC
  5
25C7C
  8
01
  6
CONTINUOUS
 10
195.4999992109838
 20
-606.0812035995548
 30
0.0
 40
0.5
 50
0.0
 51
90.0
  0
LINE
  5
25C7D
  8
01
  6
CONTINUOUS
 10
147.499987194687
 20
-605.5812037990436
 30
0.0
 11
147.0000234343111
 21
-605.5812037990436
 31
0.0
  0
ARC
  5
25C7E
  8
01
  6
CONTINUOUS
 10
146.9999992109833
 20
-606.581203599555
 30
0.0
 40
1.0
 50
90.0
 51
180.0
  0
CIRCLE
  5
25C7F
  8
01
 10
181.0000051005195
 20
-613.0812340990873
 30
0.0
 40
2.25
  0
LINE
  5
25C80
  8
1CENTER
 10
184.3750467158848
 20
-613.0812037478208
 30
0.0
 11
177.6250467158848
 21
-613.0812037478208
 31
0.0
  0
LINE
  5
25C81
  8
1CENTER
 10
181.0000467158848
 20
-616.4562037478208
 30
0.0
 11
181.0000467158848
 21
-609.7062037478208
 31
0.0
  0
CIRCLE
  5
25C82
  8
01
 10
141.0000051005195
 20
-613.0812340990873
 30
0.0
 40
2.25
  0
LINE
  5
25C83
  8
1CENTER
 10
144.3750467158848
 20
-613.0812037478208
 30
0.0
 11
137.6250467158848
 21
-613.0812037478208
 31
0.0
  0
LINE
  5
25C84
  8
1CENTER
 10
141.0000467158848
 20
-616.4562037478208
 30
0.0
 11
141.0000467158848
 21
-609.7062037478208
 31
0.0
  0
LINE
  5
25C85
  8
01
  6
CONTINUOUS
 10
1580.000000810623
 20
-605.5812036096686
 30
0.0
 11
1580.000000810623
 21
-597.5812036518946
 31
0.0
  0
LINE
  5
25D4B
  8
01
 10
3147.999999605492
 20
175.0253205957351
 30
0.0
 11
73.99999960549164
 21
175.0253205957338
 31
0.0
  0
LINE
  5
25D5D
  8
1CENTER
 10
1590.999998939037
 20
208.4298260935509
 30
0.0000000000060347
 11
1590.999998939037
 21
170.5966930461762
 31
0.0000000000060347
  0
LINE
  5
25D5E
  8
01
 10
1589.500045474935
 20
199.7753333928901
 30
0.0000000000060347
 11
1589.000045474935
 21
199.8753345562872
 31
0.0000000000060347
  0
LINE
  5
25D5F
  8
01
 10
1589.000045474935
 20
199.8753345562872
 30
0.0000000000060347
 11
1593.000045474935
 21
200.6753252491098
 31
0.0000000000060347
  0
LINE
  5
25D60
  8
01
 10
1593.000045474935
 20
200.6753252491098
 30
0.0000000000060347
 11
1592.500045474935
 21
200.7753264125069
 31
0.0000000000060347
  0
LINE
  5
25D61
  8
01
 10
1589.500045474935
 20
198.1753333928901
 30
0.0000000000060347
 11
1589.000045474935
 21
198.2753345562872
 31
0.0000000000060347
  0
LINE
  5
25D62
  8
01
 10
1593.000045474935
 20
199.0753252491098
 30
0.0000000000060347
 11
1592.500045474935
 21
199.1753264125069
 31
0.0000000000060347
  0
LINE
  5
25D63
  8
01
 10
1589.000045474935
 20
198.2753345562872
 30
0.0000000000060347
 11
1593.000045474935
 21
199.0753252491098
 31
0.0000000000060347
  0
LINE
  5
25D64
  8
01
 10
1589.500045474935
 20
196.5753333928901
 30
0.0000000000060347
 11
1589.000045474935
 21
196.6753345562872
 31
0.0000000000060347
  0
LINE
  5
25D65
  8
01
 10
1589.000045474935
 20
196.6753345562872
 30
0.0000000000060347
 11
1593.000045474935
 21
197.4753252491097
 31
0.0000000000060347
  0
LINE
  5
25D66
  8
01
 10
1593.000045474935
 20
197.4753252491097
 30
0.0000000000060347
 11
1592.500045474935
 21
197.5753264125069
 31
0.0000000000060347
  0
LINE
  5
25D67
  8
01
 10
1589.500045474935
 20
188.5753333928899
 30
0.0000000000060347
 11
1589.000045474935
 21
188.6753345562871
 31
0.0000000000060347
  0
LINE
  5
25D68
  8
01
 10
1593.000045474935
 20
189.4753252491096
 30
0.0000000000060347
 11
1592.500045474935
 21
189.5753264125069
 31
0.0000000000060347
  0
LINE
  5
25D69
  8
01
 10
1593.000045474935
 20
191.0753252491098
 30
0.0000000000060347
 11
1592.500045474935
 21
191.1753264125069
 31
0.0000000000060347
  0
LINE
  5
25D6A
  8
01
 10
1589.500045474935
 20
190.1753333928901
 30
0.0000000000060347
 11
1589.000045474935
 21
190.2753345562872
 31
0.0000000000060347
  0
LINE
  5
25D6B
  8
01
 10
1589.500045474935
 20
191.77533339289
 30
0.0000000000060347
 11
1589.000045474935
 21
191.8753345562871
 31
0.0000000000060347
  0
LINE
  5
25D6C
  8
01
 10
1589.000045474935
 20
190.2753345562872
 30
0.0000000000060347
 11
1593.000045474935
 21
191.0753252491098
 31
0.0000000000060347
  0
LINE
  5
25D6D
  8
01
 10
1589.000045474935
 20
188.6753345562871
 30
0.0000000000060347
 11
1593.000045474935
 21
189.4753252491096
 31
0.0000000000060347
  0
LINE
  5
25D6E
  8
01
 10
1589.500045474935
 20
193.3753333928899
 30
0.0000000000060347
 11
1589.000045474935
 21
193.4753345562871
 31
0.0000000000060347
  0
LINE
  5
25D6F
  8
01
 10
1589.500045474935
 20
201.5753333928899
 30
0.0000000000060347
 11
1589.000045474935
 21
201.6753345562871
 31
0.0000000000060347
  0
LINE
  5
25D70
  8
01
 10
1589.000045474935
 20
201.6753345562871
 30
0.0000000000060347
 11
1592.773638422731
 21
202.4753257759124
 31
0.0000000000060347
  0
LINE
  5
25D71
  8
01
 10
1592.773638422731
 20
202.4753257759124
 30
0.0000000000060347
 11
1592.23704468746
 21
202.6045964735422
 31
0.0000000000060347
  0
LINE
  5
25D72
  8
01
 10
1593.000045474935
 20
194.2753252491097
 30
0.0000000000060347
 11
1592.500045474935
 21
194.3753264125067
 31
0.0000000000060347
  0
LINE
  5
25D73
  8
01
 10
1593.000045474935
 20
195.8753252491097
 30
0.0000000000060347
 11
1592.500045474935
 21
195.9753264125068
 31
0.0000000000060347
  0
LINE
  5
25D74
  8
01
 10
1589.500045474935
 20
194.97533339289
 30
0.0000000000060347
 11
1589.000045474935
 21
195.0753345562871
 31
0.0000000000060347
  0
LINE
  5
25D75
  8
01
 10
1589.000045474935
 20
195.0753345562871
 30
0.0000000000060347
 11
1593.000045474935
 21
195.8753252491097
 31
0.0000000000060347
  0
LINE
  5
25D76
  8
01
 10
1589.000045474935
 20
193.4753345562871
 30
0.0000000000060347
 11
1593.000045474935
 21
194.2753252491097
 31
0.0000000000060347
  0
LINE
  5
25D77
  8
01
 10
1589.452861616994
 20
203.2753335026769
 30
0.0000000000060347
 11
1592.320824318324
 21
204.075326829518
 31
0.0000000000060347
  0
LINE
  5
25D78
  8
01
 10
1589.905675125042
 20
204.8753324490727
 30
0.0000000000060347
 11
1591.868010213918
 21
205.6753278831236
 31
0.0000000000060347
  0
LINE
  5
25D79
  8
01
 10
1592.320824318324
 20
204.075326829518
 30
0.0000000000060347
 11
1591.769074854521
 21
204.258090972146
 31
0.0000000000060347
  0
LINE
  5
25D7A
  8
01
 10
1590.362846965673
 20
204.7238966526322
 30
0.0000000000060347
 11
1589.905675125042
 21
204.8753324490727
 31
0.0000000000060347
  0
LINE
  5
25D7B
  8
01
 10
1591.868010213918
 20
205.6753278831236
 30
0.0000000000060347
 11
1591.279733638875
 21
205.9870977393757
 31
0.0000000000060347
  0
LINE
  5
25D7C
  8
01
 10
1589.920960072144
 20
203.1625639903268
 30
0.0000000000060347
 11
1589.452861616994
 21
203.2753335026769
 31
0.0000000000060347
  0
LINE
  5
25D7D
  8
01
 10
1593.000045474935
 20
192.6753252491097
 30
0.0000000000060347
 11
1592.500045474935
 21
192.7753264125069
 31
0.0000000000060347
  0
LINE
  5
25D7E
  8
01
 10
1589.000045474935
 20
191.8753345562871
 30
0.0000000000060347
 11
1593.000045474935
 21
192.6753252491097
 31
0.0000000000060347
  0
LINE
  5
25D7F
  8
01
 10
1592.500045474935
 20
174.97532641249
 30
0.0000000000060347
 11
1593.000045474935
 21
175.0753252490923
 31
0.0000000000060347
  0
LINE
  5
25D80
  8
01
 10
1589.000045474935
 20
175.8753345562783
 30
0.0000000000060347
 11
1593.000045474935
 21
176.6753252490966
 31
0.0000000000060347
  0
LINE
  5
25D81
  8
01
 10
1589.000045474935
 20
179.0753345562784
 30
0.0000000000060347
 11
1593.000045474935
 21
179.8753252490966
 31
0.0000000000060347
  0
LINE
  5
25D82
  8
01
 10
1593.000045474935
 20
179.8753252490966
 30
0.0000000000060347
 11
1592.500045474935
 21
179.9753264124943
 31
0.0000000000060347
  0
LINE
  5
25D83
  8
01
 10
1593.000045474935
 20
176.6753252490966
 30
0.0000000000060347
 11
1592.500045474935
 21
176.7753264124943
 31
0.0000000000060347
  0
LINE
  5
25D84
  8
01
 10
1589.500045474935
 20
177.3753333928806
 30
0.0000000000060347
 11
1589.000045474935
 21
177.4753345562783
 31
0.0000000000060347
  0
LINE
  5
25D85
  8
01
 10
1593.000045474935
 20
178.2753252490965
 30
0.0000000000060347
 11
1592.500045474935
 21
178.3753264124942
 31
0.0000000000060347
  0
LINE
  5
25D86
  8
01
 10
1589.000045474935
 20
177.4753345562783
 30
0.0000000000060347
 11
1593.000045474935
 21
178.2753252490965
 31
0.0000000000060347
  0
LINE
  5
25D87
  8
01
 10
1589.500045474935
 20
178.9753333928807
 30
0.0000000000060347
 11
1589.000045474935
 21
179.0753345562784
 31
0.0000000000060347
  0
LINE
  5
25D88
  8
01
 10
1593.000045474935
 20
175.0753252490923
 30
0.0000000000060347
 11
1592.500045474935
 21
175.1753264124899
 31
0.0000000000060347
  0
LINE
  5
25D89
  8
01
 10
1589.500045474935
 20
175.7753333928807
 30
0.0000000000060347
 11
1589.000045474935
 21
175.8753345562783
 31
0.0000000000060347
  0
LINE
  5
25D8A
  8
01
 10
1586.999998939037
 20
172.2753392100935
 30
0.0000000000060347
 11
1594.999998939037
 21
172.2753205957344
 31
0.0000000000060347
  0
LINE
  5
25D8B
  8
01
 10
1589.500045474935
 20
180.5753333928851
 30
0.0000000000060347
 11
1589.000045474935
 21
180.6753345562827
 31
0.0000000000060347
  0
LINE
  5
25D8C
  8
01
 10
1589.500045474935
 20
182.1753333928894
 30
0.0000000000060347
 11
1589.000045474935
 21
182.2753345562871
 31
0.0000000000060347
  0
LINE
  5
25D8D
  8
01
 10
1593.000045474935
 20
181.475325249101
 30
0.0000000000060347
 11
1592.500045474935
 21
181.5753264124987
 31
0.0000000000060347
  0
LINE
  5
25D8E
  8
01
 10
1589.500045474935
 20
185.3753333928894
 30
0.0000000000060347
 11
1589.000045474935
 21
185.4753345562871
 31
0.0000000000060347
  0
LINE
  5
25D8F
  8
01
 10
1589.000045474935
 20
183.875334556287
 30
0.0000000000060347
 11
1593.000045474935
 21
184.6753252491052
 31
0.0000000000060347
  0
LINE
  5
25D90
  8
01
 10
1593.000045474935
 20
184.6753252491052
 30
0.0000000000060347
 11
1592.500045474935
 21
184.7753264125029
 31
0.0000000000060347
  0
LINE
  5
25D91
  8
01
 10
1589.500045474935
 20
183.7753333928893
 30
0.0000000000060347
 11
1589.000045474935
 21
183.875334556287
 31
0.0000000000060347
  0
LINE
  5
25D92
  8
01
 10
1593.000045474935
 20
183.0753252491053
 30
0.0000000000060347
 11
1592.500045474935
 21
183.175326412503
 31
0.0000000000060347
  0
LINE
  5
25D93
  8
01
 10
1593.000045474935
 20
187.8753252491097
 30
0.0000000000060347
 11
1592.500045474935
 21
187.9753264125068
 31
0.0000000000060347
  0
LINE
  5
25D94
  8
01
 10
1593.000045474935
 20
186.2753252491054
 30
0.0000000000060347
 11
1592.500045474935
 21
186.3753264125031
 31
0.0000000000060347
  0
LINE
  5
25D95
  8
01
 10
1589.500045474935
 20
186.9753333928894
 30
0.0000000000060347
 11
1589.000045474935
 21
187.0753345562871
 31
0.0000000000060347
  0
LINE
  5
25D96
  8
01
 10
1589.000045474935
 20
187.0753345562871
 30
0.0000000000060347
 11
1593.000045474935
 21
187.8753252491097
 31
0.0000000000060347
  0
LINE
  5
25D97
  8
01
 10
1589.000045474935
 20
185.4753345562871
 30
0.0000000000060347
 11
1593.000045474935
 21
186.2753252491054
 31
0.0000000000060347
  0
LINE
  5
25D98
  8
01
 10
1589.000045474935
 20
182.2753345562871
 30
0.0000000000060347
 11
1593.000045474935
 21
183.0753252491053
 31
0.0000000000060347
  0
LINE
  5
25D99
  8
01
 10
1589.000045474935
 20
180.6753345562827
 30
0.0000000000060347
 11
1593.000045474935
 21
181.475325249101
 31
0.0000000000060347
  0
LINE
  5
25D9B
  8
1CENTER
 10
1630.999998939037
 20
208.4298260935509
 30
0.0000000000060347
 11
1630.999998939037
 21
170.5966930461762
 31
0.0000000000060347
  0
LINE
  5
25D9C
  8
01
 10
1629.500045474935
 20
199.7753333928901
 30
0.0000000000060347
 11
1629.000045474935
 21
199.8753345562872
 31
0.0000000000060347
  0
LINE
  5
25D9D
  8
01
 10
1629.000045474935
 20
199.8753345562872
 30
0.0000000000060347
 11
1633.000045474935
 21
200.6753252491098
 31
0.0000000000060347
  0
LINE
  5
25D9E
  8
01
 10
1633.000045474935
 20
200.6753252491098
 30
0.0000000000060347
 11
1632.500045474935
 21
200.7753264125069
 31
0.0000000000060347
  0
LINE
  5
25D9F
  8
01
 10
1629.500045474935
 20
198.1753333928901
 30
0.0000000000060347
 11
1629.000045474935
 21
198.2753345562872
 31
0.0000000000060347
  0
LINE
  5
25DA0
  8
01
 10
1633.000045474935
 20
199.0753252491098
 30
0.0000000000060347
 11
1632.500045474935
 21
199.1753264125069
 31
0.0000000000060347
  0
LINE
  5
25DA1
  8
01
 10
1629.000045474935
 20
198.2753345562872
 30
0.0000000000060347
 11
1633.000045474935
 21
199.0753252491098
 31
0.0000000000060347
  0
LINE
  5
25DA2
  8
01
 10
1629.500045474935
 20
196.5753333928901
 30
0.0000000000060347
 11
1629.000045474935
 21
196.6753345562872
 31
0.0000000000060347
  0
LINE
  5
25DA3
  8
01
 10
1629.000045474935
 20
196.6753345562872
 30
0.0000000000060347
 11
1633.000045474935
 21
197.4753252491097
 31
0.0000000000060347
  0
LINE
  5
25DA4
  8
01
 10
1633.000045474935
 20
197.4753252491097
 30
0.0000000000060347
 11
1632.500045474935
 21
197.5753264125069
 31
0.0000000000060347
  0
LINE
  5
25DA5
  8
01
 10
1629.500045474935
 20
188.5753333928899
 30
0.0000000000060347
 11
1629.000045474935
 21
188.6753345562871
 31
0.0000000000060347
  0
LINE
  5
25DA6
  8
01
 10
1633.000045474935
 20
189.4753252491096
 30
0.0000000000060347
 11
1632.500045474935
 21
189.5753264125069
 31
0.0000000000060347
  0
LINE
  5
25DA7
  8
01
 10
1633.000045474935
 20
191.0753252491098
 30
0.0000000000060347
 11
1632.500045474935
 21
191.1753264125069
 31
0.0000000000060347
  0
LINE
  5
25DA8
  8
01
 10
1629.500045474935
 20
190.1753333928901
 30
0.0000000000060347
 11
1629.000045474935
 21
190.2753345562872
 31
0.0000000000060347
  0
LINE
  5
25DA9
  8
01
 10
1629.500045474935
 20
191.77533339289
 30
0.0000000000060347
 11
1629.000045474935
 21
191.8753345562871
 31
0.0000000000060347
  0
LINE
  5
25DAA
  8
01
 10
1629.000045474935
 20
190.2753345562872
 30
0.0000000000060347
 11
1633.000045474935
 21
191.0753252491098
 31
0.0000000000060347
  0
LINE
  5
25DAB
  8
01
 10
1629.000045474935
 20
188.6753345562871
 30
0.0000000000060347
 11
1633.000045474935
 21
189.4753252491096
 31
0.0000000000060347
  0
LINE
  5
25DAC
  8
01
 10
1629.500045474935
 20
193.3753333928899
 30
0.0000000000060347
 11
1629.000045474935
 21
193.4753345562871
 31
0.0000000000060347
  0
LINE
  5
25DAD
  8
01
 10
1629.500045474935
 20
201.5753333928899
 30
0.0000000000060347
 11
1629.000045474935
 21
201.6753345562871
 31
0.0000000000060347
  0
LINE
  5
25DAE
  8
01
 10
1629.000045474935
 20
201.6753345562871
 30
0.0000000000060347
 11
1632.773638422731
 21
202.4753257759124
 31
0.0000000000060347
  0
LINE
  5
25DAF
  8
01
 10
1632.773638422731
 20
202.4753257759124
 30
0.0000000000060347
 11
1632.23704468746
 21
202.6045964735422
 31
0.0000000000060347
  0
LINE
  5
25DB0
  8
01
 10
1633.000045474935
 20
194.2753252491097
 30
0.0000000000060347
 11
1632.500045474935
 21
194.3753264125067
 31
0.0000000000060347
  0
LINE
  5
25DB1
  8
01
 10
1633.000045474935
 20
195.8753252491097
 30
0.0000000000060347
 11
1632.500045474935
 21
195.9753264125068
 31
0.0000000000060347
  0
LINE
  5
25DB2
  8
01
 10
1629.500045474935
 20
194.97533339289
 30
0.0000000000060347
 11
1629.000045474935
 21
195.0753345562871
 31
0.0000000000060347
  0
LINE
  5
25DB3
  8
01
 10
1629.000045474935
 20
195.0753345562871
 30
0.0000000000060347
 11
1633.000045474935
 21
195.8753252491097
 31
0.0000000000060347
  0
LINE
  5
25DB4
  8
01
 10
1629.000045474935
 20
193.4753345562871
 30
0.0000000000060347
 11
1633.000045474935
 21
194.2753252491097
 31
0.0000000000060347
  0
LINE
  5
25DB5
  8
01
 10
1629.452861616994
 20
203.2753335026769
 30
0.0000000000060347
 11
1632.320824318324
 21
204.075326829518
 31
0.0000000000060347
  0
LINE
  5
25DB6
  8
01
 10
1629.905675125042
 20
204.8753324490727
 30
0.0000000000060347
 11
1631.868010213918
 21
205.6753278831236
 31
0.0000000000060347
  0
LINE
  5
25DB7
  8
01
 10
1632.320824318324
 20
204.075326829518
 30
0.0000000000060347
 11
1631.769074854521
 21
204.258090972146
 31
0.0000000000060347
  0
LINE
  5
25DB8
  8
01
 10
1630.362846965673
 20
204.7238966526322
 30
0.0000000000060347
 11
1629.905675125042
 21
204.8753324490727
 31
0.0000000000060347
  0
LINE
  5
25DB9
  8
01
 10
1631.868010213918
 20
205.6753278831236
 30
0.0000000000060347
 11
1631.279733638875
 21
205.9870977393757
 31
0.0000000000060347
  0
LINE
  5
25DBA
  8
01
 10
1629.920960072144
 20
203.1625639903268
 30
0.0000000000060347
 11
1629.452861616994
 21
203.2753335026769
 31
0.0000000000060347
  0
LINE
  5
25DBB
  8
01
 10
1633.000045474935
 20
192.6753252491097
 30
0.0000000000060347
 11
1632.500045474935
 21
192.7753264125069
 31
0.0000000000060347
  0
LINE
  5
25DBC
  8
01
 10
1629.000045474935
 20
191.8753345562871
 30
0.0000000000060347
 11
1633.000045474935
 21
192.6753252491097
 31
0.0000000000060347
  0
LINE
  5
25DBD
  8
01
 10
1632.500045474935
 20
174.97532641249
 30
0.0000000000060347
 11
1633.000045474935
 21
175.0753252490923
 31
0.0000000000060347
  0
LINE
  5
25DBE
  8
01
 10
1629.000045474935
 20
175.8753345562783
 30
0.0000000000060347
 11
1633.000045474935
 21
176.6753252490966
 31
0.0000000000060347
  0
LINE
  5
25DBF
  8
01
 10
1629.000045474935
 20
179.0753345562784
 30
0.0000000000060347
 11
1633.000045474935
 21
179.8753252490966
 31
0.0000000000060347
  0
LINE
  5
25DC0
  8
01
 10
1633.000045474935
 20
179.8753252490966
 30
0.0000000000060347
 11
1632.500045474935
 21
179.9753264124943
 31
0.0000000000060347
  0
LINE
  5
25DC1
  8
01
 10
1633.000045474935
 20
176.6753252490966
 30
0.0000000000060347
 11
1632.500045474935
 21
176.7753264124943
 31
0.0000000000060347
  0
LINE
  5
25DC2
  8
01
 10
1629.500045474935
 20
177.3753333928806
 30
0.0000000000060347
 11
1629.000045474935
 21
177.4753345562783
 31
0.0000000000060347
  0
LINE
  5
25DC3
  8
01
 10
1633.000045474935
 20
178.2753252490965
 30
0.0000000000060347
 11
1632.500045474935
 21
178.3753264124942
 31
0.0000000000060347
  0
LINE
  5
25DC4
  8
01
 10
1629.000045474935
 20
177.4753345562783
 30
0.0000000000060347
 11
1633.000045474935
 21
178.2753252490965
 31
0.0000000000060347
  0
LINE
  5
25DC5
  8
01
 10
1629.500045474935
 20
178.9753333928807
 30
0.0000000000060347
 11
1629.000045474935
 21
179.0753345562784
 31
0.0000000000060347
  0
LINE
  5
25DC6
  8
01
 10
1633.000045474935
 20
175.0753252490923
 30
0.0000000000060347
 11
1632.500045474935
 21
175.1753264124899
 31
0.0000000000060347
  0
LINE
  5
25DC7
  8
01
 10
1629.500045474935
 20
175.7753333928807
 30
0.0000000000060347
 11
1629.000045474935
 21
175.8753345562783
 31
0.0000000000060347
  0
LINE
  5
25DC8
  8
01
 10
1626.999998939037
 20
172.2753392100935
 30
0.0000000000060347
 11
1634.999998939037
 21
172.2753205957344
 31
0.0000000000060347
  0
LINE
  5
25DC9
  8
01
 10
1629.500045474935
 20
180.5753333928851
 30
0.0000000000060347
 11
1629.000045474935
 21
180.6753345562827
 31
0.0000000000060347
  0
LINE
  5
25DCA
  8
01
 10
1629.500045474935
 20
182.1753333928894
 30
0.0000000000060347
 11
1629.000045474935
 21
182.2753345562871
 31
0.0000000000060347
  0
LINE
  5
25DCB
  8
01
 10
1633.000045474935
 20
181.475325249101
 30
0.0000000000060347
 11
1632.500045474935
 21
181.5753264124987
 31
0.0000000000060347
  0
LINE
  5
25DCC
  8
01
 10
1629.500045474935
 20
185.3753333928894
 30
0.0000000000060347
 11
1629.000045474935
 21
185.4753345562871
 31
0.0000000000060347
  0
LINE
  5
25DCD
  8
01
 10
1629.000045474935
 20
183.875334556287
 30
0.0000000000060347
 11
1633.000045474935
 21
184.6753252491052
 31
0.0000000000060347
  0
LINE
  5
25DCE
  8
01
 10
1633.000045474935
 20
184.6753252491052
 30
0.0000000000060347
 11
1632.500045474935
 21
184.7753264125029
 31
0.0000000000060347
  0
LINE
  5
25DCF
  8
01
 10
1629.500045474935
 20
183.7753333928893
 30
0.0000000000060347
 11
1629.000045474935
 21
183.875334556287
 31
0.0000000000060347
  0
LINE
  5
25DD0
  8
01
 10
1633.000045474935
 20
183.0753252491053
 30
0.0000000000060347
 11
1632.500045474935
 21
183.175326412503
 31
0.0000000000060347
  0
LINE
  5
25DD1
  8
01
 10
1633.000045474935
 20
187.8753252491097
 30
0.0000000000060347
 11
1632.500045474935
 21
187.9753264125068
 31
0.0000000000060347
  0
LINE
  5
25DD2
  8
01
 10
1633.000045474935
 20
186.2753252491054
 30
0.0000000000060347
 11
1632.500045474935
 21
186.3753264125031
 31
0.0000000000060347
  0
LINE
  5
25DD3
  8
01
 10
1629.500045474935
 20
186.9753333928894
 30
0.0000000000060347
 11
1629.000045474935
 21
187.0753345562871
 31
0.0000000000060347
  0
LINE
  5
25DD4
  8
01
 10
1629.000045474935
 20
187.0753345562871
 30
0.0000000000060347
 11
1633.000045474935
 21
187.8753252491097
 31
0.0000000000060347
  0
LINE
  5
25DD5
  8
01
 10
1629.000045474935
 20
185.4753345562871
 30
0.0000000000060347
 11
1633.000045474935
 21
186.2753252491054
 31
0.0000000000060347
  0
LINE
  5
25DD6
  8
01
 10
1629.000045474935
 20
182.2753345562871
 30
0.0000000000060347
 11
1633.000045474935
 21
183.0753252491053
 31
0.0000000000060347
  0
LINE
  5
25DD7
  8
01
 10
1629.000045474935
 20
180.6753345562827
 30
0.0000000000060347
 11
1633.000045474935
 21
181.475325249101
 31
0.0000000000060347
  0
LINE
  5
25DD9
  8
1CENTER
 10
3041.000016820431
 20
208.4298260935509
 30
0.0000000000060347
 11
3041.000016820431
 21
170.5966930461762
 31
0.0000000000060347
  0
LINE
  5
25DDA
  8
01
 10
3039.500063356329
 20
199.7753333928901
 30
0.0000000000060347
 11
3039.000063356329
 21
199.8753345562872
 31
0.0000000000060347
  0
LINE
  5
25DDB
  8
01
 10
3039.000063356329
 20
199.8753345562872
 30
0.0000000000060347
 11
3043.000063356329
 21
200.6753252491098
 31
0.0000000000060347
  0
LINE
  5
25DDC
  8
01
 10
3043.000063356329
 20
200.6753252491098
 30
0.0000000000060347
 11
3042.500063356329
 21
200.7753264125069
 31
0.0000000000060347
  0
LINE
  5
25DDD
  8
01
 10
3039.500063356329
 20
198.1753333928901
 30
0.0000000000060347
 11
3039.000063356329
 21
198.2753345562872
 31
0.0000000000060347
  0
LINE
  5
25DDE
  8
01
 10
3043.000063356329
 20
199.0753252491098
 30
0.0000000000060347
 11
3042.500063356329
 21
199.1753264125069
 31
0.0000000000060347
  0
LINE
  5
25DDF
  8
01
 10
3039.000063356329
 20
198.2753345562872
 30
0.0000000000060347
 11
3043.000063356329
 21
199.0753252491098
 31
0.0000000000060347
  0
LINE
  5
25DE0
  8
01
 10
3039.500063356329
 20
196.5753333928901
 30
0.0000000000060347
 11
3039.000063356329
 21
196.6753345562872
 31
0.0000000000060347
  0
LINE
  5
25DE1
  8
01
 10
3039.000063356329
 20
196.6753345562872
 30
0.0000000000060347
 11
3043.000063356329
 21
197.4753252491097
 31
0.0000000000060347
  0
LINE
  5
25DE2
  8
01
 10
3043.000063356329
 20
197.4753252491097
 30
0.0000000000060347
 11
3042.500063356329
 21
197.5753264125069
 31
0.0000000000060347
  0
LINE
  5
25DE3
  8
01
 10
3039.500063356329
 20
188.5753333928899
 30
0.0000000000060347
 11
3039.000063356329
 21
188.6753345562871
 31
0.0000000000060347
  0
LINE
  5
25DE4
  8
01
 10
3043.000063356329
 20
189.4753252491096
 30
0.0000000000060347
 11
3042.500063356329
 21
189.5753264125069
 31
0.0000000000060347
  0
LINE
  5
25DE5
  8
01
 10
3043.000063356329
 20
191.0753252491098
 30
0.0000000000060347
 11
3042.500063356329
 21
191.1753264125069
 31
0.0000000000060347
  0
LINE
  5
25DE6
  8
01
 10
3039.500063356329
 20
190.1753333928901
 30
0.0000000000060347
 11
3039.000063356329
 21
190.2753345562872
 31
0.0000000000060347
  0
LINE
  5
25DE7
  8
01
 10
3039.500063356329
 20
191.77533339289
 30
0.0000000000060347
 11
3039.000063356329
 21
191.8753345562871
 31
0.0000000000060347
  0
LINE
  5
25DE8
  8
01
 10
3039.000063356329
 20
190.2753345562872
 30
0.0000000000060347
 11
3043.000063356329
 21
191.0753252491098
 31
0.0000000000060347
  0
LINE
  5
25DE9
  8
01
 10
3039.000063356329
 20
188.6753345562871
 30
0.0000000000060347
 11
3043.000063356329
 21
189.4753252491096
 31
0.0000000000060347
  0
LINE
  5
25DEA
  8
01
 10
3039.500063356329
 20
193.3753333928899
 30
0.0000000000060347
 11
3039.000063356329
 21
193.4753345562871
 31
0.0000000000060347
  0
LINE
  5
25DEB
  8
01
 10
3039.500063356329
 20
201.5753333928899
 30
0.0000000000060347
 11
3039.000063356329
 21
201.6753345562871
 31
0.0000000000060347
  0
LINE
  5
25DEC
  8
01
 10
3039.000063356329
 20
201.6753345562871
 30
0.0000000000060347
 11
3042.773656304124
 21
202.4753257759124
 31
0.0000000000060347
  0
LINE
  5
25DED
  8
01
 10
3042.773656304124
 20
202.4753257759124
 30
0.0000000000060347
 11
3042.237062568854
 21
202.6045964735422
 31
0.0000000000060347
  0
LINE
  5
25DEE
  8
01
 10
3043.000063356329
 20
194.2753252491097
 30
0.0000000000060347
 11
3042.500063356329
 21
194.3753264125067
 31
0.0000000000060347
  0
LINE
  5
25DEF
  8
01
 10
3043.000063356329
 20
195.8753252491097
 30
0.0000000000060347
 11
3042.500063356329
 21
195.9753264125068
 31
0.0000000000060347
  0
LINE
  5
25DF0
  8
01
 10
3039.500063356329
 20
194.97533339289
 30
0.0000000000060347
 11
3039.000063356329
 21
195.0753345562871
 31
0.0000000000060347
  0
LINE
  5
25DF1
  8
01
 10
3039.000063356329
 20
195.0753345562871
 30
0.0000000000060347
 11
3043.000063356329
 21
195.8753252491097
 31
0.0000000000060347
  0
LINE
  5
25DF2
  8
01
 10
3039.000063356329
 20
193.4753345562871
 30
0.0000000000060347
 11
3043.000063356329
 21
194.2753252491097
 31
0.0000000000060347
  0
LINE
  5
25DF3
  8
01
 10
3039.452879498387
 20
203.2753335026769
 30
0.0000000000060347
 11
3042.320842199718
 21
204.075326829518
 31
0.0000000000060347
  0
LINE
  5
25DF4
  8
01
 10
3039.905693006436
 20
204.8753324490727
 30
0.0000000000060347
 11
3041.868028095311
 21
205.6753278831236
 31
0.0000000000060347
  0
LINE
  5
25DF5
  8
01
 10
3042.320842199718
 20
204.075326829518
 30
0.0000000000060347
 11
3041.769092735914
 21
204.258090972146
 31
0.0000000000060347
  0
LINE
  5
25DF6
  8
01
 10
3040.362864847067
 20
204.7238966526322
 30
0.0000000000060347
 11
3039.905693006436
 21
204.8753324490727
 31
0.0000000000060347
  0
LINE
  5
25DF7
  8
01
 10
3041.868028095311
 20
205.6753278831236
 30
0.0000000000060347
 11
3041.279751520269
 21
205.9870977393757
 31
0.0000000000060347
  0
LINE
  5
25DF8
  8
01
 10
3039.920977953537
 20
203.1625639903268
 30
0.0000000000060347
 11
3039.452879498387
 21
203.2753335026769
 31
0.0000000000060347
  0
LINE
  5
25DF9
  8
01
 10
3043.000063356329
 20
192.6753252491097
 30
0.0000000000060347
 11
3042.500063356329
 21
192.7753264125069
 31
0.0000000000060347
  0
LINE
  5
25DFA
  8
01
 10
3039.000063356329
 20
191.8753345562871
 30
0.0000000000060347
 11
3043.000063356329
 21
192.6753252491097
 31
0.0000000000060347
  0
LINE
  5
25DFB
  8
01
 10
3042.500063356329
 20
174.97532641249
 30
0.0000000000060347
 11
3043.000063356329
 21
175.0753252490923
 31
0.0000000000060347
  0
LINE
  5
25DFC
  8
01
 10
3039.000063356329
 20
175.8753345562783
 30
0.0000000000060347
 11
3043.000063356329
 21
176.6753252490966
 31
0.0000000000060347
  0
LINE
  5
25DFD
  8
01
 10
3039.000063356329
 20
179.0753345562784
 30
0.0000000000060347
 11
3043.000063356329
 21
179.8753252490966
 31
0.0000000000060347
  0
LINE
  5
25DFE
  8
01
 10
3043.000063356329
 20
179.8753252490966
 30
0.0000000000060347
 11
3042.500063356329
 21
179.9753264124943
 31
0.0000000000060347
  0
LINE
  5
25DFF
  8
01
 10
3043.000063356329
 20
176.6753252490966
 30
0.0000000000060347
 11
3042.500063356329
 21
176.7753264124943
 31
0.0000000000060347
  0
LINE
  5
25E00
  8
01
 10
3039.500063356329
 20
177.3753333928806
 30
0.0000000000060347
 11
3039.000063356329
 21
177.4753345562783
 31
0.0000000000060347
  0
LINE
  5
25E01
  8
01
 10
3043.000063356329
 20
178.2753252490965
 30
0.0000000000060347
 11
3042.500063356329
 21
178.3753264124942
 31
0.0000000000060347
  0
LINE
  5
25E02
  8
01
 10
3039.000063356329
 20
177.4753345562783
 30
0.0000000000060347
 11
3043.000063356329
 21
178.2753252490965
 31
0.0000000000060347
  0
LINE
  5
25E03
  8
01
 10
3039.500063356329
 20
178.9753333928807
 30
0.0000000000060347
 11
3039.000063356329
 21
179.0753345562784
 31
0.0000000000060347
  0
LINE
  5
25E04
  8
01
 10
3043.000063356329
 20
175.0753252490923
 30
0.0000000000060347
 11
3042.500063356329
 21
175.1753264124899
 31
0.0000000000060347
  0
LINE
  5
25E05
  8
01
 10
3039.500063356329
 20
175.7753333928807
 30
0.0000000000060347
 11
3039.000063356329
 21
175.8753345562783
 31
0.0000000000060347
  0
LINE
  5
25E06
  8
01
 10
3037.000016820431
 20
172.2753392100935
 30
0.0000000000060347
 11
3045.000016820431
 21
172.2753205957344
 31
0.0000000000060347
  0
LINE
  5
25E07
  8
01
 10
3039.500063356329
 20
180.5753333928851
 30
0.0000000000060347
 11
3039.000063356329
 21
180.6753345562827
 31
0.0000000000060347
  0
LINE
  5
25E08
  8
01
 10
3039.500063356329
 20
182.1753333928894
 30
0.0000000000060347
 11
3039.000063356329
 21
182.2753345562871
 31
0.0000000000060347
  0
LINE
  5
25E09
  8
01
 10
3043.000063356329
 20
181.475325249101
 30
0.0000000000060347
 11
3042.500063356329
 21
181.5753264124987
 31
0.0000000000060347
  0
LINE
  5
25E0A
  8
01
 10
3039.500063356329
 20
185.3753333928894
 30
0.0000000000060347
 11
3039.000063356329
 21
185.4753345562871
 31
0.0000000000060347
  0
LINE
  5
25E0B
  8
01
 10
3039.000063356329
 20
183.875334556287
 30
0.0000000000060347
 11
3043.000063356329
 21
184.6753252491052
 31
0.0000000000060347
  0
LINE
  5
25E0C
  8
01
 10
3043.000063356329
 20
184.6753252491052
 30
0.0000000000060347
 11
3042.500063356329
 21
184.7753264125029
 31
0.0000000000060347
  0
LINE
  5
25E0D
  8
01
 10
3039.500063356329
 20
183.7753333928893
 30
0.0000000000060347
 11
3039.000063356329
 21
183.875334556287
 31
0.0000000000060347
  0
LINE
  5
25E0E
  8
01
 10
3043.000063356329
 20
183.0753252491053
 30
0.0000000000060347
 11
3042.500063356329
 21
183.175326412503
 31
0.0000000000060347
  0
LINE
  5
25E0F
  8
01
 10
3043.000063356329
 20
187.8753252491097
 30
0.0000000000060347
 11
3042.500063356329
 21
187.9753264125068
 31
0.0000000000060347
  0
LINE
  5
25E10
  8
01
 10
3043.000063356329
 20
186.2753252491054
 30
0.0000000000060347
 11
3042.500063356329
 21
186.3753264125031
 31
0.0000000000060347
  0
LINE
  5
25E11
  8
01
 10
3039.500063356329
 20
186.9753333928894
 30
0.0000000000060347
 11
3039.000063356329
 21
187.0753345562871
 31
0.0000000000060347
  0
LINE
  5
25E12
  8
01
 10
3039.000063356329
 20
187.0753345562871
 30
0.0000000000060347
 11
3043.000063356329
 21
187.8753252491097
 31
0.0000000000060347
  0
LINE
  5
25E13
  8
01
 10
3039.000063356329
 20
185.4753345562871
 30
0.0000000000060347
 11
3043.000063356329
 21
186.2753252491054
 31
0.0000000000060347
  0
LINE
  5
25E14
  8
01
 10
3039.000063356329
 20
182.2753345562871
 30
0.0000000000060347
 11
3043.000063356329
 21
183.0753252491053
 31
0.0000000000060347
  0
LINE
  5
25E15
  8
01
 10
3039.000063356329
 20
180.6753345562827
 30
0.0000000000060347
 11
3043.000063356329
 21
181.475325249101
 31
0.0000000000060347
  0
LINE
  5
25E17
  8
1CENTER
 10
3081.000016820431
 20
208.4298260935509
 30
0.0000000000060347
 11
3081.000016820431
 21
170.5966930461762
 31
0.0000000000060347
  0
LINE
  5
25E18
  8
01
 10
3079.500063356329
 20
199.7753333928901
 30
0.0000000000060347
 11
3079.000063356329
 21
199.8753345562872
 31
0.0000000000060347
  0
LINE
  5
25E19
  8
01
 10
3079.000063356329
 20
199.8753345562872
 30
0.0000000000060347
 11
3083.000063356329
 21
200.6753252491098
 31
0.0000000000060347
  0
LINE
  5
25E1A
  8
01
 10
3083.000063356329
 20
200.6753252491098
 30
0.0000000000060347
 11
3082.500063356329
 21
200.7753264125069
 31
0.0000000000060347
  0
LINE
  5
25E1B
  8
01
 10
3079.500063356329
 20
198.1753333928901
 30
0.0000000000060347
 11
3079.000063356329
 21
198.2753345562872
 31
0.0000000000060347
  0
LINE
  5
25E1C
  8
01
 10
3083.000063356329
 20
199.0753252491098
 30
0.0000000000060347
 11
3082.500063356329
 21
199.1753264125069
 31
0.0000000000060347
  0
LINE
  5
25E1D
  8
01
 10
3079.000063356329
 20
198.2753345562872
 30
0.0000000000060347
 11
3083.000063356329
 21
199.0753252491098
 31
0.0000000000060347
  0
LINE
  5
25E1E
  8
01
 10
3079.500063356329
 20
196.5753333928901
 30
0.0000000000060347
 11
3079.000063356329
 21
196.6753345562872
 31
0.0000000000060347
  0
LINE
  5
25E1F
  8
01
 10
3079.000063356329
 20
196.6753345562872
 30
0.0000000000060347
 11
3083.000063356329
 21
197.4753252491097
 31
0.0000000000060347
  0
LINE
  5
25E20
  8
01
 10
3083.000063356329
 20
197.4753252491097
 30
0.0000000000060347
 11
3082.500063356329
 21
197.5753264125069
 31
0.0000000000060347
  0
LINE
  5
25E21
  8
01
 10
3079.500063356329
 20
188.5753333928899
 30
0.0000000000060347
 11
3079.000063356329
 21
188.6753345562871
 31
0.0000000000060347
  0
LINE
  5
25E22
  8
01
 10
3083.000063356329
 20
189.4753252491096
 30
0.0000000000060347
 11
3082.500063356329
 21
189.5753264125069
 31
0.0000000000060347
  0
LINE
  5
25E23
  8
01
 10
3083.000063356329
 20
191.0753252491098
 30
0.0000000000060347
 11
3082.500063356329
 21
191.1753264125069
 31
0.0000000000060347
  0
LINE
  5
25E24
  8
01
 10
3079.500063356329
 20
190.1753333928901
 30
0.0000000000060347
 11
3079.000063356329
 21
190.2753345562872
 31
0.0000000000060347
  0
LINE
  5
25E25
  8
01
 10
3079.500063356329
 20
191.77533339289
 30
0.0000000000060347
 11
3079.000063356329
 21
191.8753345562871
 31
0.0000000000060347
  0
LINE
  5
25E26
  8
01
 10
3079.000063356329
 20
190.2753345562872
 30
0.0000000000060347
 11
3083.000063356329
 21
191.0753252491098
 31
0.0000000000060347
  0
LINE
  5
25E27
  8
01
 10
3079.000063356329
 20
188.6753345562871
 30
0.0000000000060347
 11
3083.000063356329
 21
189.4753252491096
 31
0.0000000000060347
  0
LINE
  5
25E28
  8
01
 10
3079.500063356329
 20
193.3753333928899
 30
0.0000000000060347
 11
3079.000063356329
 21
193.4753345562871
 31
0.0000000000060347
  0
LINE
  5
25E29
  8
01
 10
3079.500063356329
 20
201.5753333928899
 30
0.0000000000060347
 11
3079.000063356329
 21
201.6753345562871
 31
0.0000000000060347
  0
LINE
  5
25E2A
  8
01
 10
3079.000063356329
 20
201.6753345562871
 30
0.0000000000060347
 11
3082.773656304124
 21
202.4753257759124
 31
0.0000000000060347
  0
LINE
  5
25E2B
  8
01
 10
3082.773656304124
 20
202.4753257759124
 30
0.0000000000060347
 11
3082.237062568854
 21
202.6045964735422
 31
0.0000000000060347
  0
LINE
  5
25E2C
  8
01
 10
3083.000063356329
 20
194.2753252491097
 30
0.0000000000060347
 11
3082.500063356329
 21
194.3753264125067
 31
0.0000000000060347
  0
LINE
  5
25E2D
  8
01
 10
3083.000063356329
 20
195.8753252491097
 30
0.0000000000060347
 11
3082.500063356329
 21
195.9753264125068
 31
0.0000000000060347
  0
LINE
  5
25E2E
  8
01
 10
3079.500063356329
 20
194.97533339289
 30
0.0000000000060347
 11
3079.000063356329
 21
195.0753345562871
 31
0.0000000000060347
  0
LINE
  5
25E2F
  8
01
 10
3079.000063356329
 20
195.0753345562871
 30
0.0000000000060347
 11
3083.000063356329
 21
195.8753252491097
 31
0.0000000000060347
  0
LINE
  5
25E30
  8
01
 10
3079.000063356329
 20
193.4753345562871
 30
0.0000000000060347
 11
3083.000063356329
 21
194.2753252491097
 31
0.0000000000060347
  0
LINE
  5
25E31
  8
01
 10
3079.452879498387
 20
203.2753335026769
 30
0.0000000000060347
 11
3082.320842199718
 21
204.075326829518
 31
0.0000000000060347
  0
LINE
  5
25E32
  8
01
 10
3079.905693006436
 20
204.8753324490727
 30
0.0000000000060347
 11
3081.868028095311
 21
205.6753278831236
 31
0.0000000000060347
  0
LINE
  5
25E33
  8
01
 10
3082.320842199718
 20
204.075326829518
 30
0.0000000000060347
 11
3081.769092735914
 21
204.258090972146
 31
0.0000000000060347
  0
LINE
  5
25E34
  8
01
 10
3080.362864847067
 20
204.7238966526322
 30
0.0000000000060347
 11
3079.905693006436
 21
204.8753324490727
 31
0.0000000000060347
  0
LINE
  5
25E35
  8
01
 10
3081.868028095311
 20
205.6753278831236
 30
0.0000000000060347
 11
3081.279751520269
 21
205.9870977393757
 31
0.0000000000060347
  0
LINE
  5
25E36
  8
01
 10
3079.920977953537
 20
203.1625639903268
 30
0.0000000000060347
 11
3079.452879498387
 21
203.2753335026769
 31
0.0000000000060347
  0
LINE
  5
25E37
  8
01
 10
3083.000063356329
 20
192.6753252491097
 30
0.0000000000060347
 11
3082.500063356329
 21
192.7753264125069
 31
0.0000000000060347
  0
LINE
  5
25E38
  8
01
 10
3079.000063356329
 20
191.8753345562871
 30
0.0000000000060347
 11
3083.000063356329
 21
192.6753252491097
 31
0.0000000000060347
  0
LINE
  5
25E39
  8
01
 10
3082.500063356329
 20
174.97532641249
 30
0.0000000000060347
 11
3083.000063356329
 21
175.0753252490923
 31
0.0000000000060347
  0
LINE
  5
25E3A
  8
01
 10
3079.000063356329
 20
175.8753345562783
 30
0.0000000000060347
 11
3083.000063356329
 21
176.6753252490966
 31
0.0000000000060347
  0
LINE
  5
25E3B
  8
01
 10
3079.000063356329
 20
179.0753345562784
 30
0.0000000000060347
 11
3083.000063356329
 21
179.8753252490966
 31
0.0000000000060347
  0
LINE
  5
25E3C
  8
01
 10
3083.000063356329
 20
179.8753252490966
 30
0.0000000000060347
 11
3082.500063356329
 21
179.9753264124943
 31
0.0000000000060347
  0
LINE
  5
25E3D
  8
01
 10
3083.000063356329
 20
176.6753252490966
 30
0.0000000000060347
 11
3082.500063356329
 21
176.7753264124943
 31
0.0000000000060347
  0
LINE
  5
25E3E
  8
01
 10
3079.500063356329
 20
177.3753333928806
 30
0.0000000000060347
 11
3079.000063356329
 21
177.4753345562783
 31
0.0000000000060347
  0
LINE
  5
25E3F
  8
01
 10
3083.000063356329
 20
178.2753252490965
 30
0.0000000000060347
 11
3082.500063356329
 21
178.3753264124942
 31
0.0000000000060347
  0
LINE
  5
25E40
  8
01
 10
3079.000063356329
 20
177.4753345562783
 30
0.0000000000060347
 11
3083.000063356329
 21
178.2753252490965
 31
0.0000000000060347
  0
LINE
  5
25E41
  8
01
 10
3079.500063356329
 20
178.9753333928807
 30
0.0000000000060347
 11
3079.000063356329
 21
179.0753345562784
 31
0.0000000000060347
  0
LINE
  5
25E42
  8
01
 10
3083.000063356329
 20
175.0753252490923
 30
0.0000000000060347
 11
3082.500063356329
 21
175.1753264124899
 31
0.0000000000060347
  0
LINE
  5
25E43
  8
01
 10
3079.500063356329
 20
175.7753333928807
 30
0.0000000000060347
 11
3079.000063356329
 21
175.8753345562783
 31
0.0000000000060347
  0
LINE
  5
25E44
  8
01
 10
3077.000016820431
 20
172.2753392100935
 30
0.0000000000060347
 11
3085.000016820431
 21
172.2753205957344
 31
0.0000000000060347
  0
LINE
  5
25E45
  8
01
 10
3079.500063356329
 20
180.5753333928851
 30
0.0000000000060347
 11
3079.000063356329
 21
180.6753345562827
 31
0.0000000000060347
  0
LINE
  5
25E46
  8
01
 10
3079.500063356329
 20
182.1753333928894
 30
0.0000000000060347
 11
3079.000063356329
 21
182.2753345562871
 31
0.0000000000060347
  0
LINE
  5
25E47
  8
01
 10
3083.000063356329
 20
181.475325249101
 30
0.0000000000060347
 11
3082.500063356329
 21
181.5753264124987
 31
0.0000000000060347
  0
LINE
  5
25E48
  8
01
 10
3079.500063356329
 20
185.3753333928894
 30
0.0000000000060347
 11
3079.000063356329
 21
185.4753345562871
 31
0.0000000000060347
  0
LINE
  5
25E49
  8
01
 10
3079.000063356329
 20
183.875334556287
 30
0.0000000000060347
 11
3083.000063356329
 21
184.6753252491052
 31
0.0000000000060347
  0
LINE
  5
25E4A
  8
01
 10
3083.000063356329
 20
184.6753252491052
 30
0.0000000000060347
 11
3082.500063356329
 21
184.7753264125029
 31
0.0000000000060347
  0
LINE
  5
25E4B
  8
01
 10
3079.500063356329
 20
183.7753333928893
 30
0.0000000000060347
 11
3079.000063356329
 21
183.875334556287
 31
0.0000000000060347
  0
LINE
  5
25E4C
  8
01
 10
3083.000063356329
 20
183.0753252491053
 30
0.0000000000060347
 11
3082.500063356329
 21
183.175326412503
 31
0.0000000000060347
  0
LINE
  5
25E4D
  8
01
 10
3083.000063356329
 20
187.8753252491097
 30
0.0000000000060347
 11
3082.500063356329
 21
187.9753264125068
 31
0.0000000000060347
  0
LINE
  5
25E4E
  8
01
 10
3083.000063356329
 20
186.2753252491054
 30
0.0000000000060347
 11
3082.500063356329
 21
186.3753264125031
 31
0.0000000000060347
  0
LINE
  5
25E4F
  8
01
 10
3079.500063356329
 20
186.9753333928894
 30
0.0000000000060347
 11
3079.000063356329
 21
187.0753345562871
 31
0.0000000000060347
  0
LINE
  5
25E50
  8
01
 10
3079.000063356329
 20
187.0753345562871
 30
0.0000000000060347
 11
3083.000063356329
 21
187.8753252491097
 31
0.0000000000060347
  0
LINE
  5
25E51
  8
01
 10
3079.000063356329
 20
185.4753345562871
 30
0.0000000000060347
 11
3083.000063356329
 21
186.2753252491054
 31
0.0000000000060347
  0
LINE
  5
25E52
  8
01
 10
3079.000063356329
 20
182.2753345562871
 30
0.0000000000060347
 11
3083.000063356329
 21
183.0753252491053
 31
0.0000000000060347
  0
LINE
  5
25E53
  8
01
 10
3079.000063356329
 20
180.6753345562827
 30
0.0000000000060347
 11
3083.000063356329
 21
181.475325249101
 31
0.0000000000060347
  0
LINE
  5
25E55
  8
1CENTER
 10
3174.467225965595
 20
208.4298260935509
 30
0.0
 11
3174.467225965595
 21
170.5966930461762
 31
0.0
  0
LINE
  5
25E56
  8
01
 10
3172.967272501493
 20
199.7753333928901
 30
0.0
 11
3172.467272501493
 21
199.8753345562872
 31
0.0
  0
LINE
  5
25E57
  8
01
 10
3172.467272501493
 20
199.8753345562872
 30
0.0
 11
3176.467272501493
 21
200.6753252491098
 31
0.0
  0
LINE
  5
25E58
  8
01
 10
3176.467272501493
 20
200.6753252491098
 30
0.0
 11
3175.967272501493
 21
200.7753264125069
 31
0.0
  0
LINE
  5
25E59
  8
01
 10
3172.967272501493
 20
198.1753333928901
 30
0.0
 11
3172.467272501493
 21
198.2753345562872
 31
0.0
  0
LINE
  5
25E5A
  8
01
 10
3176.467272501493
 20
199.0753252491098
 30
0.0
 11
3175.967272501493
 21
199.1753264125069
 31
0.0
  0
LINE
  5
25E5B
  8
01
 10
3172.467272501493
 20
198.2753345562872
 30
0.0
 11
3176.467272501493
 21
199.0753252491098
 31
0.0
  0
LINE
  5
25E5C
  8
01
 10
3172.967272501493
 20
196.5753333928901
 30
0.0
 11
3172.467272501493
 21
196.6753345562872
 31
0.0
  0
LINE
  5
25E5D
  8
01
 10
3172.467272501493
 20
196.6753345562872
 30
0.0
 11
3176.467272501493
 21
197.4753252491097
 31
0.0
  0
LINE
  5
25E5E
  8
01
 10
3176.467272501493
 20
197.4753252491097
 30
0.0
 11
3175.967272501493
 21
197.5753264125069
 31
0.0
  0
LINE
  5
25E5F
  8
01
 10
3172.967272501493
 20
188.5753333928899
 30
0.0
 11
3172.467272501493
 21
188.6753345562871
 31
0.0
  0
LINE
  5
25E60
  8
01
 10
3176.467272501493
 20
189.4753252491096
 30
0.0
 11
3175.967272501493
 21
189.5753264125069
 31
0.0
  0
LINE
  5
25E61
  8
01
 10
3176.467272501493
 20
191.0753252491098
 30
0.0
 11
3175.967272501493
 21
191.1753264125069
 31
0.0
  0
LINE
  5
25E62
  8
01
 10
3172.967272501493
 20
190.1753333928901
 30
0.0
 11
3172.467272501493
 21
190.2753345562872
 31
0.0
  0
LINE
  5
25E63
  8
01
 10
3172.967272501493
 20
191.77533339289
 30
0.0
 11
3172.467272501493
 21
191.8753345562871
 31
0.0
  0
LINE
  5
25E64
  8
01
 10
3172.467272501493
 20
190.2753345562872
 30
0.0
 11
3176.467272501493
 21
191.0753252491098
 31
0.0
  0
LINE
  5
25E65
  8
01
 10
3172.467272501493
 20
188.6753345562871
 30
0.0
 11
3176.467272501493
 21
189.4753252491096
 31
0.0
  0
LINE
  5
25E66
  8
01
 10
3172.967272501493
 20
193.3753333928899
 30
0.0
 11
3172.467272501493
 21
193.4753345562871
 31
0.0
  0
LINE
  5
25E67
  8
01
 10
3172.967272501493
 20
201.5753333928899
 30
0.0
 11
3172.467272501493
 21
201.6753345562871
 31
0.0
  0
LINE
  5
25E68
  8
01
 10
3172.467272501493
 20
201.6753345562871
 30
0.0
 11
3176.240865449289
 21
202.4753257759124
 31
0.0
  0
LINE
  5
25E69
  8
01
 10
3176.240865449289
 20
202.4753257759124
 30
0.0
 11
3175.704271714018
 21
202.6045964735422
 31
0.0
  0
LINE
  5
25E6A
  8
01
 10
3176.467272501493
 20
194.2753252491097
 30
0.0
 11
3175.967272501493
 21
194.3753264125067
 31
0.0
  0
LINE
  5
25E6B
  8
01
 10
3176.467272501493
 20
195.8753252491097
 30
0.0
 11
3175.967272501493
 21
195.9753264125068
 31
0.0
  0
LINE
  5
25E6C
  8
01
 10
3172.967272501493
 20
194.97533339289
 30
0.0
 11
3172.467272501493
 21
195.0753345562871
 31
0.0
  0
LINE
  5
25E6D
  8
01
 10
3172.467272501493
 20
195.0753345562871
 30
0.0
 11
3176.467272501493
 21
195.8753252491097
 31
0.0
  0
LINE
  5
25E6E
  8
01
 10
3172.467272501493
 20
193.4753345562871
 30
0.0
 11
3176.467272501493
 21
194.2753252491097
 31
0.0
  0
LINE
  5
25E6F
  8
01
 10
3172.920088643552
 20
203.2753335026769
 30
0.0
 11
3175.788051344883
 21
204.075326829518
 31
0.0
  0
LINE
  5
25E70
  8
01
 10
3173.372902151601
 20
204.8753324490727
 30
0.0
 11
3175.335237240476
 21
205.6753278831236
 31
0.0
  0
LINE
  5
25E71
  8
01
 10
3175.788051344883
 20
204.075326829518
 30
0.0
 11
3175.236301881079
 21
204.258090972146
 31
0.0
  0
LINE
  5
25E72
  8
01
 10
3173.830073992232
 20
204.7238966526322
 30
0.0
 11
3173.372902151601
 21
204.8753324490727
 31
0.0
  0
LINE
  5
25E73
  8
01
 10
3175.335237240476
 20
205.6753278831236
 30
0.0
 11
3174.746960665434
 21
205.9870977393757
 31
0.0
  0
LINE
  5
25E74
  8
01
 10
3173.388187098702
 20
203.1625639903268
 30
0.0
 11
3172.920088643552
 21
203.2753335026769
 31
0.0
  0
LINE
  5
25E75
  8
01
 10
3176.467272501493
 20
192.6753252491097
 30
0.0
 11
3175.967272501493
 21
192.7753264125069
 31
0.0
  0
LINE
  5
25E76
  8
01
 10
3172.467272501493
 20
191.8753345562871
 30
0.0
 11
3176.467272501493
 21
192.6753252491097
 31
0.0
  0
LINE
  5
25E77
  8
01
 10
3175.967272501493
 20
174.97532641249
 30
0.0
 11
3176.467272501493
 21
175.0753252490923
 31
0.0
  0
LINE
  5
25E78
  8
01
 10
3172.467272501493
 20
175.8753345562783
 30
0.0
 11
3176.467272501493
 21
176.6753252490966
 31
0.0
  0
LINE
  5
25E79
  8
01
 10
3172.467272501493
 20
179.0753345562784
 30
0.0
 11
3176.467272501493
 21
179.8753252490966
 31
0.0
  0
LINE
  5
25E7A
  8
01
 10
3176.467272501493
 20
179.8753252490966
 30
0.0
 11
3175.967272501493
 21
179.9753264124943
 31
0.0
  0
LINE
  5
25E7B
  8
01
 10
3176.467272501493
 20
176.6753252490966
 30
0.0
 11
3175.967272501493
 21
176.7753264124943
 31
0.0
  0
LINE
  5
25E7C
  8
01
 10
3172.967272501493
 20
177.3753333928806
 30
0.0
 11
3172.467272501493
 21
177.4753345562783
 31
0.0
  0
LINE
  5
25E7D
  8
01
 10
3176.467272501493
 20
178.2753252490965
 30
0.0
 11
3175.967272501493
 21
178.3753264124942
 31
0.0
  0
LINE
  5
25E7E
  8
01
 10
3172.467272501493
 20
177.4753345562783
 30
0.0
 11
3176.467272501493
 21
178.2753252490965
 31
0.0
  0
LINE
  5
25E7F
  8
01
 10
3172.967272501493
 20
178.9753333928807
 30
0.0
 11
3172.467272501493
 21
179.0753345562784
 31
0.0
  0
LINE
  5
25E80
  8
01
 10
3176.467272501493
 20
175.0753252490923
 30
0.0
 11
3175.967272501493
 21
175.1753264124899
 31
0.0
  0
LINE
  5
25E81
  8
01
 10
3172.967272501493
 20
175.7753333928807
 30
0.0
 11
3172.467272501493
 21
175.8753345562783
 31
0.0
  0
LINE
  5
25E82
  8
01
 10
3170.467225965595
 20
172.2753392100935
 30
0.0
 11
3178.467225965595
 21
172.2753205957344
 31
0.0
  0
LINE
  5
25E83
  8
01
 10
3172.967272501493
 20
180.5753333928851
 30
0.0
 11
3172.467272501493
 21
180.6753345562827
 31
0.0
  0
LINE
  5
25E84
  8
01
 10
3172.967272501493
 20
182.1753333928894
 30
0.0
 11
3172.467272501493
 21
182.2753345562871
 31
0.0
  0
LINE
  5
25E85
  8
01
 10
3176.467272501493
 20
181.475325249101
 30
0.0
 11
3175.967272501493
 21
181.5753264124987
 31
0.0
  0
LINE
  5
25E86
  8
01
 10
3172.967272501493
 20
185.3753333928894
 30
0.0
 11
3172.467272501493
 21
185.4753345562871
 31
0.0
  0
LINE
  5
25E87
  8
01
 10
3172.467272501493
 20
183.875334556287
 30
0.0
 11
3176.467272501493
 21
184.6753252491052
 31
0.0
  0
LINE
  5
25E88
  8
01
 10
3176.467272501493
 20
184.6753252491052
 30
0.0
 11
3175.967272501493
 21
184.7753264125029
 31
0.0
  0
LINE
  5
25E89
  8
01
 10
3172.967272501493
 20
183.7753333928893
 30
0.0
 11
3172.467272501493
 21
183.875334556287
 31
0.0
  0
LINE
  5
25E8A
  8
01
 10
3176.467272501493
 20
183.0753252491053
 30
0.0
 11
3175.967272501493
 21
183.175326412503
 31
0.0
  0
LINE
  5
25E8B
  8
01
 10
3176.467272501493
 20
187.8753252491097
 30
0.0
 11
3175.967272501493
 21
187.9753264125068
 31
0.0
  0
LINE
  5
25E8C
  8
01
 10
3176.467272501493
 20
186.2753252491054
 30
0.0
 11
3175.967272501493
 21
186.3753264125031
 31
0.0
  0
LINE
  5
25E8D
  8
01
 10
3172.967272501493
 20
186.9753333928894
 30
0.0
 11
3172.467272501493
 21
187.0753345562871
 31
0.0
  0
LINE
  5
25E8E
  8
01
 10
3172.467272501493
 20
187.0753345562871
 30
0.0
 11
3176.467272501493
 21
187.8753252491097
 31
0.0
  0
LINE
  5
25E8F
  8
01
 10
3172.467272501493
 20
185.4753345562871
 30
0.0
 11
3176.467272501493
 21
186.2753252491054
 31
0.0
  0
LINE
  5
25E90
  8
01
 10
3172.467272501493
 20
182.2753345562871
 30
0.0
 11
3176.467272501493
 21
183.0753252491053
 31
0.0
  0
LINE
  5
25E91
  8
01
 10
3172.467272501493
 20
180.6753345562827
 30
0.0
 11
3176.467272501493
 21
181.475325249101
 31
0.0
  0
LINE
  5
25E93
  8
1CENTER
 10
1601.674119568001
 20
160.0253071250845
 30
0.0
 11
1621.550690581146
 21
160.0253071250845
 31
0.0
  0
LINE
  5
25E94
  8
1HATCH
 10
1602.699999934435
 20
158.3753071250845
 30
0.0
 11
1617.699999934435
 21
158.3753071250845
 31
0.0
  0
LINE
  5
25E95
  8
1HATCH
 10
1602.699999934435
 20
161.6753071250845
 30
0.0
 11
1617.699999934435
 21
161.6753071250846
 31
0.0
  0
LINE
  5
25E96
  8
1HATCH
 10
1603.049999934435
 20
158.0253071250845
 30
0.0
 11
1603.049999934435
 21
162.0253071250845
 31
0.0
  0
LINE
  5
25E97
  8
01
 10
1617.699999934435
 20
158.0253071250845
 30
0.0
 11
1617.699999934435
 21
162.0253071250845
 31
0.0
  0
LINE
  5
25E99
  8
1CENTER
 10
1601.674119568001
 20
145.0253065290381
 30
0.0
 11
1621.550690581146
 21
145.0253065290381
 31
0.0
  0
LINE
  5
25E9A
  8
1HATCH
 10
1602.699999934435
 20
143.3753065290381
 30
0.0
 11
1617.699999934435
 21
143.3753065290381
 31
0.0
  0
LINE
  5
25E9B
  8
1HATCH
 10
1602.699999934435
 20
146.675306529038
 30
0.0
 11
1617.699999934435
 21
146.6753065290382
 31
0.0
  0
LINE
  5
25E9C
  8
1HATCH
 10
1603.049999934435
 20
143.0253065290381
 30
0.0
 11
1603.049999934435
 21
147.0253065290381
 31
0.0
  0
LINE
  5
25E9D
  8
01
 10
1617.699999934435
 20
143.0253065290381
 30
0.0
 11
1617.699999934435
 21
147.0253065290381
 31
0.0
  0
LINE
  5
25E9F
  8
1CENTER
 10
3070.325831866135
 20
160.0253071250845
 30
0.0
 11
3050.449260852989
 21
160.0253071250845
 31
0.0
  0
LINE
  5
25EA0
  8
1HATCH
 10
3069.2999514997
 20
158.3753071250845
 30
0.0
 11
3054.2999514997
 21
158.3753071250845
 31
0.0
  0
LINE
  5
25EA1
  8
1HATCH
 10
3069.2999514997
 20
161.6753071250845
 30
0.0
 11
3054.2999514997
 21
161.6753071250846
 31
0.0
  0
LINE
  5
25EA2
  8
1HATCH
 10
3068.949951499701
 20
158.0253071250845
 30
0.0
 11
3068.949951499701
 21
162.0253071250845
 31
0.0
  0
LINE
  5
25EA3
  8
01
 10
3054.2999514997
 20
158.0253071250845
 30
0.0
 11
3054.2999514997
 21
162.0253071250845
 31
0.0
  0
LINE
  5
25EA5
  8
1CENTER
 10
3070.325831866135
 20
145.0253065290381
 30
0.0
 11
3050.449260852989
 21
145.0253065290381
 31
0.0
  0
LINE
  5
25EA6
  8
1HATCH
 10
3069.2999514997
 20
143.3753065290381
 30
0.0
 11
3054.2999514997
 21
143.3753065290381
 31
0.0
  0
LINE
  5
25EA7
  8
1HATCH
 10
3069.2999514997
 20
146.675306529038
 30
0.0
 11
3054.2999514997
 21
146.6753065290382
 31
0.0
  0
LINE
  5
25EA8
  8
1HATCH
 10
3068.949951499701
 20
143.0253065290381
 30
0.0
 11
3068.949951499701
 21
147.0253065290381
 31
0.0
  0
LINE
  5
25EA9
  8
01
 10
3054.2999514997
 20
143.0253065290381
 30
0.0
 11
3054.2999514997
 21
147.0253065290381
 31
0.0
  0
LINE
  5
25EAB
  8
1CENTER
 10
180.9999823905528
 20
208.4298260935509
 30
0.0000000000060347
 11
180.9999823905528
 21
170.5966930461762
 31
0.0000000000060347
  0
LINE
  5
25EAC
  8
01
 10
182.4999358546548
 20
199.7753333928901
 30
0.0000000000060347
 11
182.9999358546548
 21
199.8753345562872
 31
0.0000000000060347
  0
LINE
  5
25EAD
  8
01
 10
182.9999358546548
 20
199.8753345562872
 30
0.0000000000060347
 11
178.9999358546548
 21
200.6753252491098
 31
0.0000000000060347
  0
LINE
  5
25EAE
  8
01
 10
178.9999358546548
 20
200.6753252491098
 30
0.0000000000060347
 11
179.4999358546548
 21
200.7753264125069
 31
0.0000000000060347
  0
LINE
  5
25EAF
  8
01
 10
182.4999358546548
 20
198.1753333928901
 30
0.0000000000060347
 11
182.9999358546548
 21
198.2753345562872
 31
0.0000000000060347
  0
LINE
  5
25EB0
  8
01
 10
178.9999358546548
 20
199.0753252491098
 30
0.0000000000060347
 11
179.4999358546548
 21
199.1753264125069
 31
0.0000000000060347
  0
LINE
  5
25EB1
  8
01
 10
182.9999358546548
 20
198.2753345562872
 30
0.0000000000060347
 11
178.9999358546548
 21
199.0753252491098
 31
0.0000000000060347
  0
LINE
  5
25EB2
  8
01
 10
182.4999358546548
 20
196.5753333928901
 30
0.0000000000060347
 11
182.9999358546548
 21
196.6753345562872
 31
0.0000000000060347
  0
LINE
  5
25EB3
  8
01
 10
182.9999358546548
 20
196.6753345562872
 30
0.0000000000060347
 11
178.9999358546548
 21
197.4753252491097
 31
0.0000000000060347
  0
LINE
  5
25EB4
  8
01
 10
178.9999358546548
 20
197.4753252491097
 30
0.0000000000060347
 11
179.4999358546548
 21
197.5753264125069
 31
0.0000000000060347
  0
LINE
  5
25EB5
  8
01
 10
182.4999358546548
 20
188.5753333928899
 30
0.0000000000060347
 11
182.9999358546548
 21
188.6753345562871
 31
0.0000000000060347
  0
LINE
  5
25EB6
  8
01
 10
178.9999358546548
 20
189.4753252491096
 30
0.0000000000060347
 11
179.4999358546548
 21
189.5753264125069
 31
0.0000000000060347
  0
LINE
  5
25EB7
  8
01
 10
178.9999358546548
 20
191.0753252491098
 30
0.0000000000060347
 11
179.4999358546548
 21
191.1753264125069
 31
0.0000000000060347
  0
LINE
  5
25EB8
  8
01
 10
182.4999358546548
 20
190.1753333928901
 30
0.0000000000060347
 11
182.9999358546548
 21
190.2753345562872
 31
0.0000000000060347
  0
LINE
  5
25EB9
  8
01
 10
182.4999358546548
 20
191.77533339289
 30
0.0000000000060347
 11
182.9999358546548
 21
191.8753345562871
 31
0.0000000000060347
  0
LINE
  5
25EBA
  8
01
 10
182.9999358546548
 20
190.2753345562872
 30
0.0000000000060347
 11
178.9999358546548
 21
191.0753252491098
 31
0.0000000000060347
  0
LINE
  5
25EBB
  8
01
 10
182.9999358546548
 20
188.6753345562871
 30
0.0000000000060347
 11
178.9999358546548
 21
189.4753252491096
 31
0.0000000000060347
  0
LINE
  5
25EBC
  8
01
 10
182.4999358546548
 20
193.3753333928899
 30
0.0000000000060347
 11
182.9999358546548
 21
193.4753345562871
 31
0.0000000000060347
  0
LINE
  5
25EBD
  8
01
 10
182.4999358546548
 20
201.5753333928899
 30
0.0000000000060347
 11
182.9999358546548
 21
201.6753345562871
 31
0.0000000000060347
  0
LINE
  5
25EBE
  8
01
 10
182.9999358546548
 20
201.6753345562871
 30
0.0000000000060347
 11
179.2263429068588
 21
202.4753257759124
 31
0.0000000000060347
  0
LINE
  5
25EBF
  8
01
 10
179.2263429068588
 20
202.4753257759124
 30
0.0000000000060347
 11
179.7629366421299
 21
202.6045964735422
 31
0.0000000000060347
  0
LINE
  5
25EC0
  8
01
 10
178.9999358546548
 20
194.2753252491097
 30
0.0000000000060347
 11
179.4999358546548
 21
194.3753264125067
 31
0.0000000000060347
  0
LINE
  5
25EC1
  8
01
 10
178.9999358546548
 20
195.8753252491097
 30
0.0000000000060347
 11
179.4999358546548
 21
195.9753264125068
 31
0.0000000000060347
  0
LINE
  5
25EC2
  8
01
 10
182.4999358546548
 20
194.97533339289
 30
0.0000000000060347
 11
182.9999358546548
 21
195.0753345562871
 31
0.0000000000060347
  0
LINE
  5
25EC3
  8
01
 10
182.9999358546548
 20
195.0753345562871
 30
0.0000000000060347
 11
178.9999358546548
 21
195.8753252491097
 31
0.0000000000060347
  0
LINE
  5
25EC4
  8
01
 10
182.9999358546548
 20
193.4753345562871
 30
0.0000000000060347
 11
178.9999358546548
 21
194.2753252491097
 31
0.0000000000060347
  0
LINE
  5
25EC5
  8
01
 10
182.5471197125961
 20
203.2753335026769
 30
0.0000000000060347
 11
179.6791570112656
 21
204.075326829518
 31
0.0000000000060347
  0
LINE
  5
25EC6
  8
01
 10
182.0943062045478
 20
204.8753324490727
 30
0.0000000000060347
 11
180.1319711156724
 21
205.6753278831236
 31
0.0000000000060347
  0
LINE
  5
25EC7
  8
01
 10
179.6791570112656
 20
204.075326829518
 30
0.0000000000060347
 11
180.2309064750689
 21
204.258090972146
 31
0.0000000000060347
  0
LINE
  5
25EC8
  8
01
 10
181.6371343639167
 20
204.7238966526322
 30
0.0000000000060347
 11
182.0943062045478
 21
204.8753324490727
 31
0.0000000000060347
  0
LINE
  5
25EC9
  8
01
 10
180.1319711156724
 20
205.6753278831236
 30
0.0000000000060347
 11
180.7202476907148
 21
205.9870977393757
 31
0.0000000000060347
  0
LINE
  5
25ECA
  8
01
 10
182.0790212574461
 20
203.1625639903268
 30
0.0000000000060347
 11
182.5471197125961
 21
203.2753335026769
 31
0.0000000000060347
  0
LINE
  5
25ECB
  8
01
 10
178.9999358546548
 20
192.6753252491097
 30
0.0000000000060347
 11
179.4999358546548
 21
192.7753264125069
 31
0.0000000000060347
  0
LINE
  5
25ECC
  8
01
 10
182.9999358546548
 20
191.8753345562871
 30
0.0000000000060347
 11
178.9999358546548
 21
192.6753252491097
 31
0.0000000000060347
  0
LINE
  5
25ECD
  8
01
 10
179.4999358546548
 20
174.97532641249
 30
0.0000000000060347
 11
178.9999358546548
 21
175.0753252490923
 31
0.0000000000060347
  0
LINE
  5
25ECE
  8
01
 10
182.9999358546548
 20
175.8753345562783
 30
0.0000000000060347
 11
178.9999358546548
 21
176.6753252490966
 31
0.0000000000060347
  0
LINE
  5
25ECF
  8
01
 10
182.9999358546548
 20
179.0753345562784
 30
0.0000000000060347
 11
178.9999358546548
 21
179.8753252490966
 31
0.0000000000060347
  0
LINE
  5
25ED0
  8
01
 10
178.9999358546548
 20
179.8753252490966
 30
0.0000000000060347
 11
179.4999358546548
 21
179.9753264124943
 31
0.0000000000060347
  0
LINE
  5
25ED1
  8
01
 10
178.9999358546548
 20
176.6753252490966
 30
0.0000000000060347
 11
179.4999358546548
 21
176.7753264124943
 31
0.0000000000060347
  0
LINE
  5
25ED2
  8
01
 10
182.4999358546548
 20
177.3753333928806
 30
0.0000000000060347
 11
182.9999358546548
 21
177.4753345562783
 31
0.0000000000060347
  0
LINE
  5
25ED3
  8
01
 10
178.9999358546548
 20
178.2753252490965
 30
0.0000000000060347
 11
179.4999358546548
 21
178.3753264124942
 31
0.0000000000060347
  0
LINE
  5
25ED4
  8
01
 10
182.9999358546548
 20
177.4753345562783
 30
0.0000000000060347
 11
178.9999358546548
 21
178.2753252490965
 31
0.0000000000060347
  0
LINE
  5
25ED5
  8
01
 10
182.4999358546548
 20
178.9753333928807
 30
0.0000000000060347
 11
182.9999358546548
 21
179.0753345562784
 31
0.0000000000060347
  0
LINE
  5
25ED6
  8
01
 10
178.9999358546548
 20
175.0753252490923
 30
0.0000000000060347
 11
179.4999358546548
 21
175.1753264124899
 31
0.0000000000060347
  0
LINE
  5
25ED7
  8
01
 10
182.4999358546548
 20
175.7753333928807
 30
0.0000000000060347
 11
182.9999358546548
 21
175.8753345562783
 31
0.0000000000060347
  0
LINE
  5
25ED8
  8
01
 10
184.9999823905528
 20
172.2753392100935
 30
0.0000000000060347
 11
176.9999823905528
 21
172.2753205957344
 31
0.0000000000060347
  0
LINE
  5
25ED9
  8
01
 10
182.4999358546548
 20
180.5753333928851
 30
0.0000000000060347
 11
182.9999358546548
 21
180.6753345562827
 31
0.0000000000060347
  0
LINE
  5
25EDA
  8
01
 10
182.4999358546548
 20
182.1753333928894
 30
0.0000000000060347
 11
182.9999358546548
 21
182.2753345562871
 31
0.0000000000060347
  0
LINE
  5
25EDB
  8
01
 10
178.9999358546548
 20
181.475325249101
 30
0.0000000000060347
 11
179.4999358546548
 21
181.5753264124987
 31
0.0000000000060347
  0
LINE
  5
25EDC
  8
01
 10
182.4999358546548
 20
185.3753333928894
 30
0.0000000000060347
 11
182.9999358546548
 21
185.4753345562871
 31
0.0000000000060347
  0
LINE
  5
25EDD
  8
01
 10
182.9999358546548
 20
183.875334556287
 30
0.0000000000060347
 11
178.9999358546548
 21
184.6753252491052
 31
0.0000000000060347
  0
LINE
  5
25EDE
  8
01
 10
178.9999358546548
 20
184.6753252491052
 30
0.0000000000060347
 11
179.4999358546548
 21
184.7753264125029
 31
0.0000000000060347
  0
LINE
  5
25EDF
  8
01
 10
182.4999358546548
 20
183.7753333928893
 30
0.0000000000060347
 11
182.9999358546548
 21
183.875334556287
 31
0.0000000000060347
  0
LINE
  5
25EE0
  8
01
 10
178.9999358546548
 20
183.0753252491053
 30
0.0000000000060347
 11
179.4999358546548
 21
183.175326412503
 31
0.0000000000060347
  0
LINE
  5
25EE1
  8
01
 10
178.9999358546548
 20
187.8753252491097
 30
0.0000000000060347
 11
179.4999358546548
 21
187.9753264125068
 31
0.0000000000060347
  0
LINE
  5
25EE2
  8
01
 10
178.9999358546548
 20
186.2753252491054
 30
0.0000000000060347
 11
179.4999358546548
 21
186.3753264125031
 31
0.0000000000060347
  0
LINE
  5
25EE3
  8
01
 10
182.4999358546548
 20
186.9753333928894
 30
0.0000000000060347
 11
182.9999358546548
 21
187.0753345562871
 31
0.0000000000060347
  0
LINE
  5
25EE4
  8
01
 10
182.9999358546548
 20
187.0753345562871
 30
0.0000000000060347
 11
178.9999358546548
 21
187.8753252491097
 31
0.0000000000060347
  0
LINE
  5
25EE5
  8
01
 10
182.9999358546548
 20
185.4753345562871
 30
0.0000000000060347
 11
178.9999358546548
 21
186.2753252491054
 31
0.0000000000060347
  0
LINE
  5
25EE6
  8
01
 10
182.9999358546548
 20
182.2753345562871
 30
0.0000000000060347
 11
178.9999358546548
 21
183.0753252491053
 31
0.0000000000060347
  0
LINE
  5
25EE7
  8
01
 10
182.9999358546548
 20
180.6753345562827
 30
0.0000000000060347
 11
178.9999358546548
 21
181.475325249101
 31
0.0000000000060347
  0
LINE
  5
25EE9
  8
1CENTER
 10
140.9999823905528
 20
208.4298260935509
 30
0.0000000000060347
 11
140.9999823905528
 21
170.5966930461762
 31
0.0000000000060347
  0
LINE
  5
25EEA
  8
01
 10
142.4999358546548
 20
199.7753333928901
 30
0.0000000000060347
 11
142.9999358546548
 21
199.8753345562872
 31
0.0000000000060347
  0
LINE
  5
25EEB
  8
01
 10
142.9999358546548
 20
199.8753345562872
 30
0.0000000000060347
 11
138.9999358546548
 21
200.6753252491098
 31
0.0000000000060347
  0
LINE
  5
25EEC
  8
01
 10
138.9999358546548
 20
200.6753252491098
 30
0.0000000000060347
 11
139.4999358546548
 21
200.7753264125069
 31
0.0000000000060347
  0
LINE
  5
25EED
  8
01
 10
142.4999358546548
 20
198.1753333928901
 30
0.0000000000060347
 11
142.9999358546548
 21
198.2753345562872
 31
0.0000000000060347
  0
LINE
  5
25EEE
  8
01
 10
138.9999358546548
 20
199.0753252491098
 30
0.0000000000060347
 11
139.4999358546548
 21
199.1753264125069
 31
0.0000000000060347
  0
LINE
  5
25EEF
  8
01
 10
142.9999358546548
 20
198.2753345562872
 30
0.0000000000060347
 11
138.9999358546548
 21
199.0753252491098
 31
0.0000000000060347
  0
LINE
  5
25EF0
  8
01
 10
142.4999358546548
 20
196.5753333928901
 30
0.0000000000060347
 11
142.9999358546548
 21
196.6753345562872
 31
0.0000000000060347
  0
LINE
  5
25EF1
  8
01
 10
142.9999358546548
 20
196.6753345562872
 30
0.0000000000060347
 11
138.9999358546548
 21
197.4753252491097
 31
0.0000000000060347
  0
LINE
  5
25EF2
  8
01
 10
138.9999358546548
 20
197.4753252491097
 30
0.0000000000060347
 11
139.4999358546548
 21
197.5753264125069
 31
0.0000000000060347
  0
LINE
  5
25EF3
  8
01
 10
142.4999358546548
 20
188.5753333928899
 30
0.0000000000060347
 11
142.9999358546548
 21
188.6753345562871
 31
0.0000000000060347
  0
LINE
  5
25EF4
  8
01
 10
138.9999358546548
 20
189.4753252491096
 30
0.0000000000060347
 11
139.4999358546548
 21
189.5753264125069
 31
0.0000000000060347
  0
LINE
  5
25EF5
  8
01
 10
138.9999358546548
 20
191.0753252491098
 30
0.0000000000060347
 11
139.4999358546548
 21
191.1753264125069
 31
0.0000000000060347
  0
LINE
  5
25EF6
  8
01
 10
142.4999358546548
 20
190.1753333928901
 30
0.0000000000060347
 11
142.9999358546548
 21
190.2753345562872
 31
0.0000000000060347
  0
LINE
  5
25EF7
  8
01
 10
142.4999358546548
 20
191.77533339289
 30
0.0000000000060347
 11
142.9999358546548
 21
191.8753345562871
 31
0.0000000000060347
  0
LINE
  5
25EF8
  8
01
 10
142.9999358546548
 20
190.2753345562872
 30
0.0000000000060347
 11
138.9999358546548
 21
191.0753252491098
 31
0.0000000000060347
  0
LINE
  5
25EF9
  8
01
 10
142.9999358546548
 20
188.6753345562871
 30
0.0000000000060347
 11
138.9999358546548
 21
189.4753252491096
 31
0.0000000000060347
  0
LINE
  5
25EFA
  8
01
 10
142.4999358546548
 20
193.3753333928899
 30
0.0000000000060347
 11
142.9999358546548
 21
193.4753345562871
 31
0.0000000000060347
  0
LINE
  5
25EFB
  8
01
 10
142.4999358546548
 20
201.5753333928899
 30
0.0000000000060347
 11
142.9999358546548
 21
201.6753345562871
 31
0.0000000000060347
  0
LINE
  5
25EFC
  8
01
 10
142.9999358546548
 20
201.6753345562871
 30
0.0000000000060347
 11
139.2263429068588
 21
202.4753257759124
 31
0.0000000000060347
  0
LINE
  5
25EFD
  8
01
 10
139.2263429068588
 20
202.4753257759124
 30
0.0000000000060347
 11
139.7629366421299
 21
202.6045964735422
 31
0.0000000000060347
  0
LINE
  5
25EFE
  8
01
 10
138.9999358546548
 20
194.2753252491097
 30
0.0000000000060347
 11
139.4999358546548
 21
194.3753264125067
 31
0.0000000000060347
  0
LINE
  5
25EFF
  8
01
 10
138.9999358546548
 20
195.8753252491097
 30
0.0000000000060347
 11
139.4999358546548
 21
195.9753264125068
 31
0.0000000000060347
  0
LINE
  5
25F00
  8
01
 10
142.4999358546548
 20
194.97533339289
 30
0.0000000000060347
 11
142.9999358546548
 21
195.0753345562871
 31
0.0000000000060347
  0
LINE
  5
25F01
  8
01
 10
142.9999358546548
 20
195.0753345562871
 30
0.0000000000060347
 11
138.9999358546548
 21
195.8753252491097
 31
0.0000000000060347
  0
LINE
  5
25F02
  8
01
 10
142.9999358546548
 20
193.4753345562871
 30
0.0000000000060347
 11
138.9999358546548
 21
194.2753252491097
 31
0.0000000000060347
  0
LINE
  5
25F03
  8
01
 10
142.5471197125961
 20
203.2753335026769
 30
0.0000000000060347
 11
139.6791570112656
 21
204.075326829518
 31
0.0000000000060347
  0
LINE
  5
25F04
  8
01
 10
142.0943062045478
 20
204.8753324490727
 30
0.0000000000060347
 11
140.1319711156724
 21
205.6753278831236
 31
0.0000000000060347
  0
LINE
  5
25F05
  8
01
 10
139.6791570112656
 20
204.075326829518
 30
0.0000000000060347
 11
140.2309064750689
 21
204.258090972146
 31
0.0000000000060347
  0
LINE
  5
25F06
  8
01
 10
141.6371343639167
 20
204.7238966526322
 30
0.0000000000060347
 11
142.0943062045478
 21
204.8753324490727
 31
0.0000000000060347
  0
LINE
  5
25F07
  8
01
 10
140.1319711156724
 20
205.6753278831236
 30
0.0000000000060347
 11
140.7202476907148
 21
205.9870977393757
 31
0.0000000000060347
  0
LINE
  5
25F08
  8
01
 10
142.0790212574461
 20
203.1625639903268
 30
0.0000000000060347
 11
142.5471197125961
 21
203.2753335026769
 31
0.0000000000060347
  0
LINE
  5
25F09
  8
01
 10
138.9999358546548
 20
192.6753252491097
 30
0.0000000000060347
 11
139.4999358546548
 21
192.7753264125069
 31
0.0000000000060347
  0
LINE
  5
25F0A
  8
01
 10
142.9999358546548
 20
191.8753345562871
 30
0.0000000000060347
 11
138.9999358546548
 21
192.6753252491097
 31
0.0000000000060347
  0
LINE
  5
25F0B
  8
01
 10
139.4999358546548
 20
174.97532641249
 30
0.0000000000060347
 11
138.9999358546548
 21
175.0753252490923
 31
0.0000000000060347
  0
LINE
  5
25F0C
  8
01
 10
142.9999358546548
 20
175.8753345562783
 30
0.0000000000060347
 11
138.9999358546548
 21
176.6753252490966
 31
0.0000000000060347
  0
LINE
  5
25F0D
  8
01
 10
142.9999358546548
 20
179.0753345562784
 30
0.0000000000060347
 11
138.9999358546548
 21
179.8753252490966
 31
0.0000000000060347
  0
LINE
  5
25F0E
  8
01
 10
138.9999358546548
 20
179.8753252490966
 30
0.0000000000060347
 11
139.4999358546548
 21
179.9753264124943
 31
0.0000000000060347
  0
LINE
  5
25F0F
  8
01
 10
138.9999358546548
 20
176.6753252490966
 30
0.0000000000060347
 11
139.4999358546548
 21
176.7753264124943
 31
0.0000000000060347
  0
LINE
  5
25F10
  8
01
 10
142.4999358546548
 20
177.3753333928806
 30
0.0000000000060347
 11
142.9999358546548
 21
177.4753345562783
 31
0.0000000000060347
  0
LINE
  5
25F11
  8
01
 10
138.9999358546548
 20
178.2753252490965
 30
0.0000000000060347
 11
139.4999358546548
 21
178.3753264124942
 31
0.0000000000060347
  0
LINE
  5
25F12
  8
01
 10
142.9999358546548
 20
177.4753345562783
 30
0.0000000000060347
 11
138.9999358546548
 21
178.2753252490965
 31
0.0000000000060347
  0
LINE
  5
25F13
  8
01
 10
142.4999358546548
 20
178.9753333928807
 30
0.0000000000060347
 11
142.9999358546548
 21
179.0753345562784
 31
0.0000000000060347
  0
LINE
  5
25F14
  8
01
 10
138.9999358546548
 20
175.0753252490923
 30
0.0000000000060347
 11
139.4999358546548
 21
175.1753264124899
 31
0.0000000000060347
  0
LINE
  5
25F15
  8
01
 10
142.4999358546548
 20
175.7753333928807
 30
0.0000000000060347
 11
142.9999358546548
 21
175.8753345562783
 31
0.0000000000060347
  0
LINE
  5
25F16
  8
01
 10
144.9999823905528
 20
172.2753392100935
 30
0.0000000000060347
 11
136.9999823905528
 21
172.2753205957344
 31
0.0000000000060347
  0
LINE
  5
25F17
  8
01
 10
142.4999358546548
 20
180.5753333928851
 30
0.0000000000060347
 11
142.9999358546548
 21
180.6753345562827
 31
0.0000000000060347
  0
LINE
  5
25F18
  8
01
 10
142.4999358546548
 20
182.1753333928894
 30
0.0000000000060347
 11
142.9999358546548
 21
182.2753345562871
 31
0.0000000000060347
  0
LINE
  5
25F19
  8
01
 10
138.9999358546548
 20
181.475325249101
 30
0.0000000000060347
 11
139.4999358546548
 21
181.5753264124987
 31
0.0000000000060347
  0
LINE
  5
25F1A
  8
01
 10
142.4999358546548
 20
185.3753333928894
 30
0.0000000000060347
 11
142.9999358546548
 21
185.4753345562871
 31
0.0000000000060347
  0
LINE
  5
25F1B
  8
01
 10
142.9999358546548
 20
183.875334556287
 30
0.0000000000060347
 11
138.9999358546548
 21
184.6753252491052
 31
0.0000000000060347
  0
LINE
  5
25F1C
  8
01
 10
138.9999358546548
 20
184.6753252491052
 30
0.0000000000060347
 11
139.4999358546548
 21
184.7753264125029
 31
0.0000000000060347
  0
LINE
  5
25F1D
  8
01
 10
142.4999358546548
 20
183.7753333928893
 30
0.0000000000060347
 11
142.9999358546548
 21
183.875334556287
 31
0.0000000000060347
  0
LINE
  5
25F1E
  8
01
 10
138.9999358546548
 20
183.0753252491053
 30
0.0000000000060347
 11
139.4999358546548
 21
183.175326412503
 31
0.0000000000060347
  0
LINE
  5
25F1F
  8
01
 10
138.9999358546548
 20
187.8753252491097
 30
0.0000000000060347
 11
139.4999358546548
 21
187.9753264125068
 31
0.0000000000060347
  0
LINE
  5
25F20
  8
01
 10
138.9999358546548
 20
186.2753252491054
 30
0.0000000000060347
 11
139.4999358546548
 21
186.3753264125031
 31
0.0000000000060347
  0
LINE
  5
25F21
  8
01
 10
142.4999358546548
 20
186.9753333928894
 30
0.0000000000060347
 11
142.9999358546548
 21
187.0753345562871
 31
0.0000000000060347
  0
LINE
  5
25F22
  8
01
 10
142.9999358546548
 20
187.0753345562871
 30
0.0000000000060347
 11
138.9999358546548
 21
187.8753252491097
 31
0.0000000000060347
  0
LINE
  5
25F23
  8
01
 10
142.9999358546548
 20
185.4753345562871
 30
0.0000000000060347
 11
138.9999358546548
 21
186.2753252491054
 31
0.0000000000060347
  0
LINE
  5
25F24
  8
01
 10
142.9999358546548
 20
182.2753345562871
 30
0.0000000000060347
 11
138.9999358546548
 21
183.0753252491053
 31
0.0000000000060347
  0
LINE
  5
25F25
  8
01
 10
142.9999358546548
 20
180.6753345562827
 30
0.0000000000060347
 11
138.9999358546548
 21
181.475325249101
 31
0.0000000000060347
  0
LINE
  5
25F27
  8
1CENTER
 10
151.6741673448487
 20
160.0253071250845
 30
0.0
 11
171.5507383579939
 21
160.0253071250845
 31
0.0
  0
LINE
  5
25F28
  8
1HATCH
 10
152.7000477112829
 20
158.3753071250845
 30
0.0
 11
167.7000477112829
 21
158.3753071250845
 31
0.0
  0
LINE
  5
25F29
  8
1HATCH
 10
152.7000477112829
 20
161.6753071250845
 30
0.0
 11
167.7000477112829
 21
161.6753071250846
 31
0.0
  0
LINE
  5
25F2A
  8
1HATCH
 10
153.0500477112829
 20
158.0253071250845
 30
0.0
 11
153.0500477112829
 21
162.0253071250845
 31
0.0
  0
LINE
  5
25F2B
  8
01
 10
167.7000477112828
 20
158.0253071250845
 30
0.0
 11
167.7000477112829
 21
162.0253071250845
 31
0.0
  0
LINE
  5
25F2D
  8
1CENTER
 10
151.6741673448487
 20
145.0253065290381
 30
0.0
 11
171.5507383579939
 21
145.0253065290381
 31
0.0
  0
LINE
  5
25F2E
  8
1HATCH
 10
152.7000477112829
 20
143.3753065290381
 30
0.0
 11
167.7000477112829
 21
143.3753065290381
 31
0.0
  0
LINE
  5
25F2F
  8
1HATCH
 10
152.7000477112829
 20
146.675306529038
 30
0.0
 11
167.7000477112829
 21
146.6753065290382
 31
0.0
  0
LINE
  5
25F30
  8
1HATCH
 10
153.0500477112829
 20
143.0253065290381
 30
0.0
 11
153.0500477112829
 21
147.0253065290381
 31
0.0
  0
LINE
  5
25F31
  8
01
 10
167.7000477112828
 20
143.0253065290381
 30
0.0
 11
167.7000477112829
 21
147.0253065290381
 31
0.0
  0
LINE
  5
25F32
  8
01
 10
1589.500045474935
 20
201.6753333928894
 30
0.0000000000060347
 11
1589.500045474935
 21
174.7753682947656
 31
0.0000000000060347
  0
LINE
  5
25F33
  8
01
 10
1589.500045474935
 20
174.7753682947656
 30
0.0000000000060347
 11
1586.999998939037
 21
172.2753392100935
 31
0.0000000000060347
  0
LINE
  5
25F34
  8
01
 10
1586.999998939037
 20
172.2753392100935
 30
0.0000000000060347
 11
1586.999998939037
 21
171.9753392100925
 31
0.0000000000060347
  0
LINE
  5
25F35
  8
01
 10
1586.999998939037
 20
171.9753392100925
 30
0.0000000000060347
 11
1594.999998939037
 21
171.9753205957333
 31
0.0000000000060347
  0
LINE
  5
25F36
  8
01
 10
1594.999998939037
 20
171.9753205957333
 30
0.0000000000060347
 11
1594.999998939037
 21
172.2753205957344
 31
0.0000000000060347
  0
LINE
  5
25F37
  8
01
 10
1594.999998939037
 20
172.2753205957344
 30
0.0000000000060347
 11
1592.500045474935
 21
174.7753031444004
 31
0.0000000000060347
  0
LINE
  5
25F38
  8
01
 10
1592.500045474935
 20
174.7753031444004
 30
0.0000000000060347
 11
1592.500045474935
 21
201.6753264125051
 31
0.0000000000060347
  0
LINE
  5
25F39
  8
01
 10
1592.500045474935
 20
201.6753264125051
 30
0.0000000000060347
 11
1591.000045474935
 21
206.9753299027505
 31
0.0000000000060347
  0
LINE
  5
25F3A
  8
01
 10
1591.000045474935
 20
206.9753299027505
 30
0.0000000000060347
 11
1589.500045474935
 21
201.6753333928894
 31
0.0000000000060347
  0
LINE
  5
25F3B
  8
01
 10
1629.500045474935
 20
201.6753333928894
 30
0.0000000000060347
 11
1629.500045474935
 21
174.7753682947656
 31
0.0000000000060347
  0
LINE
  5
25F3C
  8
01
 10
1629.500045474935
 20
174.7753682947656
 30
0.0000000000060347
 11
1626.999998939037
 21
172.2753392100935
 31
0.0000000000060347
  0
LINE
  5
25F3D
  8
01
 10
1626.999998939037
 20
172.2753392100935
 30
0.0000000000060347
 11
1626.999998939037
 21
171.9753392100925
 31
0.0000000000060347
  0
LINE
  5
25F3E
  8
01
 10
1626.999998939037
 20
171.9753392100925
 30
0.0000000000060347
 11
1634.999998939037
 21
171.9753205957333
 31
0.0000000000060347
  0
LINE
  5
25F3F
  8
01
 10
1634.999998939037
 20
171.9753205957333
 30
0.0000000000060347
 11
1634.999998939037
 21
172.2753205957344
 31
0.0000000000060347
  0
LINE
  5
25F40
  8
01
 10
1634.999998939037
 20
172.2753205957344
 30
0.0000000000060347
 11
1632.500045474935
 21
174.7753031444004
 31
0.0000000000060347
  0
LINE
  5
25F41
  8
01
 10
1632.500045474935
 20
174.7753031444004
 30
0.0000000000060347
 11
1632.500045474935
 21
201.6753264125051
 31
0.0000000000060347
  0
LINE
  5
25F42
  8
01
 10
1632.500045474935
 20
201.6753264125051
 30
0.0000000000060347
 11
1631.000045474935
 21
206.9753299027505
 31
0.0000000000060347
  0
LINE
  5
25F43
  8
01
 10
1631.000045474935
 20
206.9753299027505
 30
0.0000000000060347
 11
1629.500045474935
 21
201.6753333928894
 31
0.0000000000060347
  0
LINE
  5
25F44
  8
01
 10
3039.500063356329
 20
201.6753333928894
 30
0.0000000000060347
 11
3039.500063356329
 21
174.7753682947656
 31
0.0000000000060347
  0
LINE
  5
25F45
  8
01
 10
3039.500063356329
 20
174.7753682947656
 30
0.0000000000060347
 11
3037.000016820431
 21
172.2753392100935
 31
0.0000000000060347
  0
LINE
  5
25F46
  8
01
 10
3037.000016820431
 20
172.2753392100935
 30
0.0000000000060347
 11
3037.000016820431
 21
171.9753392100925
 31
0.0000000000060347
  0
LINE
  5
25F47
  8
01
 10
3037.000016820431
 20
171.9753392100925
 30
0.0000000000060347
 11
3045.000016820431
 21
171.9753205957333
 31
0.0000000000060347
  0
LINE
  5
25F48
  8
01
 10
3045.000016820431
 20
171.9753205957333
 30
0.0000000000060347
 11
3045.000016820431
 21
172.2753205957344
 31
0.0000000000060347
  0
LINE
  5
25F49
  8
01
 10
3045.000016820431
 20
172.2753205957344
 30
0.0000000000060347
 11
3042.500063356329
 21
174.7753031444004
 31
0.0000000000060347
  0
LINE
  5
25F4A
  8
01
 10
3042.500063356329
 20
174.7753031444004
 30
0.0000000000060347
 11
3042.500063356329
 21
201.6753264125051
 31
0.0000000000060347
  0
LINE
  5
25F4B
  8
01
 10
3042.500063356329
 20
201.6753264125051
 30
0.0000000000060347
 11
3041.000063356329
 21
206.9753299027505
 31
0.0000000000060347
  0
LINE
  5
25F4C
  8
01
 10
3041.000063356329
 20
206.9753299027505
 30
0.0000000000060347
 11
3039.500063356329
 21
201.6753333928894
 31
0.0000000000060347
  0
LINE
  5
25F4D
  8
01
 10
3079.500063356329
 20
201.6753333928894
 30
0.0000000000060347
 11
3079.500063356329
 21
174.7753682947656
 31
0.0000000000060347
  0
LINE
  5
25F4E
  8
01
 10
3079.500063356329
 20
174.7753682947656
 30
0.0000000000060347
 11
3077.000016820431
 21
172.2753392100935
 31
0.0000000000060347
  0
LINE
  5
25F4F
  8
01
 10
3077.000016820431
 20
172.2753392100935
 30
0.0000000000060347
 11
3077.000016820431
 21
171.9753392100925
 31
0.0000000000060347
  0
LINE
  5
25F50
  8
01
 10
3077.000016820431
 20
171.9753392100925
 30
0.0000000000060347
 11
3085.000016820431
 21
171.9753205957333
 31
0.0000000000060347
  0
LINE
  5
25F51
  8
01
 10
3085.000016820431
 20
171.9753205957333
 30
0.0000000000060347
 11
3085.000016820431
 21
172.2753205957344
 31
0.0000000000060347
  0
LINE
  5
25F52
  8
01
 10
3085.000016820431
 20
172.2753205957344
 30
0.0000000000060347
 11
3082.500063356329
 21
174.7753031444004
 31
0.0000000000060347
  0
LINE
  5
25F53
  8
01
 10
3082.500063356329
 20
174.7753031444004
 30
0.0000000000060347
 11
3082.500063356329
 21
201.6753264125051
 31
0.0000000000060347
  0
LINE
  5
25F54
  8
01
 10
3082.500063356329
 20
201.6753264125051
 30
0.0000000000060347
 11
3081.000063356329
 21
206.9753299027505
 31
0.0000000000060347
  0
LINE
  5
25F55
  8
01
 10
3081.000063356329
 20
206.9753299027505
 30
0.0000000000060347
 11
3079.500063356329
 21
201.6753333928894
 31
0.0000000000060347
  0
LINE
  5
25F56
  8
01
 10
3172.967272501493
 20
201.6753333928894
 30
0.0
 11
3172.967272501493
 21
174.7753682947656
 31
0.0
  0
LINE
  5
25F57
  8
01
 10
3172.967272501493
 20
174.7753682947656
 30
0.0
 11
3170.467225965595
 21
172.2753392100935
 31
0.0
  0
LINE
  5
25F58
  8
01
 10
3170.467225965595
 20
172.2753392100935
 30
0.0
 11
3170.467225965595
 21
171.9753392100925
 31
0.0
  0
LINE
  5
25F59
  8
01
 10
3170.467225965595
 20
171.9753392100925
 30
0.0
 11
3178.467225965595
 21
171.9753205957333
 31
0.0
  0
LINE
  5
25F5A
  8
01
 10
3178.467225965595
 20
171.9753205957333
 30
0.0
 11
3178.467225965595
 21
172.2753205957344
 31
0.0
  0
LINE
  5
25F5B
  8
01
 10
3178.467225965595
 20
172.2753205957344
 30
0.0
 11
3175.967272501493
 21
174.7753031444004
 31
0.0
  0
LINE
  5
25F5C
  8
01
 10
3175.967272501493
 20
174.7753031444004
 30
0.0
 11
3175.967272501493
 21
201.6753264125051
 31
0.0
  0
LINE
  5
25F5D
  8
01
 10
3175.967272501493
 20
201.6753264125051
 30
0.0
 11
3174.467272501493
 21
206.9753299027505
 31
0.0
  0
LINE
  5
25F5E
  8
01
 10
3174.467272501493
 20
206.9753299027505
 30
0.0
 11
3172.967272501493
 21
201.6753333928894
 31
0.0
  0
LINE
  5
25F5F
  8
01
 10
1603.049999934435
 20
158.0253071250845
 30
0.0
 11
1617.699999934435
 21
158.0253071250845
 31
0.0
  0
LINE
  5
25F60
  8
01
 10
1617.699999934435
 20
158.0253071250845
 30
0.0
 11
1617.699999934435
 21
156.5253071250846
 31
0.0
  0
LINE
  5
25F61
  8
01
 10
1617.699999934435
 20
156.5253071250846
 30
0.0
 11
1618.299999934435
 21
156.5253071250846
 31
0.0
  0
ARC
  5
25F62
  8
01
 10
1618.299999934435
 20
158.5253071250846
 30
0.0
 40
2.0
 50
270.0
 51
0.0
  0
LINE
  5
25F63
  8
01
 10
1620.299999934435
 20
158.5253071250846
 30
0.0
 11
1620.299999934435
 21
161.5253071250845
 31
0.0
  0
ARC
  5
25F64
  8
01
 10
1618.299999934435
 20
161.5253071250845
 30
0.0
 40
2.0
 50
0.0
 51
90.0
  0
LINE
  5
25F65
  8
01
 10
1618.299999934435
 20
163.5253071250845
 30
0.0
 11
1617.699999934435
 21
163.5253071250845
 31
0.0
  0
LINE
  5
25F66
  8
01
 10
1617.699999934435
 20
163.5253071250845
 30
0.0
 11
1617.699999934435
 21
162.0253071250845
 31
0.0
  0
LINE
  5
25F67
  8
01
 10
1617.699999934435
 20
162.0253071250845
 30
0.0
 11
1603.049999934435
 21
162.0253071250845
 31
0.0
  0
LINE
  5
25F68
  8
01
 10
1603.049999934435
 20
162.0253071250845
 30
0.0
 11
1602.699999934435
 21
161.6753071250844
 31
0.0
  0
LINE
  5
25F69
  8
01
 10
1602.699999934435
 20
161.6753071250844
 30
0.0
 11
1602.699999934435
 21
158.3753071250845
 31
0.0
  0
LINE
  5
25F6A
  8
01
 10
1602.699999934435
 20
158.3753071250845
 30
0.0
 11
1603.049999934435
 21
158.0253071250845
 31
0.0
  0
LINE
  5
25F6B
  8
01
 10
1603.049999934435
 20
143.0253065290381
 30
0.0
 11
1617.699999934435
 21
143.0253065290381
 31
0.0
  0
LINE
  5
25F6C
  8
01
 10
1617.699999934435
 20
143.0253065290381
 30
0.0
 11
1617.699999934435
 21
141.5253065290381
 31
0.0
  0
LINE
  5
25F6D
  8
01
 10
1617.699999934435
 20
141.5253065290381
 30
0.0
 11
1618.299999934435
 21
141.5253065290381
 31
0.0
  0
ARC
  5
25F6E
  8
01
 10
1618.299999934435
 20
143.5253065290381
 30
0.0
 40
2.0
 50
270.0
 51
0.0
  0
LINE
  5
25F6F
  8
01
 10
1620.299999934435
 20
143.5253065290381
 30
0.0
 11
1620.299999934435
 21
146.5253065290381
 31
0.0
  0
ARC
  5
25F70
  8
01
 10
1618.299999934435
 20
146.5253065290381
 30
0.0
 40
2.0
 50
0.0
 51
90.0
  0
LINE
  5
25F71
  8
01
 10
1618.299999934435
 20
148.5253065290381
 30
0.0
 11
1617.699999934435
 21
148.5253065290381
 31
0.0
  0
LINE
  5
25F72
  8
01
 10
1617.699999934435
 20
148.5253065290381
 30
0.0
 11
1617.699999934435
 21
147.0253065290381
 31
0.0
  0
LINE
  5
25F73
  8
01
 10
1617.699999934435
 20
147.0253065290381
 30
0.0
 11
1603.049999934435
 21
147.0253065290381
 31
0.0
  0
LINE
  5
25F74
  8
01
 10
1603.049999934435
 20
147.0253065290381
 30
0.0
 11
1602.699999934435
 21
146.6753065290379
 31
0.0
  0
LINE
  5
25F75
  8
01
 10
1602.699999934435
 20
146.6753065290379
 30
0.0
 11
1602.699999934435
 21
143.3753065290381
 31
0.0
  0
LINE
  5
25F76
  8
01
 10
1602.699999934435
 20
143.3753065290381
 30
0.0
 11
1603.049999934435
 21
143.0253065290381
 31
0.0
  0
LINE
  5
25F77
  8
01
 10
3054.2999514997
 20
158.0253071250845
 30
0.0
 11
3068.949951499701
 21
158.0253071250845
 31
0.0
  0
LINE
  5
25F78
  8
01
 10
3068.949951499701
 20
158.0253071250845
 30
0.0
 11
3069.2999514997
 21
158.3753071250845
 31
0.0
  0
LINE
  5
25F79
  8
01
 10
3069.2999514997
 20
158.3753071250845
 30
0.0
 11
3069.2999514997
 21
161.6753071250844
 31
0.0
  0
LINE
  5
25F7A
  8
01
 10
3069.2999514997
 20
161.6753071250844
 30
0.0
 11
3068.949951499701
 21
162.0253071250845
 31
0.0
  0
LINE
  5
25F7B
  8
01
 10
3068.949951499701
 20
162.0253071250845
 30
0.0
 11
3054.2999514997
 21
162.0253071250845
 31
0.0
  0
LINE
  5
25F7C
  8
01
 10
3054.2999514997
 20
162.0253071250845
 30
0.0
 11
3054.2999514997
 21
163.5253071250845
 31
0.0
  0
LINE
  5
25F7D
  8
01
 10
3054.2999514997
 20
163.5253071250845
 30
0.0
 11
3053.699951499701
 21
163.5253071250845
 31
0.0
  0
ARC
  5
25F7E
  8
01
 10
3053.699951499701
 20
161.5253071250845
 30
0.0
 40
2.0
 50
90.0
 51
180.0
  0
LINE
  5
25F7F
  8
01
 10
3051.699951499701
 20
161.5253071250845
 30
0.0
 11
3051.699951499701
 21
158.5253071250846
 31
0.0
  0
ARC
  5
25F80
  8
01
 10
3053.699951499701
 20
158.5253071250846
 30
0.0
 40
2.0
 50
180.0
 51
270.0
  0
LINE
  5
25F81
  8
01
 10
3053.699951499701
 20
156.5253071250846
 30
0.0
 11
3054.2999514997
 21
156.5253071250846
 31
0.0
  0
LINE
  5
25F82
  8
01
 10
3054.2999514997
 20
156.5253071250846
 30
0.0
 11
3054.2999514997
 21
158.0253071250845
 31
0.0
  0
LINE
  5
25F83
  8
01
 10
3054.2999514997
 20
143.0253065290381
 30
0.0
 11
3068.949951499701
 21
143.0253065290381
 31
0.0
  0
LINE
  5
25F84
  8
01
 10
3068.949951499701
 20
143.0253065290381
 30
0.0
 11
3069.2999514997
 21
143.3753065290381
 31
0.0
  0
LINE
  5
25F85
  8
01
 10
3069.2999514997
 20
143.3753065290381
 30
0.0
 11
3069.2999514997
 21
146.6753065290379
 31
0.0
  0
LINE
  5
25F86
  8
01
 10
3069.2999514997
 20
146.6753065290379
 30
0.0
 11
3068.949951499701
 21
147.0253065290381
 31
0.0
  0
LINE
  5
25F87
  8
01
 10
3068.949951499701
 20
147.0253065290381
 30
0.0
 11
3054.2999514997
 21
147.0253065290381
 31
0.0
  0
LINE
  5
25F88
  8
01
 10
3054.2999514997
 20
147.0253065290381
 30
0.0
 11
3054.2999514997
 21
148.5253065290381
 31
0.0
  0
LINE
  5
25F89
  8
01
 10
3054.2999514997
 20
148.5253065290381
 30
0.0
 11
3053.699951499701
 21
148.5253065290381
 31
0.0
  0
ARC
  5
25F8A
  8
01
 10
3053.699951499701
 20
146.5253065290381
 30
0.0
 40
2.0
 50
90.0
 51
180.0
  0
LINE
  5
25F8B
  8
01
 10
3051.699951499701
 20
146.5253065290381
 30
0.0
 11
3051.699951499701
 21
143.5253065290381
 31
0.0
  0
ARC
  5
25F8C
  8
01
 10
3053.699951499701
 20
143.5253065290381
 30
0.0
 40
2.0
 50
180.0
 51
270.0
  0
LINE
  5
25F8D
  8
01
 10
3053.699951499701
 20
141.5253065290381
 30
0.0
 11
3054.2999514997
 21
141.5253065290381
 31
0.0
  0
LINE
  5
25F8E
  8
01
 10
3054.2999514997
 20
141.5253065290381
 30
0.0
 11
3054.2999514997
 21
143.0253065290381
 31
0.0
  0
LINE
  5
25F8F
  8
01
 10
182.4999358546548
 20
174.7753682947656
 30
0.0000000000060347
 11
182.4999358546548
 21
201.6753333928894
 31
0.0000000000060347
  0
LINE
  5
25F90
  8
01
 10
182.4999358546548
 20
201.6753333928894
 30
0.0000000000060347
 11
180.9999358546548
 21
206.9753299027505
 31
0.0000000000060347
  0
LINE
  5
25F91
  8
01
 10
180.9999358546548
 20
206.9753299027505
 30
0.0000000000060347
 11
179.4999358546548
 21
201.6753264125051
 31
0.0000000000060347
  0
LINE
  5
25F92
  8
01
 10
179.4999358546548
 20
201.6753264125051
 30
0.0000000000060347
 11
179.4999358546548
 21
174.7753031444004
 31
0.0000000000060347
  0
LINE
  5
25F93
  8
01
 10
179.4999358546548
 20
174.7753031444004
 30
0.0000000000060347
 11
176.9999823905528
 21
172.2753205957344
 31
0.0000000000060347
  0
LINE
  5
25F94
  8
01
 10
176.9999823905528
 20
172.2753205957344
 30
0.0000000000060347
 11
176.9999823905528
 21
171.9753205957333
 31
0.0000000000060347
  0
LINE
  5
25F95
  8
01
 10
176.9999823905528
 20
171.9753205957333
 30
0.0000000000060347
 11
184.9999823905528
 21
171.9753392100925
 31
0.0000000000060347
  0
LINE
  5
25F96
  8
01
 10
184.9999823905528
 20
171.9753392100925
 30
0.0000000000060347
 11
184.9999823905528
 21
172.2753392100935
 31
0.0000000000060347
  0
LINE
  5
25F97
  8
01
 10
184.9999823905528
 20
172.2753392100935
 30
0.0000000000060347
 11
182.4999358546548
 21
174.7753682947656
 31
0.0000000000060347
  0
LINE
  5
25F98
  8
01
 10
142.4999358546548
 20
174.7753682947656
 30
0.0000000000060347
 11
142.4999358546548
 21
201.6753333928894
 31
0.0000000000060347
  0
LINE
  5
25F99
  8
01
 10
142.4999358546548
 20
201.6753333928894
 30
0.0000000000060347
 11
140.9999358546548
 21
206.9753299027505
 31
0.0000000000060347
  0
LINE
  5
25F9A
  8
01
 10
140.9999358546548
 20
206.9753299027505
 30
0.0000000000060347
 11
139.4999358546548
 21
201.6753264125051
 31
0.0000000000060347
  0
LINE
  5
25F9B
  8
01
 10
139.4999358546548
 20
201.6753264125051
 30
0.0000000000060347
 11
139.4999358546548
 21
174.7753031444004
 31
0.0000000000060347
  0
LINE
  5
25F9C
  8
01
 10
139.4999358546548
 20
174.7753031444004
 30
0.0000000000060347
 11
136.9999823905528
 21
172.2753205957344
 31
0.0000000000060347
  0
LINE
  5
25F9D
  8
01
 10
136.9999823905528
 20
172.2753205957344
 30
0.0000000000060347
 11
136.9999823905528
 21
171.9753205957333
 31
0.0000000000060347
  0
LINE
  5
25F9E
  8
01
 10
136.9999823905528
 20
171.9753205957333
 30
0.0000000000060347
 11
144.9999823905528
 21
171.9753392100925
 31
0.0000000000060347
  0
LINE
  5
25F9F
  8
01
 10
144.9999823905528
 20
171.9753392100925
 30
0.0000000000060347
 11
144.9999823905528
 21
172.2753392100935
 31
0.0000000000060347
  0
LINE
  5
25FA0
  8
01
 10
144.9999823905528
 20
172.2753392100935
 30
0.0000000000060347
 11
142.4999358546548
 21
174.7753682947656
 31
0.0000000000060347
  0
LINE
  5
25FA1
  8
01
 10
153.0500477112829
 20
158.0253071250845
 30
0.0
 11
167.7000477112828
 21
158.0253071250845
 31
0.0
  0
LINE
  5
25FA2
  8
01
 10
167.7000477112828
 20
158.0253071250845
 30
0.0
 11
167.7000477112829
 21
156.5253071250846
 31
0.0
  0
LINE
  5
25FA3
  8
01
 10
167.7000477112829
 20
156.5253071250846
 30
0.0
 11
168.3000477112828
 21
156.5253071250846
 31
0.0
  0
ARC
  5
25FA4
  8
01
 10
168.3000477112829
 20
158.5253071250846
 30
0.0
 40
2.0
 50
269.9999999999984
 51
0.0
  0
LINE
  5
25FA5
  8
01
 10
170.3000477112829
 20
158.5253071250846
 30
0.0
 11
170.3000477112829
 21
161.5253071250845
 31
0.0
  0
ARC
  5
25FA6
  8
01
 10
168.3000477112829
 20
161.5253071250845
 30
0.0
 40
2.0
 50
0.000000000000014
 51
90.00000000000001
  0
LINE
  5
25FA7
  8
01
 10
168.3000477112829
 20
163.5253071250845
 30
0.0
 11
167.7000477112829
 21
163.5253071250845
 31
0.0
  0
LINE
  5
25FA8
  8
01
 10
167.7000477112829
 20
163.5253071250845
 30
0.0
 11
167.7000477112829
 21
162.0253071250845
 31
0.0
  0
LINE
  5
25FA9
  8
01
 10
167.7000477112829
 20
162.0253071250845
 30
0.0
 11
153.0500477112829
 21
162.0253071250845
 31
0.0
  0
LINE
  5
25FAA
  8
01
 10
153.0500477112829
 20
162.0253071250845
 30
0.0
 11
152.7000477112829
 21
161.6753071250844
 31
0.0
  0
LINE
  5
25FAB
  8
01
 10
152.7000477112829
 20
161.6753071250844
 30
0.0
 11
152.7000477112829
 21
158.3753071250845
 31
0.0
  0
LINE
  5
25FAC
  8
01
 10
152.7000477112829
 20
158.3753071250845
 30
0.0
 11
153.0500477112829
 21
158.0253071250845
 31
0.0
  0
LINE
  5
25FAD
  8
01
 10
153.0500477112829
 20
143.0253065290381
 30
0.0
 11
167.7000477112828
 21
143.0253065290381
 31
0.0
  0
LINE
  5
25FAE
  8
01
 10
167.7000477112828
 20
143.0253065290381
 30
0.0
 11
167.7000477112829
 21
141.5253065290381
 31
0.0
  0
LINE
  5
25FAF
  8
01
 10
167.7000477112829
 20
141.5253065290381
 30
0.0
 11
168.3000477112828
 21
141.5253065290381
 31
0.0
  0
ARC
  5
25FB0
  8
01
 10
168.3000477112829
 20
143.5253065290381
 30
0.0
 40
2.0
 50
269.9999999999984
 51
0.0
  0
LINE
  5
25FB1
  8
01
 10
170.3000477112829
 20
143.5253065290381
 30
0.0
 11
170.3000477112829
 21
146.5253065290381
 31
0.0
  0
ARC
  5
25FB2
  8
01
 10
168.3000477112829
 20
146.5253065290381
 30
0.0
 40
2.0
 50
0.000000000000014
 51
90.00000000000001
  0
LINE
  5
25FB3
  8
01
 10
168.3000477112829
 20
148.5253065290381
 30
0.0
 11
167.7000477112829
 21
148.5253065290381
 31
0.0
  0
LINE
  5
25FB4
  8
01
 10
167.7000477112829
 20
148.5253065290381
 30
0.0
 11
167.7000477112829
 21
147.0253065290381
 31
0.0
  0
LINE
  5
25FB5
  8
01
 10
167.7000477112829
 20
147.0253065290381
 30
0.0
 11
153.0500477112829
 21
147.0253065290381
 31
0.0
  0
LINE
  5
25FB6
  8
01
 10
153.0500477112829
 20
147.0253065290381
 30
0.0
 11
152.7000477112829
 21
146.6753065290379
 31
0.0
  0
LINE
  5
25FB7
  8
01
 10
152.7000477112829
 20
146.6753065290379
 30
0.0
 11
152.7000477112829
 21
143.3753065290381
 31
0.0
  0
LINE
  5
25FB8
  8
01
 10
152.7000477112829
 20
143.3753065290381
 30
0.0
 11
153.0500477112829
 21
143.0253065290381
 31
0.0
  0
LINE
  5
25FBA
  8
1DIM
  6
BYBLOCK
 10
2988.118429425317
 20
-316.1028936341496
 30
0.0
 11
2755.285096091983
 21
-316.1028936341496
 31
0.0
  0
LINE
  5
25FBC
  8
1DIM
  6
BYBLOCK
 10
3048.532752621732
 20
-386.9351254742176
 30
0.0
 11
2988.118429425317
 21
-316.1028936341496
 31
0.0
  0
LINE
  5
25FBE
  8
1DIM
  6
BYBLOCK
 10
3015.423672984487
 20
-183.1608790172045
 30
0.0
 11
2888.173672984487
 21
-183.1608790172045
 31
0.0
  0
LINE
  5
25FC0
  8
1DIM
  6
BYBLOCK
 10
3054.211285138326
 20
-229.122672634012
 30
0.0
 11
3015.423672984487
 21
-183.1608790172045
 31
0.0
  0
LINE
  5
25FC2
  8
1DIM
  6
BYBLOCK
 10
2999.215572525248
 20
-240.2694086871963
 30
0.0
 11
2874.882239191914
 21
-240.2694086871963
 31
0.0
  0
LINE
  5
25FC4
  8
1DIM
  6
BYBLOCK
 10
3039.947827741032
 20
-287.2319619040317
 30
0.0
 11
2999.215572525248
 21
-240.2694086871963
 31
0.0
  0
LINE
  5
25FC6
  8
1DIM
  6
BYBLOCK
 10
3013.037371936267
 20
123.399331518538
 30
0.0
 11
2850.204038602933
 21
123.399331518538
 31
0.0
  0
LINE
  5
25FC8
  8
1DIM
  6
BYBLOCK
 10
3045.585592379068
 20
162.8796946523418
 30
0.0
 11
3013.037371936267
 21
123.399331518538
 31
0.0
  0
LINE
  5
25FCA
  8
1DIM
  6
BYBLOCK
 10
2717.909673982277
 20
-352.474139288827
 30
0.0
 11
2590.659673982277
 21
-352.474139288827
 31
0.0
  0
LINE
  5
25FCC
  8
1DIM
  6
BYBLOCK
 10
2763.699244523155
 20
-403.9722603524721
 30
0.0
 11
2717.909673982277
 21
-352.474139288827
 31
0.0
  0
LINE
  5
25FCE
  8
1DIM
  6
BYBLOCK
 10
2556.09126203483
 20
-352.6557273413799
 30
0.0
 11
2431.757928701496
 21
-352.6557273413799
 31
0.0
  0
LINE
  5
25FD0
  8
1DIM
  6
BYBLOCK
 10
2587.205867949815
 20
-387.8162142714287
 30
0.0
 11
2556.09126203483
 21
-352.6557273413799
 31
0.0
  0
LINE
  5
25FD1
  8
1DIM
 10
2955.562844395885
 20
-424.4348617432184
 30
0.0
 11
2950.562844395885
 21
-424.4348617432184
 31
0.0
1001
ACAD
1000
DSTYLE
1002
{
1070
    40
1040
5.0
1002
}
  0
LINE
  5
25FD2
  8
1DIM
 10
2955.562844395885
 20
-395.4348625776835
 30
0.0
 11
2950.562844395885
 21
-395.4348625776835
 31
0.0
1001
ACAD
1000
DSTYLE
1002
{
1070
    40
1040
5.0
1002
}
  0
LINE
  5
25FD3
  8
1DIM
 10
2955.562844395885
 20
-424.4348617432184
 30
0.0
 11
2955.562844395885
 21
-473.184862160451
 31
0.0
1001
ACAD
1000
DSTYLE
1002
{
1070
    40
1040
5.0
1002
}
  0
LINE
  5
25FD4
  8
1DIM
 10
2955.562844395885
 20
-414.4348617432184
 30
0.0
 11
2955.562844395885
 21
-405.4348625776835
 31
0.0
1001
ACAD
1000
DSTYLE
1002
{
1070
    40
1040
5.0
1002
}
  0
LINE
  5
25FD8
  8
1DIM
 10
3005.65
 20
-606.0812035995548
 30
0.0
 11
3000.65
 21
-606.0812035995548
 31
0.0
1001
ACAD
1000
DSTYLE
1002
{
1070
    40
1040
5.0
1002
}
  0
LINE
  5
25FD9
  8
1DIM
 10
3005.65
 20
-620.0812035995548
 30
0.0
 11
3000.65
 21
-620.0812035995548
 31
0.0
1001
ACAD
1000
DSTYLE
1002
{
1070
    40
1040
5.0
1002
}
  0
LINE
  5
25FDA
  8
1DIM
 10
3005.65
 20
-606.0812035995548
 30
0.0
 11
3005.65
 21
-547.3478702662212
 31
0.0
1001
ACAD
1000
DSTYLE
1002
{
1070
    40
1040
5.0
1002
}
  0
LINE
  5
25FDB
  8
1DIM
 10
3005.65
 20
-606.0812035995548
 30
0.0
 11
3005.65
 21
-620.0812035995548
 31
0.0
1001
ACAD
1000
DSTYLE
1002
{
1070
    40
1040
5.0
1002
}
  0
LINE
  5
25FDC
  8
1DIM
 10
3005.65
 20
-596.0812035995548
 30
0.0
 11
3005.65
 21
-586.0812035995548
 31
0.0
1001
ACAD
1000
DSTYLE
1002
{
1070
    40
1040
5.0
1002
}
  0
LINE
  5
25FDD
  8
1DIM
 10
3005.65
 20
-630.0812035995548
 30
0.0
 11
3005.65
 21
-640.0812035995548
 31
0.0
1001
ACAD
1000
DSTYLE
1002
{
1070
    40
1040
5.0
1002
}
  0
LINE
  5
25FE1
  8
1DIM
 10
3030.000018692017
 20
175.0253205957345
 30
0.0
 11
3030.000018692017
 21
247.9081038018002
 31
0.0
1001
ACAD
1000
DSTYLE
1002
{
1070
    40
1040
5.0
1002
}
  0
LINE
  5
25FE2
  8
1DIM
 10
3092.000054931641
 20
175.0253205957345
 30
0.0
 11
3092.000054931641
 21
247.9081038018002
 31
0.0
1001
ACAD
1000
DSTYLE
1002
{
1070
    40
1040
5.0
1002
}
  0
LINE
  5
25FE3
  8
1DIM
 10
3040.000018692017
 20
242.9081038018002
 30
0.0
 11
3082.000054931641
 21
242.9081038018002
 31
0.0
1001
ACAD
1000
DSTYLE
1002
{
1070
    40
1040
5.0
1002
}
  0
LINE
  5
25FE7
  8
1DIM
 10
3157.967226637079
 20
175.0253205957345
 30
0.0
 11
3157.967226637079
 21
220.0253205957345
 31
0.0
1001
ACAD
1000
DSTYLE
1002
{
1070
    40
1040
5.0
1002
}
  0
LINE
  5
25FE8
  8
1DIM
 10
3190.967225294112
 20
175.0253205957345
 30
0.0
 11
3190.967225294112
 21
220.0253205957345
 31
0.0
1001
ACAD
1000
DSTYLE
1002
{
1070
    40
1040
5.0
1002
}
  0
LINE
  5
25FE9
  8
1DIM
 10
3167.967226637079
 20
215.0253205957345
 30
0.0
 11
3180.967225294112
 21
215.0253205957345
 31
0.0
1001
ACAD
1000
DSTYLE
1002
{
1070
    40
1040
5.0
1002
}
  0
LINE
  5
25FED
  8
1DIM
 10
3041.000021740963
 20
203.6003602540169
 30
0.0
 11
3041.000021740963
 21
220.7727432076631
 31
0.0
1001
ACAD
1000
DSTYLE
1002
{
1070
    40
1040
5.0
1002
}
  0
LINE
  5
25FEE
  8
1DIM
 10
3081.000021740963
 20
203.6003602540169
 30
0.0
 11
3081.000021740963
 21
220.7727432076631
 31
0.0
1001
ACAD
1000
DSTYLE
1002
{
1070
    40
1040
5.0
1002
}
  0
LINE
  5
25FEF
  8
1DIM
 10
3051.000021740963
 20
215.7727432076631
 30
0.0
 11
3071.000021740963
 21
215.7727432076631
 31
0.0
1001
ACAD
1000
DSTYLE
1002
{
1070
    40
1040
5.0
1002
}
  0
LINE
  5
25FF3
  8
1DIM1
 10
3061.000016820431
 20
208.4298260935509
 30
0.0
 11
3061.000016820431
 21
396.5071637892728
 31
0.0
1001
ACAD
1000
DSTYLE
1002
{
1070
    40
1040
20.0
1002
}
  0
LINE
  5
25FF4
  8
1DIM1
 10
1610.999998939037
 20
208.4298260935509
 30
0.0
 11
1610.999998939037
 21
396.5071637892728
 31
0.0
1001
ACAD
1000
DSTYLE
1002
{
1070
    40
1040
20.0
1002
}
  0
LINE
  5
25FF5
  8
1DIM1
 10
3021.000016820431
 20
376.5071637892728
 30
0.0
 11
1650.999998939037
 21
376.5071637892728
 31
0.0
1001
ACAD
1000
DSTYLE
1002
{
1070
    40
1040
20.0
1002
}
  0
LINE
  5
25FF9
  8
1DIM1
 10
129.9999442793428
 20
175.0253205957345
 30
0.0
 11
129.9999442793428
 21
533.5587563806807
 31
0.0
1001
ACAD
1000
DSTYLE
1002
{
1070
    40
1040
20.0
1002
}
  0
LINE
  5
25FFA
  8
1DIM1
 10
3092.000054931641
 20
175.0253205957345
 30
0.0
 11
3092.000054931641
 21
533.5587563806807
 31
0.0
1001
ACAD
1000
DSTYLE
1002
{
1070
    40
1040
20.0
1002
}
  0
LINE
  5
25FFB
  8
1DIM1
 10
169.9999442793428
 20
513.5587563806807
 30
0.0
 11
3052.000054931641
 21
513.5587563806807
 31
0.0
1001
ACAD
1000
DSTYLE
1002
{
1070
    40
1040
20.0
1002
}
  0
LINE
  5
25FFF
  8
1DIM1
 10
129.9999442793428
 20
175.0253205957345
 30
0.0
 11
65.04994346871993
 21
175.0253205957345
 31
0.0
1001
ACAD
1000
DSTYLE
1002
{
1070
   271
1070
     0
1070
    40
1040
20.0
1002
}
  0
LINE
  5
26000
  8
1DIM1
 10
147.4999434687199
 20
-424.9348631813934
 30
0.0
 11
65.04994346871987
 21
-424.9348631813934
 31
0.0
1001
ACAD
1000
DSTYLE
1002
{
1070
   271
1070
     0
1070
    40
1040
20.0
1002
}
  0
LINE
  5
26001
  8
1DIM1
 10
85.04994346871993
 20
135.0253205957345
 30
0.0
 11
85.04994346871987
 21
-384.9348631813934
 31
0.0
1001
ACAD
1000
DSTYLE
1002
{
1070
   271
1070
     0
1070
    40
1040
20.0
1002
}
  0
LINE
  5
26005
  8
1DIM1
 10
160.9999848008156
 20
208.4298260935509
 30
0.0
 11
160.9999848008156
 21
396.507163789273
 31
0.0
1001
ACAD
1000
DSTYLE
1002
{
1070
    40
1040
20.0
1002
}
  0
LINE
  5
26006
  8
1DIM1
 10
1611.000002682209
 20
208.4298260935509
 30
0.0
 11
1611.000002682209
 21
396.5071637892728
 31
0.0
1001
ACAD
1000
DSTYLE
1002
{
1070
    40
1040
20.0
1002
}
  0
LINE
  5
26007
  8
1DIM1
 10
200.9999848008156
 20
376.507163789273
 30
0.0
 11
1571.000002682209
 21
376.5071637892728
 31
0.0
1001
ACAD
1000
DSTYLE
1002
{
1070
    40
1040
20.0
1002
}
  0
LINE
  5
2600C
  8
1DIM
  6
BYBLOCK
 10
1681.381583997649
 20
-316.1028936341496
 30
0.0
 11
1914.214917330982
 21
-316.1028936341496
 31
0.0
  0
LINE
  5
2600E
  8
1DIM
  6
BYBLOCK
 10
1620.967260801233
 20
-386.9351254742176
 30
0.0
 11
1681.381583997649
 21
-316.1028936341496
 31
0.0
  0
LINE
  5
2600F
  8
1DIM
 10
3092.000054931641
 20
175.0253205957345
 30
0.0
 11
3130.075831866135
 21
175.0253205957345
 31
0.0
1001
ACAD
1000
DSTYLE
1002
{
1070
    40
1040
5.0
1002
}
  0
LINE
  5
26010
  8
1DIM
 10
3070.325831866135
 20
160.0253071250845
 30
0.0
 11
3130.075831866135
 21
160.0253071250845
 31
0.0
1001
ACAD
1000
DSTYLE
1002
{
1070
    40
1040
5.0
1002
}
  0
LINE
  5
26011
  8
1DIM
 10
3125.075831866135
 20
175.0253205957345
 30
0.0
 11
3125.075831866135
 21
227.8586539290675
 31
0.0
1001
ACAD
1000
DSTYLE
1002
{
1070
    40
1040
5.0
1002
}
  0
LINE
  5
26012
  8
1DIM
 10
3125.075831866135
 20
175.0253205957345
 30
0.0
 11
3125.075831866135
 21
160.0253071250845
 31
0.0
1001
ACAD
1000
DSTYLE
1002
{
1070
    40
1040
5.0
1002
}
  0
LINE
  5
26013
  8
1DIM
 10
3125.075831866135
 20
185.0253205957345
 30
0.0
 11
3125.075831866135
 21
195.0253205957345
 31
0.0
1001
ACAD
1000
DSTYLE
1002
{
1070
    40
1040
5.0
1002
}
  0
LINE
  5
26014
  8
1DIM
 10
3125.075831866135
 20
150.0253071250845
 30
0.0
 11
3125.075831866135
 21
140.0253071250845
 31
0.0
1001
ACAD
1000
DSTYLE
1002
{
1070
    40
1040
5.0
1002
}
  0
LINE
  5
26018
  8
1DIM
 10
3070.325831866135
 20
160.0253071250845
 30
0.0
 11
3130.075831866135
 21
160.0253071250845
 31
0.0
1001
ACAD
1000
DSTYLE
1002
{
1070
    40
1040
5.0
1002
}
  0
LINE
  5
26019
  8
1DIM
 10
3070.325831866135
 20
145.0253065290381
 30
0.0
 11
3130.075831866135
 21
145.0253065290381
 31
0.0
1001
ACAD
1000
DSTYLE
1002
{
1070
    40
1040
5.0
1002
}
  0
LINE
  5
2601A
  8
1DIM
 10
3125.075831866135
 20
135.0253065290381
 30
0.0
 11
3125.075831866135
 21
73.02530652903806
 31
0.0
1001
ACAD
1000
DSTYLE
1002
{
1070
    40
1040
5.0
1002
}
  0
LINE
  5
2601B
  8
1DIM
 10
3125.075831866135
 20
160.0253071250845
 30
0.0
 11
3125.075831866135
 21
145.0253065290381
 31
0.0
1001
ACAD
1000
DSTYLE
1002
{
1070
    40
1040
5.0
1002
}
  0
LINE
  5
2601C
  8
1DIM
 10
3125.075831866135
 20
170.0253071250845
 30
0.0
 11
3125.075831866135
 21
180.0253071250845
 31
0.0
1001
ACAD
1000
DSTYLE
1002
{
1070
    40
1040
5.0
1002
}
  0
LINE
  5
26020
  8
1DIM1
 10
145.9999767042696
 20
-423.4348634419508
 30
0.0
 11
145.9999767042696
 21
-555.9348634419508
 31
0.0
1001
ACAD
1000
DSTYLE
1002
{
1070
    40
1040
20.0
1002
}
  0
LINE
  5
26021
  8
1DIM1
 10
3076.000022506714
 20
-423.4348634419508
 30
0.0
 11
3076.000022506714
 21
-555.9348634419508
 31
0.0
1001
ACAD
1000
DSTYLE
1002
{
1070
    40
1040
20.0
1002
}
  0
LINE
  5
26022
  8
1DIM1
 10
185.9999767042696
 20
-535.9348634419508
 30
0.0
 11
3036.000022506714
 21
-535.9348634419508
 31
0.0
1001
ACAD
1000
DSTYLE
1002
{
1070
    40
1040
20.0
1002
}
  0
LINE
  5
26026
  8
1DIM1
 10
1630.999998939037
 20
208.4298260935509
 30
0.0
 11
1630.999998939037
 21
269.0441682879339
 31
0.0
1001
ACAD
1000
DSTYLE
1002
{
1070
    40
1040
20.0
1002
}
  0
LINE
  5
26027
  8
1DIM1
 10
3041.000016820431
 20
208.4298260935509
 30
0.0
 11
3041.000016820431
 21
269.0441682879339
 31
0.0
1001
ACAD
1000
DSTYLE
1002
{
1070
    40
1040
20.0
1002
}
  0
LINE
  5
26028
  8
1DIM1
 10
1670.999998939037
 20
249.0441682879339
 30
0.0
 11
3001.000016820431
 21
249.0441682879339
 31
0.0
1001
ACAD
1000
DSTYLE
1002
{
1070
    40
1040
20.0
1002
}
  0
LINE
  5
2602C
  8
1DIM1
 10
1591.000006425381
 20
208.4298260935509
 30
0.0
 11
1591.000006425381
 21
269.0441682879338
 31
0.0
1001
ACAD
1000
DSTYLE
1002
{
1070
    40
1040
20.0
1002
}
  0
LINE
  5
2602D
  8
1DIM1
 10
180.9999885439875
 20
208.4298260935509
 30
0.0
 11
180.9999885439875
 21
269.0441682879339
 31
0.0
1001
ACAD
1000
DSTYLE
1002
{
1070
    40
1040
20.0
1002
}
  0
LINE
  5
2602E
  8
1DIM1
 10
1551.000006425381
 20
249.0441682879337
 30
0.0
 11
220.9999885439875
 21
249.0441682879339
 31
0.0
1001
ACAD
1000
DSTYLE
1002
{
1070
    40
1040
20.0
1002
}
  0
LINE
  5
26033
  8
1DIM1
  6
BYBLOCK
 10
51.20808088167306
 20
264.9047256685147
 30
0.0
 11
-230.7919191183269
 21
264.9047256685147
 31
0.0
  0
LINE
  5
26035
  8
1DIM1
  6
BYBLOCK
 10
109.2925720156909
 20
189.2992611544965
 30
0.0
 11
51.20808088167306
 21
264.9047256685147
 31
0.0
  0
TEXT
  5
26036
  8
1DIM
  6
CONTINUOUS
 10
2754.118429425317
 20
-312.6028936341496
 30
0.0
 40
17.5
  1
材質：亜鉛ダイキャスト
  0
LINE
  5
26037
  8
0
  6
BYBLOCK
 10
3050.571420984346
 20
-385.1963016908962
 30
0.0
 11
3055.022131385376
 21
-394.5435394523064
 31
0.0
  0
LINE
  5
26038
  8
0
  6
BYBLOCK
 10
3055.022131385376
 20
-394.5435394523064
 30
0.0
 11
3046.494084259119
 21
-388.673949257539
 31
0.0
  0
LINE
  5
26039
  8
0
  6
BYBLOCK
 10
3055.022131385376
 20
-394.5435394523064
 30
0.0
 11
3048.532752621732
 21
-386.9351254742176
 31
0.0
  0
TEXT
  5
2603A
  8
1DIM
  6
CONTINUOUS
 10
2887.00700631782
 20
-179.6608790172045
 30
0.0
 40
17.5
  1
材質：アルミ
  0
LINE
  5
2603B
  8
0
  6
BYBLOCK
 10
3056.259036596791
 20
-227.3945549278013
 30
0.0
 11
3060.66070827788
 21
-236.7649851876169
 31
0.0
  0
LINE
  5
2603C
  8
0
  6
BYBLOCK
 10
3060.66070827788
 20
-236.7649851876169
 30
0.0
 11
3052.16353367986
 21
-230.8507903402227
 31
0.0
  0
LINE
  5
2603D
  8
0
  6
BYBLOCK
 10
3060.66070827788
 20
-236.7649851876169
 30
0.0
 11
3054.211285138326
 21
-229.122672634012
 31
0.0
  0
TEXT
  5
2603E
  8
1DIM
  6
CONTINUOUS
 10
2873.715572525248
 20
-236.7694086871963
 30
0.0
 40
17.5
  1
材質：PVC
  0
LINE
  5
2603F
  8
0
  6
BYBLOCK
 10
3041.972021051329
 20
-285.4763086681351
 30
0.0
 11
3046.500014877319
 21
-294.786354250943
 31
0.0
  0
LINE
  5
26040
  8
0
  6
BYBLOCK
 10
3046.500014877319
 20
-294.786354250943
 30
0.0
 11
3037.923634430735
 21
-288.9876151399283
 31
0.0
  0
LINE
  5
26041
  8
0
  6
BYBLOCK
 10
3046.500014877319
 20
-294.786354250943
 30
0.0
 11
3039.947827741032
 21
-287.2319619040317
 31
0.0
  0
TEXT
  5
26042
  8
1DIM
  6
CONTINUOUS
 10
2849.037371936267
 20
126.899331518538
 30
0.0
 40
17.5
  1
材質：ABS樹脂
  0
LINE
  5
26043
  8
0
  6
BYBLOCK
 10
3047.653073990617
 20
161.1752309161273
 30
0.0
 11
3051.946737699994
 21
170.5956411403662
 31
0.0
210
0.0
220
0.0
230
-1.0
  0
LINE
  5
26044
  8
0
  6
BYBLOCK
 10
3051.946737699994
 20
170.5956411403662
 30
0.0
 11
3043.518110767518
 21
164.5841583885563
 31
0.0
210
0.0
220
0.0
230
-1.0
  0
LINE
  5
26045
  8
0
  6
BYBLOCK
 10
3051.946737699994
 20
170.5956411403662
 30
0.0
 11
3045.585592379068
 21
162.8796946523418
 31
0.0
210
0.0
220
0.0
230
-1.0
  0
TEXT
  5
26046
  8
1DIM
  6
CONTINUOUS
 10
2589.493007315611
 20
-348.974139288827
 30
0.0
 40
17.5
  1
材質：アルミ
  0
LINE
  5
26047
  8
0
  6
BYBLOCK
 10
2765.70166178072
 20
-402.1918104181098
 30
0.0
 11
2770.343974198816
 21
-411.4453833634622
 31
0.0
  0
LINE
  5
26048
  8
0
  6
BYBLOCK
 10
2770.343974198816
 20
-411.4453833634622
 30
0.0
 11
2761.69682726559
 21
-405.7527102868344
 31
0.0
  0
LINE
  5
26049
  8
0
  6
BYBLOCK
 10
2770.343974198816
 20
-411.4453833634622
 30
0.0
 11
2763.699244523155
 21
-403.9722603524721
 31
0.0
  0
TEXT
  5
2604A
  8
1DIM
  6
CONTINUOUS
 10
2430.59126203483
 20
-349.1557273413799
 30
0.0
 40
17.5
  1
材質：PVC
  0
LINE
  5
2604B
  8
0
  6
BYBLOCK
 10
2589.212483816459
 20
-386.0404976257062
 30
0.0
 11
2593.832932751625
 21
-395.3050067049662
 31
0.0
  0
LINE
  5
2604C
  8
0
  6
BYBLOCK
 10
2593.832932751625
 20
-395.3050067049662
 30
0.0
 11
2585.19925208317
 21
-389.5919309171513
 31
0.0
  0
LINE
  5
2604D
  8
0
  6
BYBLOCK
 10
2593.832932751625
 20
-395.3050067049662
 30
0.0
 11
2587.205867949815
 21
-387.8162142714287
 31
0.0
  0
LINE
  5
2604E
  8
0
  6
BYBLOCK
 10
2958.242336295885
 20
-414.4348617432184
 30
0.0
 11
2955.562844395885
 21
-424.4348617432184
 31
0.0
  0
LINE
  5
2604F
  8
0
  6
BYBLOCK
 10
2955.562844395885
 20
-424.4348617432184
 30
0.0
 11
2952.883352495885
 21
-414.4348617432184
 31
0.0
  0
LINE
  5
26050
  8
0
  6
BYBLOCK
 10
2955.562844395885
 20
-424.4348617432184
 30
0.0
 11
2955.562844395885
 21
-414.4348617432184
 31
0.0
  0
LINE
  5
26051
  8
0
  6
BYBLOCK
 10
2952.883352495885
 20
-405.4348625776835
 30
0.0
 11
2955.562844395885
 21
-395.4348625776835
 31
0.0
  0
LINE
  5
26052
  8
0
  6
BYBLOCK
 10
2955.562844395885
 20
-395.4348625776835
 30
0.0
 11
2958.242336295885
 21
-405.4348625776835
 31
0.0
  0
LINE
  5
26053
  8
0
  6
BYBLOCK
 10
2955.562844395885
 20
-395.4348625776835
 30
0.0
 11
2955.562844395885
 21
-405.4348625776835
 31
0.0
  0
TEXT
  5
26054
  8
1DIM
  6
CONTINUOUS
 10
2952.062844395885
 20
-470.52224641971
 30
0.0
 40
17.5
  1
29
 50
90.0
1001
ACAD
1000
DSTYLE
1002
{
1070
    40
1040
5.0
1002
}
  0
LINE
  5
26055
  8
0
  6
BYBLOCK
 10
3008.3294919
 20
-596.0812035995548
 30
0.0
 11
3005.65
 21
-606.0812035995548
 31
0.0
  0
LINE
  5
26056
  8
0
  6
BYBLOCK
 10
3005.65
 20
-606.0812035995548
 30
0.0
 11
3002.9705081
 21
-596.0812035995548
 31
0.0
  0
LINE
  5
26057
  8
0
  6
BYBLOCK
 10
3005.65
 20
-606.0812035995548
 30
0.0
 11
3005.65
 21
-596.0812035995548
 31
0.0
  0
LINE
  5
26058
  8
0
  6
BYBLOCK
 10
3002.9705081
 20
-630.0812035995548
 30
0.0
 11
3005.65
 21
-620.0812035995548
 31
0.0
  0
LINE
  5
26059
  8
0
  6
BYBLOCK
 10
3005.65
 20
-620.0812035995548
 30
0.0
 11
3008.3294919
 21
-630.0812035995548
 31
0.0
  0
LINE
  5
2605A
  8
0
  6
BYBLOCK
 10
3005.65
 20
-620.0812035995548
 30
0.0
 11
3005.65
 21
-630.0812035995548
 31
0.0
  0
TEXT
  5
2605B
  8
1DIM
  6
CONTINUOUS
 10
3002.15
 20
-575.8478702662214
 30
0.0
 40
17.5
  1
14
 50
90.0
1001
ACAD
1000
DSTYLE
1002
{
1070
    40
1040
5.0
1002
}
  0
LINE
  5
2605C
  8
0
  6
BYBLOCK
 10
3040.000018692017
 20
240.2286119018002
 30
0.0
 11
3030.000018692017
 21
242.9081038018002
 31
0.0
  0
LINE
  5
2605D
  8
0
  6
BYBLOCK
 10
3030.000018692017
 20
242.9081038018002
 30
0.0
 11
3040.000018692017
 21
245.5875957018002
 31
0.0
  0
LINE
  5
2605E
  8
0
  6
BYBLOCK
 10
3030.000018692017
 20
242.9081038018002
 30
0.0
 11
3040.000018692017
 21
242.9081038018002
 31
0.0
  0
LINE
  5
2605F
  8
0
  6
BYBLOCK
 10
3082.000054931641
 20
245.5875957018002
 30
0.0
 11
3092.000054931641
 21
242.9081038018002
 31
0.0
  0
LINE
  5
26060
  8
0
  6
BYBLOCK
 10
3092.000054931641
 20
242.9081038018002
 30
0.0
 11
3082.000054931641
 21
240.2286119018002
 31
0.0
  0
LINE
  5
26061
  8
0
  6
BYBLOCK
 10
3092.000054931641
 20
242.9081038018002
 30
0.0
 11
3082.000054931641
 21
242.9081038018002
 31
0.0
  0
TEXT
  5
26062
  8
1DIM
  6
CONTINUOUS
 10
3046.355939589606
 20
246.4081038018002
 30
0.0
 40
17.5
  1
62
1001
ACAD
1000
DSTYLE
1002
{
1070
    40
1040
5.0
1002
}
  0
LINE
  5
26063
  8
0
  6
BYBLOCK
 10
3167.967226637079
 20
212.3458286957345
 30
0.0
 11
3157.967226637079
 21
215.0253205957345
 31
0.0
  0
LINE
  5
26064
  8
0
  6
BYBLOCK
 10
3157.967226637079
 20
215.0253205957345
 30
0.0
 11
3167.967226637079
 21
217.7048124957344
 31
0.0
  0
LINE
  5
26065
  8
0
  6
BYBLOCK
 10
3157.967226637079
 20
215.0253205957345
 30
0.0
 11
3167.967226637079
 21
215.0253205957345
 31
0.0
  0
LINE
  5
26066
  8
0
  6
BYBLOCK
 10
3180.967225294112
 20
217.7048124957344
 30
0.0
 11
3190.967225294112
 21
215.0253205957345
 31
0.0
  0
LINE
  5
26067
  8
0
  6
BYBLOCK
 10
3190.967225294112
 20
215.0253205957345
 30
0.0
 11
3180.967225294112
 21
212.3458286957345
 31
0.0
  0
LINE
  5
26068
  8
0
  6
BYBLOCK
 10
3190.967225294112
 20
215.0253205957345
 30
0.0
 11
3180.967225294112
 21
215.0253205957345
 31
0.0
  0
TEXT
  5
26069
  8
1DIM
  6
CONTINUOUS
 10
3159.883892632262
 20
218.5253205957345
 30
0.0
 40
17.5
  1
33
1001
ACAD
1000
DSTYLE
1002
{
1070
    40
1040
5.0
1002
}
  0
LINE
  5
2606A
  8
0
  6
BYBLOCK
 10
3051.000021740963
 20
213.0932513076631
 30
0.0
 11
3041.000021740963
 21
215.7727432076631
 31
0.0
  0
LINE
  5
2606B
  8
0
  6
BYBLOCK
 10
3041.000021740963
 20
215.7727432076631
 30
0.0
 11
3051.000021740963
 21
218.4522351076631
 31
0.0
  0
LINE
  5
2606C
  8
0
  6
BYBLOCK
 10
3041.000021740963
 20
215.7727432076631
 30
0.0
 11
3051.000021740963
 21
215.7727432076631
 31
0.0
  0
LINE
  5
2606D
  8
0
  6
BYBLOCK
 10
3071.000021740963
 20
218.4522351076631
 30
0.0
 11
3081.000021740963
 21
215.7727432076631
 31
0.0
  0
LINE
  5
2606E
  8
0
  6
BYBLOCK
 10
3081.000021740963
 20
215.7727432076631
 30
0.0
 11
3071.000021740963
 21
213.0932513076631
 31
0.0
  0
LINE
  5
2606F
  8
0
  6
BYBLOCK
 10
3081.000021740963
 20
215.7727432076631
 30
0.0
 11
3071.000021740963
 21
215.7727432076631
 31
0.0
  0
TEXT
  5
26070
  8
1DIM
  6
CONTINUOUS
 10
3039.760471598307
 20
219.2727432076631
 30
0.0
 40
17.5
  1
P40
1001
ACAD
1000
DSTYLE
1002
{
1070
    40
1040
5.0
1002
}
  0
LINE
  5
26071
  8
0
  6
BYBLOCK
 10
3021.000016820431
 20
387.2251313892728
 30
0.0
 11
3061.000016820431
 21
376.5071637892728
 31
0.0
  0
LINE
  5
26072
  8
0
  6
BYBLOCK
 10
3061.000016820431
 20
376.5071637892728
 30
0.0
 11
3021.000016820431
 21
365.7891961892728
 31
0.0
  0
LINE
  5
26073
  8
0
  6
BYBLOCK
 10
3061.000016820431
 20
376.5071637892728
 30
0.0
 11
3021.000016820431
 21
376.5071637892728
 31
0.0
  0
LINE
  5
26074
  8
0
  6
BYBLOCK
 10
1650.999998939037
 20
365.7891961892728
 30
0.0
 11
1610.999998939037
 21
376.5071637892728
 31
0.0
  0
LINE
  5
26075
  8
0
  6
BYBLOCK
 10
1610.999998939037
 20
376.5071637892728
 30
0.0
 11
1650.999998939037
 21
387.2251313892728
 31
0.0
  0
LINE
  5
26076
  8
0
  6
BYBLOCK
 10
1610.999998939037
 20
376.5071637892728
 30
0.0
 11
1650.999998939037
 21
376.5071637892728
 31
0.0
  0
TEXT
  5
26077
  8
1DIM1
  6
CONTINUOUS
 10
2188.465293143855
 20
390.5071637892727
 30
0.0
 40
70.0
  1
P1450
1001
ACAD
1000
DSTYLE
1002
{
1070
    40
1040
20.0
1002
}
  0
LINE
  5
26078
  8
0
  6
BYBLOCK
 10
169.9999442793428
 20
502.8407887806807
 30
0.0
 11
129.9999442793428
 21
513.5587563806807
 31
0.0
  0
LINE
  5
26079
  8
0
  6
BYBLOCK
 10
129.9999442793428
 20
513.5587563806807
 30
0.0
 11
169.9999442793428
 21
524.2767239806807
 31
0.0
  0
LINE
  5
2607A
  8
0
  6
BYBLOCK
 10
129.9999442793428
 20
513.5587563806807
 30
0.0
 11
169.9999442793428
 21
513.5587563806807
 31
0.0
  0
LINE
  5
2607B
  8
0
  6
BYBLOCK
 10
3052.000054931641
 20
524.2767239806807
 30
0.0
 11
3092.000054931641
 21
513.5587563806807
 31
0.0
  0
LINE
  5
2607C
  8
0
  6
BYBLOCK
 10
3092.000054931641
 20
513.5587563806807
 30
0.0
 11
3052.000054931641
 21
502.8407887806807
 31
0.0
  0
LINE
  5
2607D
  8
0
  6
BYBLOCK
 10
3092.000054931641
 20
513.5587563806807
 30
0.0
 11
3052.000054931641
 21
513.5587563806807
 31
0.0
  0
TEXT
  5
2607E
  8
1DIM1
  6
CONTINUOUS
 10
1482.407407012899
 20
527.5587563806807
 30
0.0
 40
70.0
  1
2962
1001
ACAD
1000
DSTYLE
1002
{
1070
    40
1040
20.0
1002
}
  0
LINE
  5
2607F
  8
0
  6
BYBLOCK
 10
74.33197586871992
 20
135.0253205957345
 30
0.0
 11
85.04994346871993
 21
175.0253205957345
 31
0.0
  0
LINE
  5
26080
  8
0
  6
BYBLOCK
 10
85.04994346871993
 20
175.0253205957345
 30
0.0
 11
95.76791106871993
 21
135.0253205957345
 31
0.0
  0
LINE
  5
26081
  8
0
  6
BYBLOCK
 10
85.04994346871993
 20
175.0253205957345
 30
0.0
 11
85.04994346871993
 21
135.0253205957345
 31
0.0
  0
LINE
  5
26082
  8
0
  6
BYBLOCK
 10
95.76791106871988
 20
-384.9348631813934
 30
0.0
 11
85.04994346871987
 21
-424.9348631813934
 31
0.0
  0
LINE
  5
26083
  8
0
  6
BYBLOCK
 10
85.04994346871987
 20
-424.9348631813934
 30
0.0
 11
74.33197586871988
 21
-384.9348631813934
 31
0.0
  0
LINE
  5
26084
  8
0
  6
BYBLOCK
 10
85.04994346871987
 20
-424.9348631813934
 30
0.0
 11
85.04994346871989
 21
-384.9348631813934
 31
0.0
  0
TEXT
  5
26085
  8
1DIM1
  6
CONTINUOUS
 10
71.0499434687199
 20
-208.322826848385
 30
0.0
 40
70.0
  1
600
 50
90.0
1001
ACAD
1000
DSTYLE
1002
{
1070
   271
1070
     0
1070
    40
1040
20.0
1002
}
  0
LINE
  5
26086
  8
0
  6
BYBLOCK
 10
200.9999848008156
 20
365.789196189273
 30
0.0
 11
160.9999848008156
 21
376.507163789273
 31
0.0
  0
LINE
  5
26087
  8
0
  6
BYBLOCK
 10
160.9999848008156
 20
376.507163789273
 30
0.0
 11
200.9999848008156
 21
387.225131389273
 31
0.0
  0
LINE
  5
26088
  8
0
  6
BYBLOCK
 10
160.9999848008156
 20
376.507163789273
 30
0.0
 11
200.9999848008156
 21
376.507163789273
 31
0.0
  0
LINE
  5
26089
  8
0
  6
BYBLOCK
 10
1571.000002682209
 20
387.2251313892728
 30
0.0
 11
1611.000002682209
 21
376.5071637892728
 31
0.0
  0
LINE
  5
2608A
  8
0
  6
BYBLOCK
 10
1611.000002682209
 20
376.5071637892728
 30
0.0
 11
1571.000002682209
 21
365.7891961892728
 31
0.0
  0
LINE
  5
2608B
  8
0
  6
BYBLOCK
 10
1611.000002682209
 20
376.5071637892728
 30
0.0
 11
1571.000002682209
 21
376.5071637892728
 31
0.0
  0
TEXT
  5
2608C
  8
1DIM1
  6
CONTINUOUS
 10
738.4652715192901
 20
390.5071637892729
 30
0.0
 40
70.0
  1
P1450
 50
0.0000000000000067
1001
ACAD
1000
DSTYLE
1002
{
1070
    40
1040
20.0
1002
}
  0
TEXT
  5
2608D
  8
1DIM
  6
CONTINUOUS
 10
1690.214917330982
 20
-312.6028936341496
 30
0.0
 40
17.5
  1
材質：亜鉛ダイキャスト
  0
LINE
  5
2608E
  8
0
  6
BYBLOCK
 10
1623.005929163847
 20
-388.673949257539
 30
0.0
 11
1614.47788203759
 21
-394.5435394523064
 31
0.0
  0
LINE
  5
2608F
  8
0
  6
BYBLOCK
 10
1614.47788203759
 20
-394.5435394523064
 30
0.0
 11
1618.92859243862
 21
-385.1963016908962
 31
0.0
  0
LINE
  5
26090
  8
0
  6
BYBLOCK
 10
1614.47788203759
 20
-394.5435394523064
 30
0.0
 11
1620.967260801233
 21
-386.9351254742176
 31
0.0
  0
LINE
  5
26091
  8
0
  6
BYBLOCK
 10
3127.755323766135
 20
185.0253205957345
 30
0.0
 11
3125.075831866135
 21
175.0253205957345
 31
0.0
  0
LINE
  5
26092
  8
0
  6
BYBLOCK
 10
3125.075831866135
 20
175.0253205957345
 30
0.0
 11
3122.396339966135
 21
185.0253205957345
 31
0.0
  0
LINE
  5
26093
  8
0
  6
BYBLOCK
 10
3125.075831866135
 20
175.0253205957345
 30
0.0
 11
3125.075831866135
 21
185.0253205957345
 31
0.0
  0
LINE
  5
26094
  8
0
  6
BYBLOCK
 10
3122.396339966135
 20
150.0253071250845
 30
0.0
 11
3125.075831866135
 21
160.0253071250845
 31
0.0
  0
LINE
  5
26095
  8
0
  6
BYBLOCK
 10
3125.075831866135
 20
160.0253071250845
 30
0.0
 11
3127.755323766135
 21
150.0253071250845
 31
0.0
  0
LINE
  5
26096
  8
0
  6
BYBLOCK
 10
3125.075831866135
 20
160.0253071250845
 30
0.0
 11
3125.075831866135
 21
150.0253071250845
 31
0.0
  0
TEXT
  5
26097
  8
1DIM
  6
CONTINUOUS
 10
3121.575831866135
 20
199.7753205957347
 30
0.0
 40
17.5
  1
15
 50
90.0
1001
ACAD
1000
DSTYLE
1002
{
1070
    40
1040
5.0
1002
}
  0
LINE
  5
26098
  8
0
  6
BYBLOCK
 10
3127.755323766135
 20
170.0253071250845
 30
0.0
 11
3125.075831866135
 21
160.0253071250845
 31
0.0
  0
LINE
  5
26099
  8
0
  6
BYBLOCK
 10
3125.075831866135
 20
160.0253071250845
 30
0.0
 11
3122.396339966135
 21
170.0253071250845
 31
0.0
  0
LINE
  5
2609A
  8
0
  6
BYBLOCK
 10
3125.075831866135
 20
160.0253071250845
 30
0.0
 11
3125.075831866135
 21
170.0253071250845
 31
0.0
  0
LINE
  5
2609B
  8
0
  6
BYBLOCK
 10
3122.396339966135
 20
135.0253065290381
 30
0.0
 11
3125.075831866135
 21
145.0253065290381
 31
0.0
  0
LINE
  5
2609C
  8
0
  6
BYBLOCK
 10
3125.075831866135
 20
145.0253065290381
 30
0.0
 11
3127.755323766135
 21
135.0253065290381
 31
0.0
  0
LINE
  5
2609D
  8
0
  6
BYBLOCK
 10
3125.075831866135
 20
145.0253065290381
 30
0.0
 11
3125.075831866135
 21
135.0253065290381
 31
0.0
  0
TEXT
  5
2609E
  8
1DIM
  6
CONTINUOUS
 10
3121.575831866135
 20
78.60863986237155
 30
0.0
 40
17.5
  1
P15
 50
90.0
1001
ACAD
1000
DSTYLE
1002
{
1070
    40
1040
5.0
1002
}
  0
LINE
  5
2609F
  8
0
  6
BYBLOCK
 10
185.9999767042696
 20
-546.6528310419508
 30
0.0
 11
145.9999767042696
 21
-535.9348634419508
 31
0.0
  0
LINE
  5
260A0
  8
0
  6
BYBLOCK
 10
145.9999767042696
 20
-535.9348634419508
 30
0.0
 11
185.9999767042696
 21
-525.2168958419509
 31
0.0
  0
LINE
  5
260A1
  8
0
  6
BYBLOCK
 10
145.9999767042696
 20
-535.9348634419508
 30
0.0
 11
185.9999767042696
 21
-535.9348634419508
 31
0.0
  0
LINE
  5
260A2
  8
0
  6
BYBLOCK
 10
3036.000022506714
 20
-525.2168958419509
 30
0.0
 11
3076.000022506714
 21
-535.9348634419508
 31
0.0
  0
LINE
  5
260A3
  8
0
  6
BYBLOCK
 10
3076.000022506714
 20
-535.9348634419508
 30
0.0
 11
3036.000022506714
 21
-546.6528310419508
 31
0.0
  0
LINE
  5
260A4
  8
0
  6
BYBLOCK
 10
3076.000022506714
 20
-535.9348634419508
 30
0.0
 11
3036.000022506714
 21
-535.9348634419508
 31
0.0
  0
TEXT
  5
260A5
  8
1DIM1
  6
CONTINUOUS
 10
1486.625462549456
 20
-521.9348634419508
 30
0.0
 40
70.0
  1
2930
1001
ACAD
1000
DSTYLE
1002
{
1070
    40
1040
20.0
1002
}
  0
LINE
  5
260A6
  8
0
  6
BYBLOCK
 10
1670.999998939037
 20
238.3262006879339
 30
0.0
 11
1630.999998939037
 21
249.0441682879339
 31
0.0
  0
LINE
  5
260A7
  8
0
  6
BYBLOCK
 10
1630.999998939037
 20
249.0441682879339
 30
0.0
 11
1670.999998939037
 21
259.7621358879339
 31
0.0
  0
LINE
  5
260A8
  8
0
  6
BYBLOCK
 10
1630.999998939037
 20
249.0441682879339
 30
0.0
 11
1670.999998939037
 21
249.0441682879339
 31
0.0
  0
LINE
  5
260A9
  8
0
  6
BYBLOCK
 10
3001.000016820431
 20
259.7621358879339
 30
0.0
 11
3041.000016820431
 21
249.0441682879339
 31
0.0
  0
LINE
  5
260AA
  8
0
  6
BYBLOCK
 10
3041.000016820431
 20
249.0441682879339
 30
0.0
 11
3001.000016820431
 21
238.3262006879339
 31
0.0
  0
LINE
  5
260AB
  8
0
  6
BYBLOCK
 10
3041.000016820431
 20
249.0441682879339
 30
0.0
 11
3001.000016820431
 21
249.0441682879339
 31
0.0
  0
TEXT
  5
260AC
  8
1DIM1
  6
CONTINUOUS
 10
2235.375007879734
 20
263.0441682879339
 30
0.0
 40
70.0
  1
1410
1001
ACAD
1000
DSTYLE
1002
{
1070
    40
1040
20.0
1002
}
  0
LINE
  5
260AD
  8
0
  6
BYBLOCK
 10
1551.000006425381
 20
259.7621358879338
 30
0.0
 11
1591.000006425381
 21
249.0441682879337
 31
0.0
  0
LINE
  5
260AE
  8
0
  6
BYBLOCK
 10
1591.000006425381
 20
249.0441682879337
 30
0.0
 11
1551.000006425381
 21
238.3262006879337
 31
0.0
  0
LINE
  5
260AF
  8
0
  6
BYBLOCK
 10
1591.000006425381
 20
249.0441682879337
 30
0.0
 11
1551.000006425381
 21
249.0441682879337
 31
0.0
  0
LINE
  5
260B0
  8
0
  6
BYBLOCK
 10
220.9999885439875
 20
238.3262006879339
 30
0.0
 11
180.9999885439875
 21
249.0441682879339
 31
0.0
  0
LINE
  5
260B1
  8
0
  6
BYBLOCK
 10
180.9999885439875
 20
249.0441682879339
 30
0.0
 11
220.9999885439875
 21
259.7621358879339
 31
0.0
  0
LINE
  5
260B2
  8
0
  6
BYBLOCK
 10
180.9999885439875
 20
249.0441682879339
 30
0.0
 11
220.9999885439875
 21
249.0441682879339
 31
0.0
  0
TEXT
  5
260B3
  8
1DIM1
  6
CONTINUOUS
 10
785.3749974846842
 20
263.0441682879338
 30
0.0
 40
70.0
  1
1410
 50
0.0000000000000069
1001
ACAD
1000
DSTYLE
1002
{
1070
    40
1040
20.0
1002
}
  0
TEXT
  5
260B4
  8
1DIM1
  6
CONTINUOUS
 10
-236.1252524516603
 20
280.9047256685147
 30
0.0
 40
80.0
  1
天井面
  0
LINE
  5
260B5
  8
0
  6
BYBLOCK
 10
113.1172628265195
 20
192.2376098693668
 30
0.0
 11
120.2586388094373
 21
175.0253205957338
 31
0.0
  0
LINE
  5
260B6
  8
0
  6
BYBLOCK
 10
120.2586388094373
 20
175.0253205957338
 30
0.0
 11
105.4678812048623
 21
186.3609124396262
 31
0.0
  0
LINE
  5
260B7
  8
0
  6
BYBLOCK
 10
120.2586388094373
 20
175.0253205957338
 30
0.0
 11
109.2925720156909
 21
189.2992611544965
 31
0.0
  0
VIEWPORT
  5
57
 67
     1
  8
0
 10
0.0
 20
0.0
 30
0.0
 40
462.7993079584775
 41
296.9999999999999
 68
     1
 69
     1
1001
ACAD
1000
MVIEW
1002
{
1070
    16
1010
0.0
1020
0.0
1030
0.0
1010
0.0
1020
0.0
1030
1.0
1040
0.0
1040
296.9999999999999
1040
-4.171999999925333
1040
12.83903210976956
1040
50.0
1040
0.0
1040
0.0
1070
    16
1070
    20
1070
     0
1070
     1
1070
     0
1070
     0
1070
     0
1070
     0
1040
0.0
1040
0.0
1040
0.0
1040
10.0
1040
10.0
1040
10.0
1040
10.0
1070
     0
1002
{
1002
}
1002
}
  0
ENDSEC
  0
EOF
