  0
SECTION
  2
HEADER
  9
$ACADVER
  1
AC1009
  9
$DWGCODEPAGE
  3
ansi_932
  9
$INSBASE
 10
0.0
 20
0.0
 30
0.0
  9
$EXTMIN
 10
16388.48378743927
 20
7203.964160135253
 30
0.0
  9
$EXTMAX
 10
19571.71521437583
 20
7615.245194729118
 30
0.0
  9
$LIMMIN
 10
0.0
 20
0.0
  9
$LIMMAX
 10
420.0
 20
297.0
  9
$ORTHOMODE
 70
     0
  9
$REGENMODE
 70
     1
  9
$FILLMODE
 70
     1
  9
$QTEXTMODE
 70
     0
  9
$MIRRTEXT
 70
     0
  9
$DRAGMODE
 70
     2
  9
$LTSCALE
 40
0.5
  9
$OSMODE
 70
   951
  9
$ATTMODE
 70
     1
  9
$TEXTSIZE
 40
2.0
  9
$TRACEWID
 40
1.0
  9
$TEXTSTYLE
  7
STANDARD
  9
$CLAYER
  8
1TEXT
  9
$CELTYPE
  6
BYLAYER
  9
$CECOLOR
 62
   256
  9
$DIMSCALE
 40
1.0
  9
$DIMASZ
 40
2.0
  9
$DIMEXO
 40
0.0
  9
$DIMDLI
 40
7.0
  9
$DIMRND
 40
0.0
  9
$DIMDLE
 40
0.0
  9
$DIMEXE
 40
1.0
  9
$DIMTP
 40
0.0
  9
$DIMTM
 40
0.0
  9
$DIMTXT
 40
3.5
  9
$DIMCEN
 40
0.0
  9
$DIMTSZ
 40
0.0
  9
$DIMTOL
 70
     0
  9
$DIMLIM
 70
     0
  9
$DIMTIH
 70
     0
  9
$DIMTOH
 70
     0
  9
$DIMSE1
 70
     0
  9
$DIMSE2
 70
     0
  9
$DIMTAD
 70
     1
  9
$DIMZIN
 70
     8
  9
$DIMBLK
  1

  9
$DIMASO
 70
     1
  9
$DIMSHO
 70
     1
  9
$DIMPOST
  1
 
  9
$DIMAPOST
  1

  9
$DIMALT
 70
     0
  9
$DIMALTD
 70
     2
  9
$DIMALTF
 40
25.4
  9
$DIMLFAC
 40
1.0
  9
$DIMTOFL
 70
     1
  9
$DIMTVP
 40
0.0
  9
$DIMTIX
 70
     0
  9
$DIMSOXD
 70
     0
  9
$DIMSAH
 70
     1
  9
$DIMBLK1
  1
OPEN30
  9
$DIMBLK2
  1
OPEN30
  9
$DIMSTYLE
  2
NEWX10
  9
$DIMCLRD
 70
   256
  9
$DIMCLRE
 70
   256
  9
$DIMCLRT
 70
   201
  9
$DIMTFAC
 40
0.7
  9
$DIMGAP
 40
0.7
  9
$LUNITS
 70
     2
  9
$LUPREC
 70
     4
  9
$SKETCHINC
 40
1.0
  9
$FILLETRAD
 40
0.3
  9
$AUNITS
 70
     0
  9
$AUPREC
 70
     2
  9
$MENU
  1
acad
  9
$ELEVATION
 40
0.0
  9
$PELEVATION
 40
0.0
  9
$THICKNESS
 40
0.0
  9
$LIMCHECK
 70
     0
  9
$CHAMFERA
 40
1.0
  9
$CHAMFERB
 40
1.0
  9
$SKPOLY
 70
     0
  9
$TDCREATE
 40
2459965.625447141
  9
$TDUPDATE
 40
2460767.629172998
  9
$TDINDWG
 40
0.2562718287
  9
$TDUSRTIMER
 40
0.2562718287
  9
$USRTIMER
 70
     1
  9
$ANGBASE
 50
0.0
  9
$ANGDIR
 70
     0
  9
$PDMODE
 70
     0
  9
$PDSIZE
 40
0.0
  9
$PLINEWID
 40
0.0
  9
$COORDS
 70
     1
  9
$SPLFRAME
 70
     0
  9
$SPLINETYPE
 70
     6
  9
$SPLINESEGS
 70
     8
  9
$ATTDIA
 70
     0
  9
$ATTREQ
 70
     1
  9
$HANDLING
 70
     1
  9
$HANDSEED
  5
1CA2F
  9
$SURFTAB1
 70
     6
  9
$SURFTAB2
 70
     6
  9
$SURFTYPE
 70
     6
  9
$SURFU
 70
     6
  9
$SURFV
 70
     6
  9
$UCSNAME
  2

  9
$UCSORG
 10
0.0
 20
0.0
 30
0.0
  9
$UCSXDIR
 10
1.0
 20
0.0
 30
0.0
  9
$UCSYDIR
 10
0.0
 20
1.0
 30
0.0
  9
$PUCSNAME
  2

  9
$PUCSORG
 10
0.0
 20
0.0
 30
0.0
  9
$PUCSXDIR
 10
1.0
 20
0.0
 30
0.0
  9
$PUCSYDIR
 10
0.0
 20
1.0
 30
0.0
  9
$USERI1
 70
     0
  9
$USERI2
 70
     0
  9
$USERI3
 70
     0
  9
$USERI4
 70
     0
  9
$USERI5
 70
     0
  9
$USERR1
 40
0.0
  9
$USERR2
 40
0.0
  9
$USERR3
 40
0.0
  9
$USERR4
 40
0.0
  9
$USERR5
 40
4.5
  9
$WORLDVIEW
 70
     1
  9
$SHADEDGE
 70
     1
  9
$SHADEDIF
 70
    70
  9
$TILEMODE
 70
     1
  9
$MAXACTVP
 70
    48
  9
$PLIMCHECK
 70
     0
  9
$PEXTMIN
 10
1.000000000000000E+20
 20
1.000000000000000E+20
 30
1.000000000000000E+20
  9
$PEXTMAX
 10
-1.000000000000000E+20
 20
-1.000000000000000E+20
 30
-1.000000000000000E+20
  9
$PLIMMIN
 10
-20.0
 20
-7.5
  9
$PLIMMAX
 10
277.0
 20
202.5
  9
$UNITMODE
 70
     0
  9
$VISRETAIN
 70
     1
  9
$PLINEGEN
 70
     0
  9
$PSLTSCALE
 70
     1
  0
ENDSEC
  0
SECTION
  2
TABLES
  0
TABLE
  2
VPORT
 70
     1
  0
VPORT
  2
*ACTIVE
 70
     0
 10
0.0
 20
0.0
 11
1.0
 21
1.0
 12
6918.438955907548
 22
-76.97897156781437
 13
0.0
 23
0.0
 14
10.0
 24
10.0
 15
10.0
 25
10.0
 16
0.0
 26
0.0
 36
1.0
 17
11061.660545
 27
7486.583649
 37
474.311593
 40
1593.748021601158
 41
2.144495412844037
 42
50.0
 43
0.0
 44
0.0
 50
0.0
 51
0.0
 71
    16
 72
    20
 73
     1
 74
     1
 75
     0
 76
     0
 77
     0
 78
     0
  0
ENDTAB
  0
TABLE
  2
LTYPE
 70
     5
  0
LTYPE
  2
CONTINUOUS
 70
     0
  3
Solid line
 72
    65
 73
     0
 40
0.0
  0
LTYPE
  2
CENTER2
 70
     0
  3
Center (.5x) ___ _ ___ _ ___ _ ___ _ ___ _ ___
 72
    65
 73
     4
 40
28.575
 49
19.05
 49
-3.175
 49
3.175
 49
-3.175
  0
LTYPE
  2
PHANTOM2
 70
     0
  3
Phantom (0.5x) ___ _ _ ___ _ _ ___ _ _ ___ _ _
 72
    65
 73
     6
 40
31.75
 49
15.875
 49
-3.175
 49
3.175
 49
-3.175
 49
3.175
 49
-3.175
  0
ENDTAB
  0
TABLE
  2
LAYER
 70
    48
  0
LAYER
  2
0
 70
     0
 62
     7
  6
CONTINUOUS
  0
LAYER
  2
01
 70
     0
 62
     1
  6
CONTINUOUS
  0
LAYER
  2
1CENTER
 70
     0
 62
     7
  6
CENTER2
  0
LAYER
  2
1DIM
 70
     0
 62
     7
  6
CONTINUOUS
  0
LAYER
  2
1TEXT
 70
     0
 62
     7
  6
CONTINUOUS
  0
LAYER
  2
1DIM1
 70
     0
 62
     7
  6
CONTINUOUS
  0
LAYER
  2
1PHANTOM
 70
     0
 62
     7
  6
PHANTOM2
  0
ENDTAB
  0
TABLE
  2
STYLE
 70
     6
  0
STYLE
  2
STANDARD
 70
     0
 40
0.0
 41
1.0
 50
0.0
 71
     0
 42
2.0
  3
romans.shx
  4
extfont2.shx
  0
STYLE
  2
STANDARD06
 70
     0
 40
0.0
 41
0.6
 50
0.0
 71
     0
 42
2.0
  3
romans.shx
  4
extfont2.shx
  0
ENDTAB
  0
TABLE
  2
VIEW
 70
     0
  0
ENDTAB
  0
TABLE
  2
UCS
 70
     0
  0
ENDTAB
  0
TABLE
  2
APPID
 70
    27
  0
APPID
  2
ACAD
 70
     0
  0
APPID
  2
ACAD_PSEXT
 70
     0
  0
APPID
  2
ACAD_DSTYLE_DIMRADIAL_EXTE
 70
     0
  0
APPID
  2
ACDBBLOCKREPETAG
 70
     0
  0
APPID
  2
ACDBDYNAMICBLOCKGUID
 70
     0
  0
APPID
  2
ACADANNOTATIVE
 70
     0
  0
APPID
  2
ACLAYERTOOLS
 70
     0
  0
APPID
  2
ACAD_NAV_VCDISPLAY
 70
     0
  0
APPID
  2
ACADSTRINGINFO
 70
     0
  0
APPID
  2
GRADIENTCOLOR1ACI
 70
     0
  0
APPID
  2
GRADIENTCOLOR2ACI
 70
     0
  0
APPID
  2
CONTENTTABDATA
 70
     0
  0
APPID
  2
CONTENTCURRENTTAB
 70
     0
  0
APPID
  2
CONTENTBLOCKDESCRIPTION
 70
     0
  0
APPID
  2
CONTENTBLOCKICON
 70
     0
  0
APPID
  2
DRAWINGVARIABLESXDATA
 70
     0
  0
APPID
  2
CONTENTLONGBLOCKNAME
 70
     0
  0
APPID
  2
ACAECLAYERSTANDARD
 70
     0
  0
APPID
  2
AECBASE
 70
     0
  0
APPID
  2
AEC_2DSECTION_XDATA
 70
     0
  0
APPID
  2
AEC_MASSGROUP_XDADA
 70
     0
  0
APPID
  2
ACAD_DSTYLE_DIMJOGGED_JOGA
 70
     0
  0
APPID
  2
ACAD_DSTYLE_DIM_LINETYPE
 70
     0
  0
APPID
  2
ACAD_DSTYLE_DIM_EXT1_LINET
 70
     0
  0
APPID
  2
ACAD_DSTYLE_DIM_EXT2_LINET
 70
     0
  0
APPID
  2
ACAD_OBJECT_CHANGE_GUID
 70
     0
  0
APPID
  2
ACAD_MLEADERVER
 70
     0
  0
ENDTAB
  0
TABLE
  2
DIMSTYLE
 70
     4
  0
DIMSTYLE
  2
NEWX10
 70
     0
  3
 
  4

  5

  6
OPEN30
  7
OPEN30
 40
1.0
 41
2.0
 42
0.0
 43
7.0
 44
1.0
 45
0.0
 46
0.0
 47
0.0
 48
0.0
140
3.5
141
0.0
142
0.0
143
25.4
144
1.0
145
0.0
146
0.7
147
0.7
 71
     0
 72
     0
 73
     0
 74
     0
 75
     0
 76
     0
 77
     1
 78
     8
170
     0
171
     2
172
     1
173
     1
174
     0
175
     0
176
   256
177
   256
178
   201
  0
DIMSTYLE
  2
ISO-25
 70
     0
  3

  4

  5

  6

  7

 40
1.0
 41
20.0
 42
3.0
 43
3.75
 44
2.0
 45
0.0
 46
0.0
 47
0.0
 48
0.0
140
30.0
141
5.0
142
0.0
143
0.03937
144
1.0
145
0.0
146
1.0
147
8.0
 71
     0
 72
     0
 73
     0
 74
     0
 75
     0
 76
     0
 77
     1
 78
     8
170
     0
171
     3
172
     1
173
     0
174
     0
175
     0
176
     1
177
     1
178
     1
  0
ENDTAB
  0
ENDSEC
  0
SECTION
  2
BLOCKS
  0
BLOCK
  8
0
  2
$MODEL_SPACE
 70
     0
 10
0.0
 20
0.0
 30
0.0
  3
$MODEL_SPACE
  1

  0
ENDBLK
  5
F764
  8
0
  0
BLOCK
 67
     1
  8
0
  2
$PAPER_SPACE
 70
     0
 10
0.0
 20
0.0
 30
0.0
  3
$PAPER_SPACE
  1

  0
ENDBLK
  5
FB7D
 67
     1
  8
0
  0
BLOCK
  8
0
  2
_OPEN30
 70
     0
 10
0.0
 20
0.0
 30
0.0
  3
_OPEN30
  1

  0
LINE
  5
29
  8
0
  6
BYBLOCK
 62
     0
 10
-1.0
 20
0.267949
 30
0.0
 11
0.0
 21
0.0
 31
0.0
  0
LINE
  5
2A
  8
0
  6
BYBLOCK
 62
     0
 10
0.0
 20
0.0
 30
0.0
 11
-1.0
 21
-0.267949
 31
0.0
  0
LINE
  5
2B
  8
0
  6
BYBLOCK
 62
     0
 10
0.0
 20
0.0
 30
0.0
 11
-1.0
 21
0.0
 31
0.0
  0
ENDBLK
  5
F762
  8
0
  0
BLOCK
  8
0
  2
A3WAKUKAWAJUN2017_HYOUDAI_
 70
     0
 10
0.0
 20
0.0
 30
0.0
  3
A3WAKUKAWAJUN2017_HYOUDAI_
  1

  0
LINE
  5
6D9B
  8
0
 10
13.26299999998673
 20
-0.0001000000000317
 30
0.0
 11
9.236999999990758
 21
8.999899999990987
 31
0.0
1001
ACAD
1000
ASC_BOUNDS
1002
{
1070
    19
1005
6DDC
1002
}
  0
LINE
  5
6D9C
  8
0
 10
5.657999999994331
 20
0.9999999999989768
 30
0.0
 11
9.236999999990758
 21
8.999999999991019
 31
0.0
1001
ACAD
1000
ASC_BOUNDS
1002
{
1070
    19
1005
6DDC
1002
}
  0
LINE
  5
6D9D
  8
0
 10
18.59199999998134
 20
-0.2368999999997641
 30
0.0
 11
16.46099999998353
 21
5.432899999994561
 31
0.0
1001
ACAD
1000
ASC_BOUNDS
1002
{
1070
    19
1005
6DDD
1002
}
  0
LINE
  5
6D9E
  8
0
 10
18.59199999998134
 20
-0.2368999999997641
 30
0.0
 11
22.38199999997767
 21
8.763099999991255
 31
0.0
1001
ACAD
1000
ASC_BOUNDS
1002
{
1070
    19
1005
6DDD
1002
}
  0
LINE
  5
6D9F
  8
0
 10
14.32899999998563
 20
-0.2368999999997641
 30
0.0
 11
16.46099999998353
 21
5.432899999994561
 31
0.0
1001
ACAD
1000
ASC_BOUNDS
1002
{
1070
    19
1005
6DDD
1002
}
  0
LINE
  5
6DA0
  8
0
 10
14.32899999998563
 20
-0.2368999999997641
 30
0.0
 11
10.53899999998941
 21
8.763099999991255
 31
0.0
1001
ACAD
1000
ASC_BOUNDS
1002
{
1070
    19
1005
6DDD
1002
}
  0
LINE
  5
6DA1
  8
0
 10
19.53899999998043
 20
-0.0001000000000317
 30
0.0
 11
23.56599999997638
 21
8.999899999990987
 31
0.0
1001
ACAD
1000
ASC_BOUNDS
1002
{
1070
    19
1005
6DDE
1002
}
  0
LINE
  5
6DA2
  8
0
 10
26.97358892824991
 20
1.383099999991202
 30
0.0
 11
23.56599999997638
 21
8.999899999990987
 31
0.0
1001
ACAD
1000
ASC_BOUNDS
1002
{
1070
    19
1005
6DDE
1002
}
  0
LINE
  5
6DA3
  8
0
 10
5.657999999994331
 20
0.9999999999989768
 30
0.0
 11
3.181999999996833
 21
4.668599999995308
 31
0.0
1001
ACAD
1000
ASC_BOUNDS
1002
{
1070
    19
1005
6DDC
1002
}
  0
LINE
  5
6DA4
  8
0
 10
4.617999999995391
 20
-0.0001000000000317
 30
0.0
 11
1.420999999998571
 21
4.736799999995242
 31
0.0
1001
ACAD
1000
ASC_BOUNDS
1002
{
1070
    19
1005
6DDC
1002
}
  0
LINE
  5
6DA5
  8
0
 10
1.420999999998571
 20
8.763099999991255
 30
0.0
 11
1.420999999998571
 21
0.0
 31
0.0
1001
ACAD
1000
ASC_BOUNDS
1002
{
1070
    19
1005
6DE1
1002
}
  0
LINE
  5
6DA6
  8
0
 10
0.0
 20
8.763099999991255
 30
0.0
 11
0.0
 21
0.0
 31
0.0
1001
ACAD
1000
ASC_BOUNDS
1002
{
1070
    19
1005
6DE1
1002
}
  0
LINE
  5
6DA7
  8
0
 10
6.766999999993232
 20
-0.0001000000000317
 30
0.0
 11
7.826999999992154
 21
2.368399999997621
 31
0.0
1001
ACAD
1000
ASC_BOUNDS
1002
{
1070
    19
1005
6DDC
1002
}
  0
LINE
  5
6DA8
  8
0
 10
0.0
 20
0.0
 30
0.0
 11
1.420999999998571
 21
0.0
 31
0.0
1001
ACAD
1000
ASC_BOUNDS
1002
{
1070
    19
1005
6DE1
1002
}
  0
LINE
  5
6DA9
  8
0
 10
4.617999999995391
 20
0.0
 30
0.0
 11
6.766999999993232
 21
0.0
 31
0.0
1001
ACAD
1000
ASC_BOUNDS
1002
{
1070
    19
1005
6DDC
1002
}
  0
LINE
  5
6DAA
  8
0
 10
11.70599999998831
 20
-0.0001000000000317
 30
0.0
 11
10.64699999998936
 21
2.368399999997621
 31
0.0
1001
ACAD
1000
ASC_BOUNDS
1002
{
1070
    19
1005
6DDC
1002
}
  0
LINE
  5
6DAB
  8
0
 10
7.826999999992154
 20
2.368399999997621
 30
0.0
 11
10.64699999998936
 21
2.368399999997621
 31
0.0
1001
ACAD
1000
ASC_BOUNDS
1002
{
1070
    19
1005
6DDC
1002
}
  0
LINE
  5
6DAC
  8
0
 10
11.70599999998831
 20
0.0
 30
0.0
 11
13.26299999998673
 21
0.0
 31
0.0
1001
ACAD
1000
ASC_BOUNDS
1002
{
1070
    19
1005
6DDC
1002
}
  0
LINE
  5
6DAD
  8
0
 10
22.15599999997789
 20
2.368399999997621
 30
0.0
 11
24.97599999997499
 21
2.368399999997621
 31
0.0
1001
ACAD
1000
ASC_BOUNDS
1002
{
1070
    19
1005
6DDE
1002
}
  0
LINE
  5
6DAE
  8
0
 10
19.53899999998043
 20
0.0
 30
0.0
 11
21.09599999997886
 21
0.0
 31
0.0
1001
ACAD
1000
ASC_BOUNDS
1002
{
1070
    19
1005
6DDE
1002
}
  0
LINE
  5
6DAF
  8
0
 10
21.09599999997886
 20
-0.0001000000000317
 30
0.0
 11
22.15599999997789
 21
2.368399999997621
 31
0.0
1001
ACAD
1000
ASC_BOUNDS
1002
{
1070
    19
1005
6DDE
1002
}
  0
LINE
  5
6DB0
  8
0
 10
26.02015566812236
 20
0.0330999999912365
 30
0.0
 11
24.97599999997499
 21
2.368399999997621
 31
0.0
1001
ACAD
1000
ASC_BOUNDS
1002
{
1070
    19
1005
6DDE
1002
}
  0
LINE
  5
6DB1
  8
0
 10
14.32399999998563
 20
3.315799999996671
 30
0.0
 11
16.46099999998353
 21
8.999899999990987
 31
0.0
1001
ACAD
1000
ASC_BOUNDS
1002
{
1070
    19
1005
6DDD
1002
}
  0
LINE
  5
6DB2
  8
0
 10
6.432999999993513
 20
8.763099999991255
 30
0.0
 11
3.181999999996833
 21
4.668599999995308
 31
0.0
1001
ACAD
1000
ASC_BOUNDS
1002
{
1070
    19
1005
6DDC
1002
}
  0
LINE
  5
6DB3
  8
0
 10
4.617999999995391
 20
8.763099999991255
 30
0.0
 11
1.420999999998571
 21
4.736799999995242
 31
0.0
1001
ACAD
1000
ASC_BOUNDS
1002
{
1070
    19
1005
6DDC
1002
}
  0
LINE
  5
6DB4
  8
0
 10
0.0
 20
8.763099999991255
 30
0.0
 11
1.420999999998571
 21
8.763099999991255
 31
0.0
1001
ACAD
1000
ASC_BOUNDS
1002
{
1070
    19
1005
6DE1
1002
}
  0
LINE
  5
6DB5
  8
0
 10
4.617999999995391
 20
8.763099999991255
 30
0.0
 11
6.432999999993513
 21
8.763099999991255
 31
0.0
1001
ACAD
1000
ASC_BOUNDS
1002
{
1070
    19
1005
6DDC
1002
}
  0
LINE
  5
6DB6
  8
0
 10
14.32399999998563
 20
3.315799999996671
 30
0.0
 11
12.02999999998792
 21
8.763099999991255
 31
0.0
1001
ACAD
1000
ASC_BOUNDS
1002
{
1070
    19
1005
6DDD
1002
}
  0
LINE
  5
6DB7
  8
0
 10
10.06399999998996
 20
3.670999999996297
 30
0.0
 11
9.236999999990758
 21
5.5200999999945
 31
0.0
1001
ACAD
1000
ASC_BOUNDS
1002
{
1070
    19
1005
6DDC
1002
}
  0
LINE
  5
6DB8
  8
0
 10
8.409999999991555
 20
3.670999999996297
 30
0.0
 11
9.236999999990758
 21
5.5200999999945
 31
0.0
1001
ACAD
1000
ASC_BOUNDS
1002
{
1070
    19
1005
6DDC
1002
}
  0
LINE
  5
6DB9
  8
0
 10
8.409999999991555
 20
3.670999999996297
 30
0.0
 11
10.06399999998996
 21
3.670999999996297
 31
0.0
1001
ACAD
1000
ASC_BOUNDS
1002
{
1070
    19
1005
6DDC
1002
}
  0
LINE
  5
6DBA
  8
0
 10
10.53899999998941
 20
8.763099999991255
 30
0.0
 11
12.02999999998792
 21
8.763099999991255
 31
0.0
1001
ACAD
1000
ASC_BOUNDS
1002
{
1070
    19
1005
6DDD
1002
}
  0
LINE
  5
6DBB
  8
0
 10
22.7389999999773
 20
3.670999999996297
 30
0.0
 11
23.56599999997638
 21
5.5200999999945
 31
0.0
1001
ACAD
1000
ASC_BOUNDS
1002
{
1070
    19
1005
6DDE
1002
}
  0
LINE
  5
6DBC
  8
0
 10
22.7389999999773
 20
3.670999999996297
 30
0.0
 11
24.39299999997559
 21
3.670999999996297
 31
0.0
1001
ACAD
1000
ASC_BOUNDS
1002
{
1070
    19
1005
6DDE
1002
}
  0
LINE
  5
6DBD
  8
0
 10
18.59799999998143
 20
3.315799999996671
 30
0.0
 11
20.89099999997916
 21
8.763099999991255
 31
0.0
1001
ACAD
1000
ASC_BOUNDS
1002
{
1070
    19
1005
6DDD
1002
}
  0
LINE
  5
6DBE
  8
0
 10
18.59799999998143
 20
3.315799999996671
 30
0.0
 11
16.46099999998353
 21
8.999899999990987
 31
0.0
1001
ACAD
1000
ASC_BOUNDS
1002
{
1070
    19
1005
6DDD
1002
}
  0
LINE
  5
6DBF
  8
0
 10
20.89099999997916
 20
8.763099999991255
 30
0.0
 11
22.38199999997767
 21
8.763099999991255
 31
0.0
1001
ACAD
1000
ASC_BOUNDS
1002
{
1070
    19
1005
6DDD
1002
}
  0
LINE
  5
6DC0
  8
0
 10
24.39299999997559
 20
3.670999999996297
 30
0.0
 11
23.56599999997638
 21
5.5200999999945
 31
0.0
1001
ACAD
1000
ASC_BOUNDS
1002
{
1070
    19
1005
6DDE
1002
}
  0
LINE
  5
6DC1
  8
0
 10
44.99999999995498
 20
-0.2368999999997641
 30
0.0
 11
40.02599999995994
 21
5.341799999994635
 31
0.0
1001
ACAD
1000
ASC_BOUNDS
1002
{
1070
    19
1005
6DE0
1002
}
  0
LINE
  5
6DC2
  8
0
 10
40.02599999995994
 20
5.341799999994635
 30
0.0
 11
40.02599999995994
 21
0.0
 31
0.0
1001
ACAD
1000
ASC_BOUNDS
1002
{
1070
    19
1005
6DE0
1002
}
  0
LINE
  5
6DC3
  8
0
 10
38.60499999996136
 20
8.999999999991019
 30
0.0
 11
38.60499999996136
 21
0.0
 31
0.0
1001
ACAD
1000
ASC_BOUNDS
1002
{
1070
    19
1005
6DE0
1002
}
  0
LINE
  5
6DC4
  8
0
 10
44.99999999995498
 20
8.763099999991255
 30
0.0
 11
44.99999999995498
 21
-0.2368999999997641
 31
0.0
1001
ACAD
1000
ASC_BOUNDS
1002
{
1070
    19
1005
6DE0
1002
}
  0
LINE
  5
6DC5
  8
0
 10
38.60499999996136
 20
0.0
 30
0.0
 11
40.02599999995994
 21
0.0
 31
0.0
1001
ACAD
1000
ASC_BOUNDS
1002
{
1070
    19
1005
6DE0
1002
}
  0
LINE
  5
6DC6
  8
0
 10
43.57899999995641
 20
3.421199999996588
 30
0.0
 11
38.60499999996136
 21
8.999899999990987
 31
0.0
1001
ACAD
1000
ASC_BOUNDS
1002
{
1070
    19
1005
6DE0
1002
}
  0
LINE
  5
6DC7
  8
0
 10
43.57899999995641
 20
8.763099999991255
 30
0.0
 11
43.57899999995641
 21
3.421199999996588
 31
0.0
1001
ACAD
1000
ASC_BOUNDS
1002
{
1070
    19
1005
6DE0
1002
}
  0
LINE
  5
6DC8
  8
0
 10
43.57899999995641
 20
8.763099999991255
 30
0.0
 11
44.99999999995498
 21
8.763099999991255
 31
0.0
1001
ACAD
1000
ASC_BOUNDS
1002
{
1070
    19
1005
6DE0
1002
}
  0
LINE
  5
6DC9
  8
0
 10
37.67199999996831
 20
8.763099999991255
 30
0.0
 11
36.23199999996837
 21
8.763099999991255
 31
0.0
  0
LINE
  5
6DCA
  8
0
 10
31.64199999996833
 20
8.763099999991255
 30
0.0
 11
31.64199999996833
 21
2.481619422925121
 31
0.0
  0
LINE
  5
6DCB
  8
0
 10
37.67199999996831
 20
8.763099999991255
 30
0.0
 11
37.67199999996831
 21
2.481619422925121
 31
0.0
  0
LINE
  5
6DCC
  8
0
 10
36.23199999996837
 20
8.763099999991255
 30
0.0
 11
36.23199999996837
 21
2.481619422925064
 31
0.0
  0
LINE
  5
6DCD
  8
0
 10
33.08199999996839
 20
8.763099999991255
 30
0.0
 11
33.08199999996839
 21
2.481619422925121
 31
0.0
  0
ARC
  5
6DCE
  8
0
 10
34.65699999996832
 20
3.183099999991214
 30
0.0
 40
3.420000000000007
 50
240.0000000000255
 51
299.9999999999766
  0
ARC
  5
6DCF
  8
0
 10
34.65699999996832
 20
3.183099999991214
 30
0.0
 40
1.97999999999999
 50
240.000000000026
 51
299.9999999999703
  0
LINE
  5
6DD0
  8
0
 10
33.08199999996828
 20
8.763099999991255
 30
0.0
 11
31.64199999996833
 21
8.763099999991255
 31
0.0
  0
ARC
  5
6DD1
  8
0
 10
35.06199999996829
 20
2.481619422925064
 30
0.0
 40
1.17
 50
299.9999999999699
 51
0.0
  0
ARC
  5
6DD2
  8
0
 10
34.25199999996835
 20
2.481619422925121
 30
0.0
 40
1.17
 50
180.0
 51
240.0000000000238
  0
ARC
  5
6DD3
  8
0
 10
35.06199999996841
 20
2.481619422925121
 30
0.0
 40
2.61
 50
299.9999999999756
 51
0.0
  0
ARC
  5
6DD4
  8
0
 10
34.25199999996835
 20
2.481619422925121
 30
0.0
 40
2.61
 50
180.0
 51
240.0000000000244
  0
LINE
  5
6DD5
  8
0
 10
29.30199999996933
 20
8.763099999991255
 30
0.0
 11
30.74199999996927
 21
8.763099999991255
 31
0.0
1001
ACAD
1000
ASC_BOUNDS
1002
{
1070
    19
1005
6DDE
1002
}
  0
LINE
  5
6DD6
  8
0
 10
30.74199999996927
 20
8.763099999991255
 30
0.0
 11
30.74199999996927
 21
2.373099999991211
 31
0.0
1001
ACAD
1000
ASC_BOUNDS
1002
{
1070
    19
1005
6DDE
1002
}
  0
LINE
  5
6DD7
  8
0
 10
26.02015566812236
 20
0.0330999999912365
 30
0.0
 11
28.40199999996923
 21
0.0330999999912365
 31
0.0
1001
ACAD
1000
ASC_BOUNDS
1002
{
1070
    19
1005
6DDE
1002
}
  0
LINE
  5
6DD8
  8
0
 10
29.30199999996933
 20
8.763099999991255
 30
0.0
 11
29.30199999996933
 21
2.283099999991236
 31
0.0
1001
ACAD
1000
ASC_BOUNDS
1002
{
1070
    19
1005
6DDE
1002
}
  0
LINE
  5
6DD9
  8
0
 10
26.97358892824991
 20
1.383099999991202
 30
0.0
 11
28.40199999996923
 21
1.383099999991202
 31
0.0
1001
ACAD
1000
ASC_BOUNDS
1002
{
1070
    19
1005
6DDE
1002
}
  0
ARC
  5
6DDA
  8
0
 10
28.40199999996923
 20
2.283099999991236
 30
0.0
 40
0.9
 50
270.0
 51
0.0
1001
ACAD
1000
ASC_BOUNDS
1002
{
1070
    19
1005
6DDE
1002
}
  0
ARC
  5
6DDB
  8
0
 10
28.40199999996923
 20
2.373099999991211
 30
0.0
 40
2.34
 50
270.0
 51
0.0
1001
ACAD
1000
ASC_BOUNDS
1002
{
1070
    19
1005
6DDE
1002
}
  0
INSERT
  5
6DDC
  8
0
  2
*X1966
 10
0.0
 20
0.0
 30
0.0
1001
ACAD
1000
HATCH
1002
{
1070
    19
1000
ANSI37
1040
0.15
1040
0.0
1000
ASC_BOUNDS
1070
     2
1070
     2
1070
    12
1005
6D9B
1005
6D9C
1005
6DA3
1005
6DB2
1005
6DB5
1005
6DB3
1005
6DA4
1005
6DA9
1005
6DA7
1005
6DAB
1005
6DAA
1005
6DAC
1070
     2
1070
     3
1005
6DB7
1005
6DB9
1005
6DB8
1000
ASC_SEEDPOINT
1011
3.614004224891801
1021
2.996669441146025
1031
0.0
1021
2.996669441146025
1031
0.0
1000
R14_HATCH_DATA
1000
6DDC
1011
1.0
1021
0.0
1031
0.0
1021
0.0
1031
0.0
1011
0.0
1021
1.0
1031
0.0
1021
1.0
1031
0.0
1011
0.0
1021
0.0
1031
1.0
1021
0.0
1031
1.0
1040
0.0
1010
0.0
1020
0.0
1030
1.0
1000
ANSI37
1070
     0
1070
     1
1071
        2
1071
        7
1070
     0
1070
     1
1071
       17
1040
13.26299999998673
1040
-0.0001000000000317
1040
9.236999999990758
1040
8.999899999990987
1040
9.236999999990758
1040
8.999999999991019
1040
5.657999999994331
1040
0.9999999999989768
1040
3.181999999996833
1040
4.668599999995308
1040
6.432999999993513
1040
8.763099999991255
1040
4.617999999995391
1040
8.763099999991255
1040
1.420999999998571
1040
4.736799999995242
1040
4.617999999995391
1040
-0.0001000000000317
1040
4.617999999995391
1040
0.0
1040
6.766999999993232
1040
0.0
1040
6.766999999993232
1040
-0.0001000000000317
1040
7.826999999992154
1040
2.368399999997621
1040
10.64699999998936
1040
2.368399999997621
1040
11.70599999998831
1040
-0.0001000000000317
1040
11.70599999998831
1040
0.0
1040
13.26299999998673
1040
0.0
1071
       12
1005
6D9B
1005
6D9C
1005
6DA3
1005
6DB2
1005
6DB5
1005
6DB3
1005
6DA4
1005
6DA9
1005
6DA7
1005
6DAB
1005
6DAA
1005
6DAC
1071
       22
1070
     0
1070
     1
1071
        3
1040
9.236999999990758
1040
5.5200999999945
1040
10.06399999998996
1040
3.670999999996297
1040
8.409999999991555
1040
3.670999999996297
1071
        3
1005
6DB7
1005
6DB9
1005
6DB8
1070
     0
1070
     1
1040
0.0
1040
0.15
1070
     0
1070
     2
1040
0.7853981633974483
1040
49.29960901727088
1040
-10.17736998311392
1040
-0.3367596045400932
1040
0.3367596045400932
1070
     0
1040
2.356194490192345
1040
49.29960901727088
1040
-10.17736998311392
1040
-0.3367596045400932
1040
-0.3367596045400932
1070
     0
1040
0.0110235143455945
1071
        2
1040
3.614004224891801
1040
2.996669441146025
1040
0.0
1040
3.614004224891801
1040
2.996669441146025
1040
0.0
1002
}
  0
INSERT
  5
6DDD
  8
0
  2
*X1967
 10
0.0
 20
0.0
 30
0.0
1001
ACAD
1000
HATCH
1002
{
1070
    19
1000
ANSI37
1040
0.15
1040
0.0
1000
ASC_BOUNDS
1070
     1
1070
     2
1070
    10
1005
6D9D
1005
6D9E
1005
6DBF
1005
6DBD
1005
6DBE
1005
6DB1
1005
6DB6
1005
6DBA
1005
6DA0
1005
6D9F
1000
ASC_SEEDPOINT
1011
14.73245321214324
1021
2.798246178283421
1031
0.0
1021
2.798246178283421
1031
0.0
1000
R14_HATCH_DATA
1000
6DDD
1011
1.0
1021
0.0
1031
0.0
1021
0.0
1031
0.0
1011
0.0
1021
1.0
1031
0.0
1021
1.0
1031
0.0
1011
0.0
1021
0.0
1031
1.0
1021
0.0
1031
1.0
1040
0.0
1010
0.0
1020
0.0
1030
1.0
1000
ANSI37
1070
     0
1070
     1
1071
        1
1071
        7
1070
     0
1070
     1
1071
       10
1040
16.46099999998353
1040
5.432899999994561
1040
18.59199999998134
1040
-0.2368999999997641
1040
22.38199999997767
1040
8.763099999991255
1040
20.89099999997916
1040
8.763099999991255
1040
18.59799999998143
1040
3.315799999996671
1040
16.46099999998353
1040
8.999899999990987
1040
14.32399999998563
1040
3.315799999996671
1040
12.02999999998792
1040
8.763099999991255
1040
10.53899999998941
1040
8.763099999991255
1040
14.32899999998563
1040
-0.2368999999997641
1071
       10
1005
6D9D
1005
6D9E
1005
6DBF
1005
6DBD
1005
6DBE
1005
6DB1
1005
6DB6
1005
6DBA
1005
6DA0
1005
6D9F
1070
     0
1070
     1
1040
0.0
1040
0.15
1070
     0
1070
     2
1040
0.7853981633974483
1040
49.29960901727088
1040
-10.17736998311392
1040
-0.3367596045400932
1040
0.3367596045400932
1070
     0
1040
2.356194490192345
1040
49.29960901727088
1040
-10.17736998311392
1040
-0.3367596045400932
1040
-0.3367596045400932
1070
     0
1040
0.0110235143455945
1071
        1
1040
14.73245321214324
1040
2.798246178283421
1040
0.0
1002
}
  0
INSERT
  5
6DDE
  8
0
  2
*X1968
 10
0.0
 20
0.0
 30
0.0
1001
ACAD
1000
HATCH
1002
{
1070
    19
1000
ANSI37
1040
0.15
1040
0.0
1000
ASC_BOUNDS
1070
     2
1070
     2
1070
    13
1005
6DA1
1005
6DAE
1005
6DAF
1005
6DAD
1005
6DB0
1005
6DD7
1005
6DDB
1005
6DD6
1005
6DD5
1005
6DD8
1005
6DDA
1005
6DD9
1005
6DA2
1070
     2
1070
     3
1005
6DBB
1005
6DC0
1005
6DBC
1000
ASC_SEEDPOINT
1011
21.97929957367762
1021
3.294304244259308
1031
0.0
1021
3.294304244259308
1031
0.0
1000
R14_HATCH_DATA
1000
6DDE
1011
1.0
1021
0.0
1031
0.0
1021
0.0
1031
0.0
1011
0.0
1021
1.0
1031
0.0
1021
1.0
1031
0.0
1011
0.0
1021
0.0
1031
1.0
1021
0.0
1031
1.0
1040
0.0
1010
0.0
1020
0.0
1030
1.0
1000
ANSI37
1070
     0
1070
     1
1071
        2
1071
        7
1070
     1
1070
     1
1071
       15
1040
23.56599999997638
1040
8.999899999990987
1040
0.0
1040
19.53899999998043
1040
-0.0001000000000317
1040
0.0
1040
19.53899999998043
1040
0.0
1040
0.0
1040
21.09599999997886
1040
0.0
1040
0.0
1040
21.09599999997886
1040
-0.0001000000000317
1040
0.0
1040
22.15599999997789
1040
2.368399999997621
1040
0.0
1040
24.97599999997499
1040
2.368399999997621
1040
0.0
1040
26.02015566812236
1040
0.0330999999912365
1040
0.0
1040
28.40199999996923
1040
0.0330999999912365
1040
0.414213562373095
1040
30.74199999996923
1040
2.373099999991211
1040
0.0
1040
30.74199999996927
1040
8.763099999991255
1040
0.0
1040
29.30199999996933
1040
8.763099999991255
1040
0.0
1040
29.30199999996933
1040
2.283099999991236
1040
-0.414213562373095
1040
28.40199999996923
1040
1.383099999991237
1040
0.0
1040
26.97358892824991
1040
1.383099999991202
1040
0.0
1071
       13
1005
6DA1
1005
6DAE
1005
6DAF
1005
6DAD
1005
6DB0
1005
6DD7
1005
6DDB
1005
6DD6
1005
6DD5
1005
6DD8
1005
6DDA
1005
6DD9
1005
6DA2
1071
       22
1070
     0
1070
     1
1071
        3
1040
22.7389999999773
1040
3.670999999996297
1040
23.56599999997638
1040
5.5200999999945
1040
24.39299999997559
1040
3.670999999996297
1071
        3
1005
6DBB
1005
6DC0
1005
6DBC
1070
     0
1070
     1
1040
0.0
1040
0.15
1070
     0
1070
     2
1040
0.7853981633974483
1040
49.29960901727088
1040
-10.17736998311392
1040
-0.3367596045400932
1040
0.3367596045400932
1070
     0
1040
2.356194490192345
1040
49.29960901727088
1040
-10.17736998311392
1040
-0.3367596045400932
1040
-0.3367596045400932
1070
     0
1040
0.0110235143455945
1071
        2
1040
21.97929957367762
1040
3.294304244259308
1040
0.0
1040
21.97929957367762
1040
3.294304244259308
1040
0.0
1002
}
  0
INSERT
  5
6DDF
  8
0
  2
*X1969
 10
0.0
 20
0.0
 30
0.0
1001
ACAD
1000
HATCH
1002
{
1070
    19
1000
ANSI37
1040
0.15
1040
0.0
1000
R14_HATCH_DATA
1000
6DDF
1011
1.0
1021
0.0
1031
0.0
1021
0.0
1031
0.0
1011
0.0
1021
1.0
1031
0.0
1021
1.0
1031
0.0
1011
0.0
1021
0.0
1031
1.0
1021
0.0
1031
1.0
1040
0.0
1010
0.0
1020
0.0
1030
1.0
1000
ANSI37
1070
     0
1070
     1
1071
        1
1071
        7
1070
     1
1070
     1
1071
       12
1040
31.64199999996833
1040
2.481619422925121
1040
0.2679491924310942
1040
32.94699999997067
1040
0.2212931190493919
1040
0.2679491924301353
1040
36.36699999995983
1040
0.2212931190459813
1040
0.2679491924321411
1040
37.67199999996831
1040
2.481619422928361
1040
0.0
1040
37.67199999996831
1040
8.763099999991255
1040
0.0
1040
36.23199999996837
1040
8.763099999991255
1040
0.0
1040
36.23199999996837
1040
2.481619422925064
1040
-0.2679491924310291
1040
35.64699999996708
1040
1.468369700498386
1040
-0.267949192430519
1040
33.66699999997093
1040
1.468369700497703
1040
-0.267949192431809
1040
33.08199999996839
1040
2.481619422926997
1040
0.0
1040
33.08199999996839
1040
8.763099999991255
1040
0.0
1040
31.64199999996833
1040
8.763099999991255
1040
0.0
1071
        0
1070
     0
1070
     1
1040
0.0
1040
0.15
1070
     0
1070
     2
1040
0.7853981633974483
1040
49.29960901727088
1040
-10.17736998311392
1040
-0.3367596045400932
1040
0.3367596045400932
1070
     0
1040
2.356194490192345
1040
49.29960901727088
1040
-10.17736998311392
1040
-0.3367596045400932
1040
-0.3367596045400932
1070
     0
1040
0.0110235143455945
1071
        1
1040
32.30357378967278
1040
3.988785755459219
1040
0.0
1002
}
  0
INSERT
  5
6DE0
  8
0
  2
*X1970
 10
0.0
 20
0.0
 30
0.0
1001
ACAD
1000
HATCH
1002
{
1070
    19
1000
ANSI37
1040
0.15
1040
0.0
1000
ASC_BOUNDS
1070
     1
1070
     2
1070
     8
1005
6DC1
1005
6DC4
1005
6DC8
1005
6DC7
1005
6DC6
1005
6DC3
1005
6DC5
1005
6DC2
1000
ASC_SEEDPOINT
1011
39.74896370716704
1021
4.484843821435049
1031
0.0
1021
4.484843821435049
1031
0.0
1000
R14_HATCH_DATA
1000
6DE0
1011
1.0
1021
0.0
1031
0.0
1021
0.0
1031
0.0
1011
0.0
1021
1.0
1031
0.0
1021
1.0
1031
0.0
1011
0.0
1021
0.0
1031
1.0
1021
0.0
1031
1.0
1040
0.0
1010
0.0
1020
0.0
1030
1.0
1000
ANSI37
1070
     0
1070
     1
1071
        1
1071
        7
1070
     0
1070
     1
1071
        9
1040
40.02599999995994
1040
5.341799999994635
1040
44.99999999995498
1040
-0.2368999999997641
1040
44.99999999995498
1040
8.763099999991255
1040
43.57899999995641
1040
8.763099999991255
1040
43.57899999995641
1040
3.421199999996588
1040
38.60499999996136
1040
8.999899999990987
1040
38.60499999996136
1040
8.999999999991019
1040
38.60499999996136
1040
0.0
1040
40.02599999995994
1040
0.0
1071
        8
1005
6DC1
1005
6DC4
1005
6DC8
1005
6DC7
1005
6DC6
1005
6DC3
1005
6DC5
1005
6DC2
1070
     0
1070
     1
1040
0.0
1040
0.15
1070
     0
1070
     2
1040
0.7853981633974483
1040
49.29960901727088
1040
-10.17736998311392
1040
-0.3367596045400932
1040
0.3367596045400932
1070
     0
1040
2.356194490192345
1040
49.29960901727088
1040
-10.17736998311392
1040
-0.3367596045400932
1040
-0.3367596045400932
1070
     0
1040
0.0110235143455945
1071
        1
1040
39.74896370716704
1040
4.484843821435049
1040
0.0
1002
}
  0
INSERT
  5
6DE1
  8
0
  2
*X1971
 10
0.0
 20
0.0
 30
0.0
1001
ACAD
1000
HATCH
1002
{
1070
    19
1000
ANSI37
1040
0.15
1040
0.0
1000
ASC_BOUNDS
1070
     1
1070
     2
1070
     4
1005
6DA5
1005
6DB4
1005
6DA6
1005
6DA8
1000
ASC_SEEDPOINT
1011
1.079051535452663
1021
4.148538732891836
1031
0.0
1021
4.148538732891836
1031
0.0
1000
R14_HATCH_DATA
1000
6DE1
1011
1.0
1021
0.0
1031
0.0
1021
0.0
1031
0.0
1011
0.0
1021
1.0
1031
0.0
1021
1.0
1031
0.0
1011
0.0
1021
0.0
1031
1.0
1021
0.0
1031
1.0
1040
0.0
1010
0.0
1020
0.0
1030
1.0
1000
ANSI37
1070
     0
1070
     1
1071
        1
1071
        7
1070
     0
1070
     1
1071
        4
1040
1.420999999998571
1040
0.0
1040
1.420999999998571
1040
8.763099999991255
1040
0.0
1040
8.763099999991255
1040
0.0
1040
0.0
1071
        4
1005
6DA5
1005
6DB4
1005
6DA6
1005
6DA8
1070
     0
1070
     1
1040
0.0
1040
0.15
1070
     0
1070
     2
1040
0.7853981633974483
1040
49.29960901727088
1040
-10.17736998311392
1040
-0.3367596045400932
1040
0.3367596045400932
1070
     0
1040
2.356194490192345
1040
49.29960901727088
1040
-10.17736998311392
1040
-0.3367596045400932
1040
-0.3367596045400932
1070
     0
1040
0.0053004257112761
1071
        1
1040
1.079051535452663
1040
4.148538732891836
1040
0.0
1002
}
  0
ENDBLK
  5
FB1D
  8
0
  0
BLOCK
  8
0
  2
NO3CIRCLE
 70
     2
 10
0.0
 20
0.0
 30
0.0
  3
NO3CIRCLE
  1

  0
CIRCLE
  5
1BCD7
  8
0
  6
BYBLOCK
 62
     0
 10
0.0
 20
0.0
 30
0.0
 40
4.2
  0
ATTDEF
  5
1BCD8
  8
1TEXT
 10
-3.428571428571428
 20
-2.0
 30
0.0
 40
4.0
  1
000
 41
0.6
  7
STANDARD06
 72
     4
 11
0.0
 21
0.0
 31
0.0
  3
NO3
  2
NO3
 70
     0
  0
ENDBLK
  5
1BFFA
  8
0
  0
BLOCK
  8
0
  2
*X1966
 70
     1
 10
0.0
 20
0.0
 30
0.0
  3
*X1966
  1

  0
LINE
  5
1C897
  8
0
  6
CONTINUOUS
 10
3.418023043697893
 20
7.251849696850613
 30
0.0
 11
4.929273346838536
 21
8.763099999991255
 31
0.0
  0
LINE
  5
1C898
  8
0
  6
CONTINUOUS
 10
1.483656411257782
 20
4.643963855330318
 30
0.0
 11
5.60279255591872
 21
8.763099999991255
 31
0.0
  0
LINE
  5
1C899
  8
0
  6
CONTINUOUS
 10
1.755053947328235
 20
4.241842182320584
 30
0.0
 11
6.276311764998907
 21
8.763099999991255
 31
0.0
  0
LINE
  5
1C89A
  8
0
  6
CONTINUOUS
 10
2.026451483398688
 20
3.839720509310849
 30
0.0
 11
4.441040904851878
 21
6.254309930764039
 31
0.0
  0
LINE
  5
1C89B
  8
0
  6
CONTINUOUS
 10
2.297849019469139
 20
3.437598836301114
 30
0.0
 11
3.321765168359338
 21
4.461514985191313
 31
0.0
  0
LINE
  5
1C89C
  8
0
  6
CONTINUOUS
 10
2.569246555539591
 20
3.03547716329138
 30
0.0
 11
3.593163397972743
 21
4.059394005724531
 31
0.0
  0
LINE
  5
1C89D
  8
0
  6
CONTINUOUS
 10
2.840644091610043
 20
2.633355490281646
 30
0.0
 11
3.864561627586149
 21
3.657273026257751
 31
0.0
  0
LINE
  5
1C89E
  8
0
  6
CONTINUOUS
 10
3.112041627680496
 20
2.231233817271911
 30
0.0
 11
4.135959857199554
 21
3.25515204679097
 31
0.0
  0
LINE
  5
1C89F
  8
0
  6
CONTINUOUS
 10
3.383439163750948
 20
1.829112144262177
 30
0.0
 11
4.40735808681296
 21
2.853031067324189
 31
0.0
  0
LINE
  5
1C8A0
  8
0
  6
CONTINUOUS
 10
3.654836699821399
 20
1.426990471252442
 30
0.0
 11
4.678756316426365
 21
2.450910087857407
 31
0.0
  0
LINE
  5
1C8A1
  8
0
  6
CONTINUOUS
 10
3.926234235891853
 20
1.024868798242709
 30
0.0
 11
4.95015454603977
 21
2.048789108390626
 31
0.0
  0
LINE
  5
1C8A2
  8
0
  6
CONTINUOUS
 10
4.197631771962304
 20
0.6227471252329737
 30
0.0
 11
5.221552775653176
 21
1.646668128923846
 31
0.0
  0
LINE
  5
1C8A3
  8
0
  6
CONTINUOUS
 10
8.715877546767851
 20
7.835069736359266
 30
0.0
 11
9.435953450375058
 21
8.555145639966472
 31
0.0
  0
LINE
  5
1C8A4
  8
0
  6
CONTINUOUS
 10
8.170620868422267
 20
6.616293848933497
 30
0.0
 11
9.644120833743461
 21
8.08979381425469
 31
0.0
  0
LINE
  5
1C8A5
  8
0
  6
CONTINUOUS
 10
7.625364190076684
 20
5.397517961507727
 30
0.0
 11
9.852288217111864
 21
7.624441988542907
 31
0.0
  0
LINE
  5
1C8A6
  8
0
  6
CONTINUOUS
 10
7.080107511731101
 20
4.178742074081957
 30
0.0
 11
10.06045560048027
 21
7.159090162831124
 31
0.0
  0
LINE
  5
1C8A7
  8
0
  6
CONTINUOUS
 10
6.534850833385518
 20
2.959966186656187
 30
0.0
 11
10.26862298384867
 21
6.693738337119342
 31
0.0
  0
LINE
  5
1C8A8
  8
0
  6
CONTINUOUS
 10
4.469029308032756
 20
0.2206254522232385
 30
0.0
 11
5.492951005266582
 21
1.244547149457064
 31
0.0
  0
LINE
  5
1C8A9
  8
0
  6
CONTINUOUS
 10
5.989594155039935
 20
1.741190299230417
 30
0.0
 11
8.806950407233131
 21
4.558546551423613
 31
0.0
  0
LINE
  5
1C8AA
  8
0
  6
CONTINUOUS
 10
9.401251593263643
 20
5.152847737454126
 30
0.0
 11
10.47679036721708
 21
6.228386511407559
 31
0.0
  0
LINE
  5
1C8AB
  8
0
  6
CONTINUOUS
 10
4.921837203428691
 20
-0.0000858614610131
 30
0.0
 11
8.592923064886001
 21
3.670999999996297
 31
0.0
  0
LINE
  5
1C8AC
  8
0
  6
CONTINUOUS
 10
9.609390446785305
 20
4.6874673818956
 30
0.0
 11
10.68495775058548
 21
5.763034685695775
 31
0.0
  0
LINE
  5
1C8AD
  8
0
  6
CONTINUOUS
 10
5.595387755019432
 20
-0.0000545189504582
 30
0.0
 11
7.716137258923768
 21
2.120694984953879
 31
0.0
  0
LINE
  5
1C8AE
  8
0
  6
CONTINUOUS
 10
6.268938306610172
 20
-0.000023176439905
 30
0.0
 11
7.170485805526503
 21
0.9015243224764267
 31
0.0
  0
LINE
  5
1C8AF
  8
0
  6
CONTINUOUS
 10
7.963842273967511
 20
2.368399999997621
 30
0.0
 11
9.266442273966188
 21
3.670999999996297
 31
0.0
  0
LINE
  5
1C8B0
  8
0
  6
CONTINUOUS
 10
8.637361483047696
 20
2.368399999997621
 30
0.0
 11
9.939961483046375
 21
3.670999999996297
 31
0.0
  0
LINE
  5
1C8B1
  8
0
  6
CONTINUOUS
 10
9.817529300306965
 20
4.222087026337075
 30
0.0
 11
10.89312513395388
 21
5.297682859983993
 31
0.0
  0
LINE
  5
1C8B2
  8
0
  6
CONTINUOUS
 10
10.02566815382863
 20
3.756706670778549
 30
0.0
 11
11.10129251732229
 21
4.832331034272211
 31
0.0
  0
LINE
  5
1C8B3
  8
0
  6
CONTINUOUS
 10
9.310880692127883
 20
2.368399999997621
 30
0.0
 11
11.30945990069069
 21
4.366979208560428
 31
0.0
  0
LINE
  5
1C8B4
  8
0
  6
CONTINUOUS
 10
9.98439990120807
 20
2.36839999999762
 30
0.0
 11
11.5176272840591
 21
3.901627382848645
 31
0.0
  0
LINE
  5
1C8B5
  8
0
  6
CONTINUOUS
 10
10.65037369446246
 20
2.36085458417182
 30
0.0
 11
11.7257946674275
 21
3.436275557136862
 31
0.0
  0
LINE
  5
1C8B6
  8
0
  6
CONTINUOUS
 10
10.85847197087848
 20
1.895433651507656
 30
0.0
 11
11.9339620507959
 21
2.97092373142508
 31
0.0
  0
LINE
  5
1C8B7
  8
0
  6
CONTINUOUS
 10
11.0665702472945
 20
1.430012718843491
 30
0.0
 11
12.14212943416431
 21
2.505571905713296
 31
0.0
  0
LINE
  5
1C8B8
  8
0
  6
CONTINUOUS
 10
11.27466852371052
 20
0.9645917861793256
 30
0.0
 11
12.35029681753271
 21
2.040220080001513
 31
0.0
  0
LINE
  5
1C8B9
  8
0
  6
CONTINUOUS
 10
11.48276680012654
 20
0.4991708535151611
 30
0.0
 11
12.55846420090111
 21
1.57486825428973
 31
0.0
  0
LINE
  5
1C8BA
  8
0
  6
CONTINUOUS
 10
11.69086507654257
 20
0.0337499208509957
 30
0.0
 11
12.76663158426952
 21
1.109516428577947
 31
0.0
  0
LINE
  5
1C8BB
  8
0
  6
CONTINUOUS
 10
12.33057447873954
 20
-0.0000598860322123
 30
0.0
 11
12.97479896763792
 21
0.6441646028661663
 31
0.0
  0
LINE
  5
1C8BC
  8
0
  6
CONTINUOUS
 10
13.00413694809395
 20
-0.0000166257579952
 30
0.0
 11
13.18296635100632
 21
0.1788127771543824
 31
0.0
  0
LINE
  5
1C8BD
  8
0
  6
CONTINUOUS
 10
4.772852165289667
 20
-0.000092794222212
 30
0.0
 11
4.296495091028902
 21
0.4762642800385528
 31
0.0
  0
LINE
  5
1C8BE
  8
0
  6
CONTINUOUS
 10
5.446340034776103
 20
-0.0000614546284616
 30
0.0
 11
2.898195908335625
 21
2.548082671812017
 31
0.0
  0
LINE
  5
1C8BF
  8
0
  6
CONTINUOUS
 10
6.119827904262539
 20
-0.0000301150347113
 30
0.0
 11
1.499896725642348
 21
4.61990106358548
 31
0.0
  0
LINE
  5
1C8C0
  8
0
  6
CONTINUOUS
 10
6.775136745476159
 20
0.0181802528318542
 30
0.0
 11
5.699826040202669
 21
1.093490958105344
 31
0.0
  0
LINE
  5
1C8C1
  8
0
  6
CONTINUOUS
 10
6.983376846288489
 20
0.4834593610997118
 30
0.0
 11
5.908008617934405
 21
1.558827589453796
 31
0.0
  0
LINE
  5
1C8C2
  8
0
  6
CONTINUOUS
 10
5.377063484962296
 20
1.416253513345719
 30
0.0
 11
1.702276957014131
 21
5.091040041293883
 31
0.0
  0
LINE
  5
1C8C3
  8
0
  6
CONTINUOUS
 10
3.978745891735324
 20
3.488090315652877
 30
0.0
 11
2.000373521109399
 21
5.466462686278803
 31
0.0
  0
LINE
  5
1C8C4
  8
0
  6
CONTINUOUS
 10
7.191616947100819
 20
0.948738469367568
 30
0.0
 11
6.11619119566614
 21
2.024164220802247
 31
0.0
  0
LINE
  5
1C8C5
  8
0
  6
CONTINUOUS
 10
7.399857047913149
 20
1.414017577635424
 30
0.0
 11
6.324373773397875
 21
2.489500852150698
 31
0.0
  0
LINE
  5
1C8C6
  8
0
  6
CONTINUOUS
 10
7.608097148725479
 20
1.879296685903281
 30
0.0
 11
6.53255635112961
 21
2.95483748349915
 31
0.0
  0
LINE
  5
1C8C7
  8
0
  6
CONTINUOUS
 10
7.816337249537808
 20
2.344575794171138
 30
0.0
 11
6.740738928861345
 21
3.420174114847601
 31
0.0
  0
LINE
  5
1C8C8
  8
0
  6
CONTINUOUS
 10
3.310241080789734
 20
4.830114335678653
 30
0.0
 11
2.298470085204666
 21
5.84188533126372
 31
0.0
  0
LINE
  5
1C8C9
  8
0
  6
CONTINUOUS
 10
3.60832983563551
 20
5.205544789913063
 30
0.0
 11
2.596566649299935
 21
6.217307976248638
 31
0.0
  0
LINE
  5
1C8CA
  8
0
  6
CONTINUOUS
 10
3.906418590481286
 20
5.580975244147473
 30
0.0
 11
2.894663213395203
 21
6.592730621233557
 31
0.0
  0
LINE
  5
1C8CB
  8
0
  6
CONTINUOUS
 10
4.204507345327062
 20
5.956405698381884
 30
0.0
 11
3.192759777490472
 21
6.968153266218474
 31
0.0
  0
LINE
  5
1C8CC
  8
0
  6
CONTINUOUS
 10
8.466032252791512
 20
2.368399999997621
 30
0.0
 11
6.948921506593081
 21
3.885510746196053
 31
0.0
  0
LINE
  5
1C8CD
  8
0
  6
CONTINUOUS
 10
9.139551461871699
 20
2.36839999999762
 30
0.0
 11
7.157104084324816
 21
4.350847377544504
 31
0.0
  0
LINE
  5
1C8CE
  8
0
  6
CONTINUOUS
 10
4.502596100172839
 20
6.331836152616295
 30
0.0
 11
3.49085634158574
 21
7.343575911203393
 31
0.0
  0
LINE
  5
1C8CF
  8
0
  6
CONTINUOUS
 10
4.800684855018615
 20
6.707266606850705
 30
0.0
 11
3.788952905681008
 21
7.718998556188312
 31
0.0
  0
LINE
  5
1C8D0
  8
0
  6
CONTINUOUS
 10
12.18154012887317
 20
-0.0000694579236642
 30
0.0
 11
11.32140332908496
 21
0.8600673418645499
 31
0.0
  0
LINE
  5
1C8D1
  8
0
  6
CONTINUOUS
 10
12.85501608323566
 20
-0.0000262032059659
 30
0.0
 11
10.77672456435345
 21
2.078265315676246
 31
0.0
  0
LINE
  5
1C8D2
  8
0
  6
CONTINUOUS
 10
9.813070670951886
 20
2.36839999999762
 30
0.0
 11
8.51047067095321
 21
3.670999999996297
 31
0.0
  0
LINE
  5
1C8D3
  8
0
  6
CONTINUOUS
 10
10.48658988003207
 20
2.36839999999762
 30
0.0
 11
9.183989880033396
 21
3.670999999996297
 31
0.0
  0
LINE
  5
1C8D4
  8
0
  6
CONTINUOUS
 10
8.441048632286794
 20
3.740422038662712
 30
0.0
 11
7.365286662056551
 21
4.816184008892956
 31
0.0
  0
LINE
  5
1C8D5
  8
0
  6
CONTINUOUS
 10
8.649187485808454
 20
4.205802394221237
 30
0.0
 11
7.573469239788285
 21
5.281520640241407
 31
0.0
  0
LINE
  5
1C8D6
  8
0
  6
CONTINUOUS
 10
5.098773609864391
 20
7.082697061085115
 30
0.0
 11
4.087049469776277
 21
8.09442120117323
 31
0.0
  0
LINE
  5
1C8D7
  8
0
  6
CONTINUOUS
 10
5.396862364710167
 20
7.458127515319526
 30
0.0
 11
4.385146033871544
 21
8.469843846158149
 31
0.0
  0
LINE
  5
1C8D8
  8
0
  6
CONTINUOUS
 10
13.04801363231285
 20
0.4804954567970334
 30
0.0
 11
9.85750908911358
 21
3.670999999996297
 31
0.0
  0
LINE
  5
1C8D9
  8
0
  6
CONTINUOUS
 10
8.857326339330116
 20
4.671182749779763
 30
0.0
 11
7.781651817520021
 21
5.746857271589858
 31
0.0
  0
LINE
  5
1C8DA
  8
0
  6
CONTINUOUS
 10
5.694951119555943
 20
7.833557969553937
 30
0.0
 11
4.765409089118624
 21
8.763099999991255
 31
0.0
  0
LINE
  5
1C8DB
  8
0
  6
CONTINUOUS
 10
12.50286117236978
 20
1.699167125820288
 30
0.0
 11
9.68611877250287
 21
4.515909525687196
 31
0.0
  0
LINE
  5
1C8DC
  8
0
  6
CONTINUOUS
 10
9.065465192851777
 20
5.136563105338288
 30
0.0
 11
7.989834395251757
 21
6.21219390293831
 31
0.0
  0
LINE
  5
1C8DD
  8
0
  6
CONTINUOUS
 10
5.993039874401719
 20
8.208988423788346
 30
0.0
 11
5.43892829819881
 21
8.763099999991255
 31
0.0
  0
LINE
  5
1C8DE
  8
0
  6
CONTINUOUS
 10
11.95770871242671
 20
2.917838794843543
 30
0.0
 11
8.19801697298349
 21
6.677530534286761
 31
0.0
  0
LINE
  5
1C8DF
  8
0
  6
CONTINUOUS
 10
6.291128629247495
 20
8.584418878022756
 30
0.0
 11
6.112447507278997
 21
8.763099999991255
 31
0.0
  0
LINE
  5
1C8E0
  8
0
  6
CONTINUOUS
 10
11.41255625248364
 20
4.136510463866797
 30
0.0
 11
8.406199550715227
 21
7.142867165635211
 31
0.0
  0
LINE
  5
1C8E1
  8
0
  6
CONTINUOUS
 10
10.86740379254057
 20
5.355182132890051
 30
0.0
 11
8.614382128446962
 21
7.608203796983664
 31
0.0
  0
LINE
  5
1C8E2
  8
0
  6
CONTINUOUS
 10
10.3222513325975
 20
6.573853801913305
 30
0.0
 11
8.822564706178696
 21
8.073540428332114
 31
0.0
  0
LINE
  5
1C8E3
  8
0
  6
CONTINUOUS
 10
9.777098872654436
 20
7.792525470936562
 30
0.0
 11
9.030747283910433
 21
8.538877059680566
 31
0.0
  0
ENDBLK
  5
1CA24
  8
0
  0
BLOCK
  8
0
  2
*X1967
 70
     1
 10
0.0
 20
0.0
 30
0.0
  3
*X1967
  1

  0
LINE
  5
1C8E5
  8
0
  6
CONTINUOUS
 10
10.67292308101235
 20
8.445076852443387
 30
0.0
 11
10.99094622856022
 21
8.763099999991255
 31
0.0
  0
LINE
  5
1C8E6
  8
0
  6
CONTINUOUS
 10
10.87250383178748
 20
7.971138394138331
 30
0.0
 11
11.6644654376404
 21
8.763099999991255
 31
0.0
  0
LINE
  5
1C8E7
  8
0
  6
CONTINUOUS
 10
11.07208458256261
 20
7.497199935833273
 30
0.0
 11
12.12126590876355
 21
8.546381262034211
 31
0.0
  0
LINE
  5
1C8E8
  8
0
  6
CONTINUOUS
 10
11.27166533333774
 20
7.023261477528216
 30
0.0
 11
12.32085164573666
 21
8.072447789927136
 31
0.0
  0
LINE
  5
1C8E9
  8
0
  6
CONTINUOUS
 10
11.47124608411287
 20
6.549323019223158
 30
0.0
 11
12.52043738270977
 21
7.59851431782006
 31
0.0
  0
LINE
  5
1C8EA
  8
0
  6
CONTINUOUS
 10
11.670826834888
 20
6.075384560918101
 30
0.0
 11
12.72002311968288
 21
7.124580845712984
 31
0.0
  0
LINE
  5
1C8EB
  8
0
  6
CONTINUOUS
 10
11.87040758566313
 20
5.601446102613043
 30
0.0
 11
12.91960885665599
 21
6.650647373605907
 31
0.0
  0
LINE
  5
1C8EC
  8
0
  6
CONTINUOUS
 10
12.06998833643825
 20
5.127507644307986
 30
0.0
 11
13.1191945936291
 21
6.176713901498832
 31
0.0
  0
LINE
  5
1C8ED
  8
0
  6
CONTINUOUS
 10
12.26956908721338
 20
4.65356918600293
 30
0.0
 11
13.31878033060221
 21
5.702780429391757
 31
0.0
  0
LINE
  5
1C8EE
  8
0
  6
CONTINUOUS
 10
12.46914983798851
 20
4.179630727697873
 30
0.0
 11
13.51836606757532
 21
5.228846957284683
 31
0.0
  0
LINE
  5
1C8EF
  8
0
  6
CONTINUOUS
 10
12.66873058876364
 20
3.705692269392816
 30
0.0
 11
13.71795180454843
 21
4.754913485177607
 31
0.0
  0
LINE
  5
1C8F0
  8
0
  6
CONTINUOUS
 10
12.86831133953877
 20
3.231753811087759
 30
0.0
 11
13.91753754152154
 21
4.280980013070531
 31
0.0
  0
LINE
  5
1C8F1
  8
0
  6
CONTINUOUS
 10
13.0678920903139
 20
2.757815352782702
 30
0.0
 11
14.11712327849465
 21
3.807046540963456
 31
0.0
  0
LINE
  5
1C8F2
  8
0
  6
CONTINUOUS
 10
13.26747284108903
 20
2.283876894477644
 30
0.0
 11
14.31670901546777
 21
3.333113068856379
 31
0.0
  0
LINE
  5
1C8F3
  8
0
  6
CONTINUOUS
 10
16.36767838827179
 20
8.751678487061342
 30
0.0
 11
16.50332410898388
 21
8.887324207773432
 31
0.0
  0
LINE
  5
1C8F4
  8
0
  6
CONTINUOUS
 10
15.96190732182191
 20
7.67238821153127
 30
0.0
 11
16.68735328004734
 21
8.397834169756699
 31
0.0
  0
LINE
  5
1C8F5
  8
0
  6
CONTINUOUS
 10
15.55613625537202
 20
6.593097936001196
 30
0.0
 11
16.87138245111079
 21
7.908344131739965
 31
0.0
  0
LINE
  5
1C8F6
  8
0
  6
CONTINUOUS
 10
15.15036518892213
 20
5.513807660471122
 30
0.0
 11
17.05541162217424
 21
7.418854093723231
 31
0.0
  0
LINE
  5
1C8F7
  8
0
  6
CONTINUOUS
 10
14.74459412247225
 20
4.434517384941048
 30
0.0
 11
17.2394407932377
 21
6.929364055706499
 31
0.0
  0
LINE
  5
1C8F8
  8
0
  6
CONTINUOUS
 10
14.33882305602236
 20
3.355227109410975
 30
0.0
 11
17.42346996430115
 21
6.439874017689766
 31
0.0
  0
LINE
  5
1C8F9
  8
0
  6
CONTINUOUS
 10
13.46705359186416
 20
1.809938436172586
 30
0.0
 11
16.0819338255367
 21
4.424818669845129
 31
0.0
  0
LINE
  5
1C8FA
  8
0
  6
CONTINUOUS
 10
16.63283254238972
 20
4.975717386698149
 30
0.0
 11
17.60749913536461
 21
5.950383979673033
 31
0.0
  0
LINE
  5
1C8FB
  8
0
  6
CONTINUOUS
 10
13.66663434263929
 20
1.335999977867529
 30
0.0
 11
15.67604797733754
 21
3.345413612565779
 31
0.0
  0
LINE
  5
1C8FC
  8
0
  6
CONTINUOUS
 10
13.86621509341442
 20
0.8620615195624723
 30
0.0
 11
15.27016212913838
 21
2.26600855528643
 31
0.0
  0
LINE
  5
1C8FD
  8
0
  6
CONTINUOUS
 10
16.81682257348267
 20
4.486188208710908
 30
0.0
 11
17.79152830642806
 21
5.460893941656299
 31
0.0
  0
LINE
  5
1C8FE
  8
0
  6
CONTINUOUS
 10
17.00081260457561
 20
3.996659030723667
 30
0.0
 11
17.97555747749151
 21
4.971403903639565
 31
0.0
  0
LINE
  5
1C8FF
  8
0
  6
CONTINUOUS
 10
20.74362343514722
 20
8.412989070375462
 30
0.0
 11
21.09373436476302
 21
8.763099999991256
 31
0.0
  0
LINE
  5
1C900
  8
0
  6
CONTINUOUS
 10
20.25401257174777
 20
7.249858997895826
 30
0.0
 11
21.7672535738432
 21
8.763099999991255
 31
0.0
  0
LINE
  5
1C901
  8
0
  6
CONTINUOUS
 10
14.06579584418955
 20
0.3881230612574149
 30
0.0
 11
14.86427628093921
 21
1.186603498007082
 31
0.0
  0
LINE
  5
1C902
  8
0
  6
CONTINUOUS
 10
14.26537659496467
 20
-0.0858153970476412
 30
0.0
 11
14.45839043274005
 21
0.1071984407277329
 31
0.0
  0
LINE
  5
1C903
  8
0
  6
CONTINUOUS
 10
17.18480263566856
 20
3.507129852736426
 30
0.0
 11
18.15958664855496
 21
4.481913865622833
 31
0.0
  0
LINE
  5
1C904
  8
0
  6
CONTINUOUS
 10
17.3687926667615
 20
3.017600674749186
 30
0.0
 11
18.34361581961842
 21
3.9924238276061
 31
0.0
  0
LINE
  5
1C905
  8
0
  6
CONTINUOUS
 10
19.76440170834832
 20
6.086728925416191
 30
0.0
 11
22.33924590259489
 21
8.661573119662755
 31
0.0
  0
LINE
  5
1C906
  8
0
  6
CONTINUOUS
 10
19.27479084494887
 20
4.923598852936555
 30
0.0
 11
21.84929622842713
 21
7.498104236414807
 31
0.0
  0
LINE
  5
1C907
  8
0
  6
CONTINUOUS
 10
17.55278269785445
 20
2.528071496761945
 30
0.0
 11
18.52764499068187
 21
3.502933789589366
 31
0.0
  0
LINE
  5
1C908
  8
0
  6
CONTINUOUS
 10
18.78517998154942
 20
3.760468780456919
 30
0.0
 11
21.35934655425936
 21
6.33463535316686
 31
0.0
  0
LINE
  5
1C909
  8
0
  6
CONTINUOUS
 10
17.73677272894739
 20
2.038542318774704
 30
0.0
 11
20.8693968800916
 21
5.171166469918914
 31
0.0
  0
LINE
  5
1C90A
  8
0
  6
CONTINUOUS
 10
17.92076276004034
 20
1.549013140787464
 30
0.0
 11
20.37944720592384
 21
4.007697586670968
 31
0.0
  0
LINE
  5
1C90B
  8
0
  6
CONTINUOUS
 10
18.10475279113329
 20
1.059483962800223
 30
0.0
 11
19.88949753175608
 21
2.84422870342302
 31
0.0
  0
LINE
  5
1C90C
  8
0
  6
CONTINUOUS
 10
18.28874282222623
 20
0.5699547848129822
 30
0.0
 11
19.39954785758832
 21
1.680759820175074
 31
0.0
  0
LINE
  5
1C90D
  8
0
  6
CONTINUOUS
 10
18.47273285331918
 20
0.0804256068257416
 30
0.0
 11
18.90959818342056
 21
0.517290936927127
 31
0.0
  0
LINE
  5
1C90E
  8
0
  6
CONTINUOUS
 10
14.3590401358224
 20
-0.1570118376323384
 30
0.0
 11
14.24903296539946
 21
-0.0470046672093929
 31
0.0
  0
LINE
  5
1C90F
  8
0
  6
CONTINUOUS
 10
14.54309291258661
 20
0.332454594683643
 30
0.0
 11
13.75908329123172
 21
1.116464216038529
 31
0.0
  0
LINE
  5
1C910
  8
0
  6
CONTINUOUS
 10
14.72714568935081
 20
0.8219210269996244
 30
0.0
 11
13.26913361706399
 21
2.27993309928645
 31
0.0
  0
LINE
  5
1C911
  8
0
  6
CONTINUOUS
 10
14.91119846611502
 20
1.311387459315606
 30
0.0
 11
12.77918394289625
 21
3.443401982534371
 31
0.0
  0
LINE
  5
1C912
  8
0
  6
CONTINUOUS
 10
15.09525124287922
 20
1.800853891631587
 30
0.0
 11
12.28923426872852
 21
4.606870865782293
 31
0.0
  0
LINE
  5
1C913
  8
0
  6
CONTINUOUS
 10
15.27930401964343
 20
2.290320323947569
 30
0.0
 11
11.79928459456078
 21
5.770339749030213
 31
0.0
  0
LINE
  5
1C914
  8
0
  6
CONTINUOUS
 10
15.46335679640763
 20
2.77978675626355
 30
0.0
 11
14.48885470994921
 21
3.754288842721972
 31
0.0
  0
LINE
  5
1C915
  8
0
  6
CONTINUOUS
 10
13.88507249233704
 20
4.358071060334137
 30
0.0
 11
11.30933492039305
 21
6.933808632278135
 31
0.0
  0
LINE
  5
1C916
  8
0
  6
CONTINUOUS
 10
18.75840522805855
 20
0.1582575336928151
 30
0.0
 11
18.25383727664818
 21
0.6628254851031863
 31
0.0
  0
LINE
  5
1C917
  8
0
  6
CONTINUOUS
 10
15.64740957317184
 20
3.269253188579531
 30
0.0
 11
14.67288388101266
 21
4.243778880738705
 31
0.0
  0
LINE
  5
1C918
  8
0
  6
CONTINUOUS
 10
13.39509276772158
 20
5.521569994029786
 30
0.0
 11
10.81938524622531
 21
8.097277515526056
 31
0.0
  0
LINE
  5
1C919
  8
0
  6
CONTINUOUS
 10
18.95798597883369
 20
0.6321959919978686
 30
0.0
 11
17.84825644852853
 21
1.741925522303024
 31
0.0
  0
LINE
  5
1C91A
  8
0
  6
CONTINUOUS
 10
19.15756672960882
 20
1.106134450302922
 30
0.0
 11
17.44267562040888
 21
2.821025559502861
 31
0.0
  0
LINE
  5
1C91B
  8
0
  6
CONTINUOUS
 10
15.83146234993604
 20
3.758719620895513
 30
0.0
 11
14.85691305207612
 21
4.733268918755439
 31
0.0
  0
LINE
  5
1C91C
  8
0
  6
CONTINUOUS
 10
16.01551512670025
 20
4.248186053211494
 30
0.0
 11
15.04094222313957
 21
5.222758956772172
 31
0.0
  0
LINE
  5
1C91D
  8
0
  6
CONTINUOUS
 10
12.90511304310612
 20
6.685068927725435
 30
0.0
 11
10.8270819708403
 21
8.763099999991255
 31
0.0
  0
LINE
  5
1C91E
  8
0
  6
CONTINUOUS
 10
12.41513331849066
 20
7.848567861421083
 30
0.0
 11
11.50060117992049
 21
8.763099999991255
 31
0.0
  0
LINE
  5
1C91F
  8
0
  6
CONTINUOUS
 10
19.35714748038395
 20
1.580072908607975
 30
0.0
 11
17.03709479228923
 21
3.900125596702697
 31
0.0
  0
LINE
  5
1C920
  8
0
  6
CONTINUOUS
 10
19.55672823115909
 20
2.054011366913028
 30
0.0
 11
16.63151396416958
 21
4.979225633902534
 31
0.0
  0
LINE
  5
1C921
  8
0
  6
CONTINUOUS
 10
16.19956790346445
 20
4.737652485527476
 30
0.0
 11
15.22497139420302
 21
5.712248994788904
 31
0.0
  0
LINE
  5
1C922
  8
0
  6
CONTINUOUS
 10
16.38362068022866
 20
5.227118917843457
 30
0.0
 11
15.40900056526648
 21
6.201739032805637
 31
0.0
  0
LINE
  5
1C923
  8
0
  6
CONTINUOUS
 10
19.75630898193422
 20
2.527949825218081
 30
0.0
 11
18.70774536448286
 21
3.576513442669441
 31
0.0
  0
LINE
  5
1C924
  8
0
  6
CONTINUOUS
 10
19.95588973270936
 20
3.001888283523134
 30
0.0
 11
18.90726987211446
 21
4.050508144118028
 31
0.0
  0
LINE
  5
1C925
  8
0
  6
CONTINUOUS
 10
20.15547048348449
 20
3.475826741828186
 30
0.0
 11
19.10679437974606
 21
4.524502845566614
 31
0.0
  0
LINE
  5
1C926
  8
0
  6
CONTINUOUS
 10
20.35505123425962
 20
3.94976520013324
 30
0.0
 11
19.30631888737766
 21
4.998497547015201
 31
0.0
  0
LINE
  5
1C927
  8
0
  6
CONTINUOUS
 10
20.55463198503475
 20
4.423703658438292
 30
0.0
 11
19.50584339500926
 21
5.472492248463787
 31
0.0
  0
LINE
  5
1C928
  8
0
  6
CONTINUOUS
 10
18.37481191085755
 20
3.909446896294752
 30
0.0
 11
15.59302973632993
 21
6.691229070822371
 31
0.0
  0
LINE
  5
1C929
  8
0
  6
CONTINUOUS
 10
17.96904084440766
 20
4.988737171824825
 30
0.0
 11
15.77705890739338
 21
7.180719108839104
 31
0.0
  0
LINE
  5
1C92A
  8
0
  6
CONTINUOUS
 10
17.56326977795777
 20
6.068027447354899
 30
0.0
 11
15.96108807845684
 21
7.670209146855838
 31
0.0
  0
LINE
  5
1C92B
  8
0
  6
CONTINUOUS
 10
17.15749871150789
 20
7.147317722884972
 30
0.0
 11
16.14511724952029
 21
8.15969918487257
 31
0.0
  0
LINE
  5
1C92C
  8
0
  6
CONTINUOUS
 10
16.751727645058
 20
8.226607998415046
 30
0.0
 11
16.32914642058374
 21
8.649189222889303
 31
0.0
  0
LINE
  5
1C92D
  8
0
  6
CONTINUOUS
 10
20.75421273580989
 20
4.897642116743345
 30
0.0
 11
19.70536790264086
 21
5.946486949912374
 31
0.0
  0
LINE
  5
1C92E
  8
0
  6
CONTINUOUS
 10
20.95379348658502
 20
5.371580575048398
 30
0.0
 11
19.90489241027246
 21
6.42048165136096
 31
0.0
  0
LINE
  5
1C92F
  8
0
  6
CONTINUOUS
 10
21.15337423736015
 20
5.845519033353452
 30
0.0
 11
20.10441691790406
 21
6.894476352809547
 31
0.0
  0
LINE
  5
1C930
  8
0
  6
CONTINUOUS
 10
21.35295498813529
 20
6.319457491658505
 30
0.0
 11
20.30394142553566
 21
7.368471054258134
 31
0.0
  0
LINE
  5
1C931
  8
0
  6
CONTINUOUS
 10
21.55253573891042
 20
6.793395949963558
 30
0.0
 11
20.50346593316726
 21
7.842465755706721
 31
0.0
  0
LINE
  5
1C932
  8
0
  6
CONTINUOUS
 10
21.75211648968556
 20
7.267334408268612
 30
0.0
 11
20.70299044079886
 21
8.316460457155308
 31
0.0
  0
LINE
  5
1C933
  8
0
  6
CONTINUOUS
 10
21.95169724046069
 20
7.741272866573663
 30
0.0
 11
20.9298701070431
 21
8.763099999991256
 31
0.0
  0
LINE
  5
1C934
  8
0
  6
CONTINUOUS
 10
22.15127799123582
 20
8.215211324878716
 30
0.0
 11
21.60338931612328
 21
8.763099999991256
 31
0.0
  0
LINE
  5
1C935
  8
0
  6
CONTINUOUS
 10
22.35085874201096
 20
8.689149783183769
 30
0.0
 11
22.27690852520347
 21
8.763099999991255
 31
0.0
  0
ENDBLK
  5
1CA26
  8
0
  0
BLOCK
  8
0
  2
*X1968
 70
     1
 10
0.0
 20
0.0
 30
0.0
  3
*X1968
  1

  0
LINE
  5
1C937
  8
0
  6
CONTINUOUS
 10
23.19462913593892
 20
8.169917934846424
 30
0.0
 11
23.70775465517246
 21
8.683043454079957
 31
0.0
  0
LINE
  5
1C938
  8
0
  6
CONTINUOUS
 10
22.64923161835078
 20
6.951001208178088
 30
0.0
 11
23.9159364069932
 21
8.217705996820516
 31
0.0
  0
LINE
  5
1C939
  8
0
  6
CONTINUOUS
 10
22.10383410076263
 20
5.732084481509751
 30
0.0
 11
24.12411815881395
 21
7.752368539561078
 31
0.0
  0
LINE
  5
1C93A
  8
0
  6
CONTINUOUS
 10
21.55843658317447
 20
4.513167754841414
 30
0.0
 11
24.3322999106347
 21
7.287031082301639
 31
0.0
  0
LINE
  5
1C93B
  8
0
  6
CONTINUOUS
 10
21.01303906558632
 20
3.294251028173077
 30
0.0
 11
24.54048166245544
 21
6.821693625042199
 31
0.0
  0
LINE
  5
1C93C
  8
0
  6
CONTINUOUS
 10
20.46764154799817
 20
2.075334301504738
 30
0.0
 11
23.28571549467848
 21
4.89340824818505
 31
0.0
  0
LINE
  5
1C93D
  8
0
  6
CONTINUOUS
 10
19.92224403041002
 20
0.8564175748364002
 30
0.0
 11
22.74075865492779
 21
3.674932199354171
 31
0.0
  0
LINE
  5
1C93E
  8
0
  6
CONTINUOUS
 10
23.67305085490148
 20
5.280743608408048
 30
0.0
 11
24.74866341427619
 21
6.356356167782759
 31
0.0
  0
LINE
  5
1C93F
  8
0
  6
CONTINUOUS
 10
23.88118970842314
 20
4.815363252849522
 30
0.0
 11
24.95684516609694
 21
5.89101871052332
 31
0.0
  0
LINE
  5
1C940
  8
0
  6
CONTINUOUS
 10
19.73925852647308
 20
-0.0000871381807288
 30
0.0
 11
23.4103456646501
 21
3.670999999996297
 31
0.0
  0
LINE
  5
1C941
  8
0
  6
CONTINUOUS
 10
24.0893285619448
 20
4.349982897290997
 30
0.0
 11
25.16502691791769
 21
5.42568125326388
 31
0.0
  0
LINE
  5
1C942
  8
0
  6
CONTINUOUS
 10
20.41282099582748
 20
-0.0000438779065108
 30
0.0
 11
21.64944178675636
 21
1.236576913022366
 31
0.0
  0
LINE
  5
1C943
  8
0
  6
CONTINUOUS
 10
22.78126487373161
 20
2.36839999999762
 30
0.0
 11
24.08386487373029
 21
3.670999999996297
 31
0.0
  0
LINE
  5
1C944
  8
0
  6
CONTINUOUS
 10
24.29746741546646
 20
3.884602541732471
 30
0.0
 11
25.37320866973843
 21
4.960343796004441
 31
0.0
  0
LINE
  5
1C945
  8
0
  6
CONTINUOUS
 10
21.08638346518189
 20
-0.0000006176322938
 30
0.0
 11
21.10379033335899
 21
0.0174062505448083
 31
0.0
  0
LINE
  5
1C946
  8
0
  6
CONTINUOUS
 10
23.4547840828118
 20
2.36839999999762
 30
0.0
 11
25.58139042155918
 21
4.495006338745002
 31
0.0
  0
LINE
  5
1C947
  8
0
  6
CONTINUOUS
 10
29.30199999996933
 20
8.215615917155148
 30
0.0
 11
29.84948408280543
 21
8.763099999991255
 31
0.0
  0
LINE
  5
1C948
  8
0
  6
CONTINUOUS
 10
24.12830329189199
 20
2.36839999999762
 30
0.0
 11
25.78957217337993
 21
4.029668881485562
 31
0.0
  0
LINE
  5
1C949
  8
0
  6
CONTINUOUS
 10
29.30199999996933
 20
7.54209670807496
 30
0.0
 11
30.52300329188562
 21
8.763099999991255
 31
0.0
  0
LINE
  5
1C94A
  8
0
  6
CONTINUOUS
 10
24.80182250097217
 20
2.36839999999762
 30
0.0
 11
25.99775392520067
 21
3.564331424226122
 31
0.0
  0
LINE
  5
1C94B
  8
0
  6
CONTINUOUS
 10
29.30199999996933
 20
6.868577498994774
 30
0.0
 11
30.74199999996926
 21
8.308577498994712
 31
0.0
  0
LINE
  5
1C94C
  8
0
  6
CONTINUOUS
 10
25.13028238392013
 20
2.023340673865392
 30
0.0
 11
26.20593567702142
 21
3.098993966966683
 31
0.0
  0
LINE
  5
1C94D
  8
0
  6
CONTINUOUS
 10
25.33838066033617
 20
1.557919741201244
 30
0.0
 11
26.41411742884217
 21
2.633656509707244
 31
0.0
  0
LINE
  5
1C94E
  8
0
  6
CONTINUOUS
 10
25.54647893675221
 20
1.092498808537098
 30
0.0
 11
26.62229918066291
 21
2.168319052447804
 31
0.0
  0
LINE
  5
1C94F
  8
0
  6
CONTINUOUS
 10
25.75457721316825
 20
0.62707787587295
 30
0.0
 11
26.83048093248366
 21
1.702981595188365
 31
0.0
  0
LINE
  5
1C950
  8
0
  6
CONTINUOUS
 10
29.30199999996933
 20
6.195058289914587
 30
0.0
 11
30.74199999996926
 21
7.635058289914522
 31
0.0
  0
LINE
  5
1C951
  8
0
  6
CONTINUOUS
 10
29.30199999996933
 20
5.521539080834401
 30
0.0
 11
30.74199999996926
 21
6.961539080834331
 31
0.0
  0
LINE
  5
1C952
  8
0
  6
CONTINUOUS
 10
29.30199999996933
 20
4.848019871754214
 30
0.0
 11
30.74199999996925
 21
6.288019871754143
 31
0.0
  0
LINE
  5
1C953
  8
0
  6
CONTINUOUS
 10
29.30199999996933
 20
4.174500662674028
 30
0.0
 11
30.74199999996925
 21
5.614500662673953
 31
0.0
  0
LINE
  5
1C954
  8
0
  6
CONTINUOUS
 10
25.96267548958429
 20
0.1616569432088024
 30
0.0
 11
27.18411854636669
 21
1.383099999991207
 31
0.0
  0
LINE
  5
1C955
  8
0
  6
CONTINUOUS
 10
29.30199999996933
 20
3.500981453593841
 30
0.0
 11
30.74199999996925
 21
4.940981453593762
 31
0.0
  0
LINE
  5
1C956
  8
0
  6
CONTINUOUS
 10
26.50763775544691
 20
0.0330999999912356
 30
0.0
 11
27.85763775544689
 21
1.383099999991223
 31
0.0
  0
LINE
  5
1C957
  8
0
  6
CONTINUOUS
 10
29.30199999996933
 20
2.827462244513656
 30
0.0
 11
30.74199999996925
 21
4.267462244513574
 31
0.0
  0
LINE
  5
1C958
  8
0
  6
CONTINUOUS
 10
27.18115696452709
 20
0.0330999999912356
 30
0.0
 11
28.6224847300034
 21
1.474427765467545
 31
0.0
  0
LINE
  5
1C959
  8
0
  6
CONTINUOUS
 10
29.21067223449293
 20
2.062615269957069
 30
0.0
 11
30.74199999996924
 21
3.593943035433383
 31
0.0
  0
LINE
  5
1C95A
  8
0
  6
CONTINUOUS
 10
27.85467617360728
 20
0.0330999999912356
 30
0.0
 11
30.74199999996924
 21
2.920423826353195
 31
0.0
  0
LINE
  5
1C95B
  8
0
  6
CONTINUOUS
 10
28.57438609860264
 20
0.0792907159064073
 30
0.0
 11
30.69580928405405
 21
2.200713901357819
 31
0.0
  0
LINE
  5
1C95C
  8
0
  6
CONTINUOUS
 10
29.49443044814297
 20
0.3258158563665496
 30
0.0
 11
30.44928414359389
 21
1.280669551817477
 31
0.0
  0
LINE
  5
1C95D
  8
0
  6
CONTINUOUS
 10
19.59027867740337
 20
-0.0000967065718083
 30
0.0
 11
19.55485265190471
 21
0.035329318926844
 31
0.0
  0
LINE
  5
1C95E
  8
0
  6
CONTINUOUS
 10
20.26375463176586
 20
-0.0000534518541091
 30
0.0
 11
19.76305575737534
 21
0.5006454225364014
 31
0.0
  0
LINE
  5
1C95F
  8
0
  6
CONTINUOUS
 10
20.93723058612834
 20
-0.0000101971364099
 30
0.0
 11
19.97125886284597
 21
0.965961526145958
 31
0.0
  0
LINE
  5
1C960
  8
0
  6
CONTINUOUS
 10
21.25514828313686
 20
0.355591314935257
 30
0.0
 11
20.1794619683166
 21
1.431277629755512
 31
0.0
  0
LINE
  5
1C961
  8
0
  6
CONTINUOUS
 10
21.46338838394921
 20
0.8208704232030986
 30
0.0
 11
20.38766507378723
 21
1.896593733365069
 31
0.0
  0
LINE
  5
1C962
  8
0
  6
CONTINUOUS
 10
21.67162848476155
 20
1.28614953147094
 30
0.0
 11
20.59586817925786
 21
2.361909836974626
 31
0.0
  0
LINE
  5
1C963
  8
0
  6
CONTINUOUS
 10
21.8798685855739
 20
1.751428639738782
 30
0.0
 11
20.80407128472849
 21
2.827225940584183
 31
0.0
  0
LINE
  5
1C964
  8
0
  6
CONTINUOUS
 10
22.08810868638624
 20
2.216707748006623
 30
0.0
 11
21.01227439019912
 21
3.292542044193739
 31
0.0
  0
LINE
  5
1C965
  8
0
  6
CONTINUOUS
 10
22.60993564347543
 20
2.36839999999762
 30
0.0
 11
21.22047749566975
 21
3.757858147803296
 31
0.0
  0
LINE
  5
1C966
  8
0
  6
CONTINUOUS
 10
23.28345485255561
 20
2.36839999999762
 30
0.0
 11
21.42868060114038
 21
4.223174251412853
 31
0.0
  0
LINE
  5
1C967
  8
0
  6
CONTINUOUS
 10
26.29227406164219
 20
0.0330999999912356
 30
0.0
 11
25.80009199592872
 21
0.5252820657046957
 31
0.0
  0
LINE
  5
1C968
  8
0
  6
CONTINUOUS
 10
23.9569740616358
 20
2.36839999999762
 30
0.0
 11
21.63688370661101
 21
4.688490355022409
 31
0.0
  0
LINE
  5
1C969
  8
0
  6
CONTINUOUS
 10
26.96579327072237
 20
0.0330999999912356
 30
0.0
 11
25.2554132311971
 21
1.743480039516508
 31
0.0
  0
LINE
  5
1C96A
  8
0
  6
CONTINUOUS
 10
24.63049327071599
 20
2.36839999999762
 30
0.0
 11
23.32789327071731
 21
3.670999999996297
 31
0.0
  0
LINE
  5
1C96B
  8
0
  6
CONTINUOUS
 10
22.92098674744635
 20
4.077906523267254
 30
0.0
 11
21.84508681208164
 21
5.153806458631966
 31
0.0
  0
LINE
  5
1C96C
  8
0
  6
CONTINUOUS
 10
27.63931247980256
 20
0.0330999999912356
 30
0.0
 11
24.0014124797975
 21
3.670999999996297
 31
0.0
  0
LINE
  5
1C96D
  8
0
  6
CONTINUOUS
 10
23.129125600968
 20
4.5432868788258
 30
0.0
 11
22.05328991755227
 21
5.619122562241522
 31
0.0
  0
LINE
  5
1C96E
  8
0
  6
CONTINUOUS
 10
28.31283168888275
 20
0.0330999999912356
 30
0.0
 11
24.16488385994816
 21
4.181047828925828
 31
0.0
  0
LINE
  5
1C96F
  8
0
  6
CONTINUOUS
 10
23.33726445448964
 20
5.008667234384345
 30
0.0
 11
22.2614930230229
 21
6.084438665851079
 31
0.0
  0
LINE
  5
1C970
  8
0
  6
CONTINUOUS
 10
28.86286302309502
 20
0.1565878748591523
 30
0.0
 11
27.63635089796295
 21
1.383099999991217
 31
0.0
  0
LINE
  5
1C971
  8
0
  6
CONTINUOUS
 10
26.43704649509776
 20
2.582404402856405
 30
0.0
 11
23.61992702019732
 21
5.399523877756844
 31
0.0
  0
LINE
  5
1C972
  8
0
  6
CONTINUOUS
 10
23.54540330801128
 20
5.47404758994289
 30
0.0
 11
22.46969612849353
 21
6.549754769460635
 31
0.0
  0
LINE
  5
1C973
  8
0
  6
CONTINUOUS
 10
29.39405087596853
 20
0.2989192310658284
 30
0.0
 11
28.30987010704312
 21
1.383099999991234
 31
0.0
  0
LINE
  5
1C974
  8
0
  6
CONTINUOUS
 10
25.89179548232307
 20
3.801174624711282
 30
0.0
 11
22.67789923396416
 21
7.015070873070191
 31
0.0
  0
LINE
  5
1C975
  8
0
  6
CONTINUOUS
 10
29.79594438047407
 20
0.570544935640473
 30
0.0
 11
28.81310432793121
 21
1.553384988183336
 31
0.0
  0
LINE
  5
1C976
  8
0
  6
CONTINUOUS
 10
25.34654446954838
 20
5.01994484656616
 30
0.0
 11
22.88610233943479
 21
7.480386976679748
 31
0.0
  0
LINE
  5
1C977
  8
0
  6
CONTINUOUS
 10
30.13270398501416
 20
0.9073045401805646
 30
0.0
 11
29.14234640337737
 21
1.897662121817355
 31
0.0
  0
LINE
  5
1C978
  8
0
  6
CONTINUOUS
 10
24.80129345677369
 20
6.238715068421037
 30
0.0
 11
23.09430544490542
 21
7.945703080289305
 31
0.0
  0
LINE
  5
1C979
  8
0
  6
CONTINUOUS
 10
30.44581292956759
 20
1.26771480470732
 30
0.0
 11
29.30199999996933
 21
2.411527734305588
 31
0.0
  0
LINE
  5
1C97A
  8
0
  6
CONTINUOUS
 10
30.58814428577427
 20
1.798902657580827
 30
0.0
 11
29.30199999996933
 21
3.085046943385775
 31
0.0
  0
LINE
  5
1C97B
  8
0
  6
CONTINUOUS
 10
24.256042443999
 20
7.457485290275915
 30
0.0
 11
23.30250855037605
 21
8.411019183898862
 31
0.0
  0
LINE
  5
1C97C
  8
0
  6
CONTINUOUS
 10
23.71079143122431
 20
8.676255512130794
 30
0.0
 11
23.51071165584668
 21
8.876335287508418
 31
0.0
  0
LINE
  5
1C97D
  8
0
  6
CONTINUOUS
 10
30.73047564198095
 20
2.330090510454333
 30
0.0
 11
29.30199999996933
 21
3.758566152465961
 31
0.0
  0
LINE
  5
1C97E
  8
0
  6
CONTINUOUS
 10
30.74199999996924
 20
2.992085361546236
 30
0.0
 11
29.30199999996933
 21
4.432085361546148
 31
0.0
  0
LINE
  5
1C97F
  8
0
  6
CONTINUOUS
 10
30.74199999996924
 20
3.665604570626419
 30
0.0
 11
29.30199999996933
 21
5.105604570626333
 31
0.0
  0
LINE
  5
1C980
  8
0
  6
CONTINUOUS
 10
30.74199999996925
 20
4.339123779706602
 30
0.0
 11
29.30199999996933
 21
5.77912377970652
 31
0.0
  0
LINE
  5
1C981
  8
0
  6
CONTINUOUS
 10
30.74199999996925
 20
5.012642988786785
 30
0.0
 11
29.30199999996933
 21
6.452642988786707
 31
0.0
  0
LINE
  5
1C982
  8
0
  6
CONTINUOUS
 10
30.74199999996925
 20
5.68616219786697
 30
0.0
 11
29.30199999996933
 21
7.126162197866894
 31
0.0
  0
LINE
  5
1C983
  8
0
  6
CONTINUOUS
 10
30.74199999996925
 20
6.359681406947153
 30
0.0
 11
29.30199999996933
 21
7.799681406947081
 31
0.0
  0
LINE
  5
1C984
  8
0
  6
CONTINUOUS
 10
30.74199999996926
 20
7.033200616027337
 30
0.0
 11
29.30199999996933
 21
8.473200616027269
 31
0.0
  0
LINE
  5
1C985
  8
0
  6
CONTINUOUS
 10
30.74199999996926
 20
7.706719825107518
 30
0.0
 11
29.68561982508552
 21
8.763099999991255
 31
0.0
  0
LINE
  5
1C986
  8
0
  6
CONTINUOUS
 10
30.74199999996926
 20
8.380239034187703
 30
0.0
 11
30.35913903416571
 21
8.763099999991255
 31
0.0
  0
ENDBLK
  5
1CA28
  8
0
  0
BLOCK
  8
0
  2
*X1969
 70
     1
 10
0.0
 20
0.0
 30
0.0
  3
*X1969
  1

  0
LINE
  5
1C988
  8
0
  6
CONTINUOUS
 10
31.64199999996833
 20
8.5350582899136
 30
0.0
 11
31.87004171004599
 21
8.763099999991255
 31
0.0
  0
LINE
  5
1C989
  8
0
  6
CONTINUOUS
 10
31.64199999996833
 20
7.861539080833413
 30
0.0
 11
32.54356091912618
 21
8.763099999991255
 31
0.0
  0
LINE
  5
1C98A
  8
0
  6
CONTINUOUS
 10
31.64199999996833
 20
7.188019871753227
 30
0.0
 11
33.08199999996839
 21
8.628019871753281
 31
0.0
  0
LINE
  5
1C98B
  8
0
  6
CONTINUOUS
 10
31.64199999996833
 20
6.514500662673041
 30
0.0
 11
33.08199999996839
 21
7.954500662673095
 31
0.0
  0
LINE
  5
1C98C
  8
0
  6
CONTINUOUS
 10
31.64199999996833
 20
5.840981453592855
 30
0.0
 11
33.08199999996839
 21
7.28098145359291
 31
0.0
  0
LINE
  5
1C98D
  8
0
  6
CONTINUOUS
 10
31.64199999996833
 20
5.167462244512668
 30
0.0
 11
33.08199999996839
 21
6.607462244512723
 31
0.0
  0
LINE
  5
1C98E
  8
0
  6
CONTINUOUS
 10
31.64199999996833
 20
4.493943035432482
 30
0.0
 11
33.08199999996839
 21
5.933943035432536
 31
0.0
  0
LINE
  5
1C98F
  8
0
  6
CONTINUOUS
 10
31.64199999996833
 20
3.820423826352294
 30
0.0
 11
33.08199999996839
 21
5.260423826352349
 31
0.0
  0
LINE
  5
1C990
  8
0
  6
CONTINUOUS
 10
31.64199999996833
 20
3.146904617272108
 30
0.0
 11
33.08199999996839
 21
4.586904617272163
 31
0.0
  0
LINE
  5
1C991
  8
0
  6
CONTINUOUS
 10
36.23199999996837
 20
8.410423826352327
 30
0.0
 11
36.58467617360729
 21
8.763099999991255
 31
0.0
  0
LINE
  5
1C992
  8
0
  6
CONTINUOUS
 10
36.23199999996837
 20
7.73690461727214
 30
0.0
 11
37.25819538268748
 21
8.763099999991255
 31
0.0
  0
LINE
  5
1C993
  8
0
  6
CONTINUOUS
 10
31.64374005202358
 20
2.475125460247168
 30
0.0
 11
33.08199999996839
 21
3.913385408191976
 31
0.0
  0
LINE
  5
1C994
  8
0
  6
CONTINUOUS
 10
31.78607140823076
 20
1.943937607374162
 30
0.0
 11
33.08199999996839
 21
3.239866199111789
 31
0.0
  0
LINE
  5
1C995
  8
0
  6
CONTINUOUS
 10
31.92840276443794
 20
1.412749754501156
 30
0.0
 11
33.08199999996839
 21
2.566346990031603
 31
0.0
  0
LINE
  5
1C996
  8
0
  6
CONTINUOUS
 10
36.23199999996837
 20
7.063385408191953
 30
0.0
 11
37.67199999996831
 21
8.503385408191894
 31
0.0
  0
LINE
  5
1C997
  8
0
  6
CONTINUOUS
 10
36.23199999996837
 20
6.389866199111767
 30
0.0
 11
37.67199999996831
 21
7.829866199111708
 31
0.0
  0
LINE
  5
1C998
  8
0
  6
CONTINUOUS
 10
36.23199999996837
 20
5.71634699003158
 30
0.0
 11
37.67199999996831
 21
7.156346990031522
 31
0.0
  0
LINE
  5
1C999
  8
0
  6
CONTINUOUS
 10
32.1787326690177
 20
0.9895604500007265
 30
0.0
 11
33.20642631446081
 21
2.017254095443838
 31
0.0
  0
LINE
  5
1C99A
  8
0
  6
CONTINUOUS
 10
36.23199999996837
 20
5.042827780951393
 30
0.0
 11
37.67199999996831
 21
6.482827780951334
 31
0.0
  0
LINE
  5
1C99B
  8
0
  6
CONTINUOUS
 10
32.51549227355815
 20
0.6528008454609919
 30
0.0
 11
33.49903056428258
 21
1.636339136185419
 31
0.0
  0
LINE
  5
1C99C
  8
0
  6
CONTINUOUS
 10
36.23199999996837
 20
4.369308571871207
 30
0.0
 11
37.67199999996831
 21
5.809308571871148
 31
0.0
  0
LINE
  5
1C99D
  8
0
  6
CONTINUOUS
 10
32.8522518780986
 20
0.3160412409212574
 30
0.0
 11
33.93324121824649
 21
1.397030581069146
 31
0.0
  0
LINE
  5
1C99E
  8
0
  6
CONTINUOUS
 10
36.23199999996837
 20
3.695789362791021
 30
0.0
 11
37.67199999996831
 21
5.135789362790963
 31
0.0
  0
LINE
  5
1C99F
  8
0
  6
CONTINUOUS
 10
33.30186329036846
 20
0.0921334441109263
 30
0.0
 11
34.46442907112041
 21
1.254699224862875
 31
0.0
  0
LINE
  5
1C9A0
  8
0
  6
CONTINUOUS
 10
36.23199999996837
 20
3.022270153710834
 30
0.0
 11
37.67199999996831
 21
4.462270153710776
 31
0.0
  0
LINE
  5
1C9A1
  8
0
  6
CONTINUOUS
 10
33.79565647746294
 20
-0.0875925778747773
 30
0.0
 11
35.24350171668284
 21
1.360252661345124
 31
0.0
  0
LINE
  5
1C9A2
  8
0
  6
CONTINUOUS
 10
36.18336676155003
 20
2.300117706212308
 30
0.0
 11
37.67199999996831
 21
3.788750944630589
 31
0.0
  0
LINE
  5
1C9A3
  8
0
  6
CONTINUOUS
 10
34.37182574910968
 20
-0.184942515308224
 30
0.0
 11
37.67199999996831
 21
3.115231735550402
 31
0.0
  0
LINE
  5
1C9A4
  8
0
  6
CONTINUOUS
 10
35.0453449581892
 20
-0.1849425153088955
 30
0.0
 11
37.65739306207836
 21
2.427105588580267
 31
0.0
  0
LINE
  5
1C9A5
  8
0
  6
CONTINUOUS
 10
35.98667157609191
 20
0.0828648935136398
 30
0.0
 11
37.41086792161699
 21
1.507061239038713
 31
0.0
  0
LINE
  5
1C9A6
  8
0
  6
CONTINUOUS
 10
33.83656881101902
 20
-0.1024834495035494
 30
0.0
 11
31.78457936207464
 21
1.949505999440828
 31
0.0
  0
LINE
  5
1C9A7
  8
0
  6
CONTINUOUS
 10
34.5925470859041
 20
-0.1849425153084434
 30
0.0
 11
31.64199999996833
 21
2.765604570627322
 31
0.0
  0
LINE
  5
1C9A8
  8
0
  6
CONTINUOUS
 10
35.26201302775981
 20
-0.1808892480839752
 30
0.0
 11
31.64199999996833
 21
3.439123779707508
 31
0.0
  0
LINE
  5
1C9A9
  8
0
  6
CONTINUOUS
 10
35.75580621485512
 20
-0.0011632260990879
 30
0.0
 11
34.51294304365551
 21
1.241699945100514
 31
0.0
  0
LINE
  5
1C9AA
  8
0
  6
CONTINUOUS
 10
33.08199999996839
 20
2.672642988787641
 30
0.0
 11
31.64199999996833
 21
4.112642988787695
 31
0.0
  0
LINE
  5
1C9AB
  8
0
  6
CONTINUOUS
 10
36.24959940195042
 20
0.1785627958857976
 30
0.0
 11
35.10501653033629
 21
1.323145667499924
 31
0.0
  0
LINE
  5
1C9AC
  8
0
  6
CONTINUOUS
 10
33.08199999996839
 20
3.346162197867827
 30
0.0
 11
31.64199999996833
 21
4.786162197867881
 31
0.0
  0
LINE
  5
1C9AD
  8
0
  6
CONTINUOUS
 10
36.62369414391585
 20
0.4779872630005553
 30
0.0
 11
35.6362043832099
 21
1.465477023706505
 31
0.0
  0
LINE
  5
1C9AE
  8
0
  6
CONTINUOUS
 10
33.08199999996839
 20
4.019681406948013
 30
0.0
 11
31.64199999996833
 21
5.459681406948068
 31
0.0
  0
LINE
  5
1C9AF
  8
0
  6
CONTINUOUS
 10
36.96045374845689
 20
0.8147468675397027
 30
0.0
 11
35.97691545773309
 21
1.798285158263504
 31
0.0
  0
LINE
  5
1C9B0
  8
0
  6
CONTINUOUS
 10
33.08199999996839
 20
4.6932006160282
 30
0.0
 11
31.64199999996833
 21
6.133200616028255
 31
0.0
  0
LINE
  5
1C9B1
  8
0
  6
CONTINUOUS
 10
37.29721335299792
 20
1.151506472078851
 30
0.0
 11
36.17602012811361
 21
2.272699696963169
 31
0.0
  0
LINE
  5
1C9B2
  8
0
  6
CONTINUOUS
 10
33.08199999996839
 20
5.366719825108387
 30
0.0
 11
31.64199999996833
 21
6.806719825108441
 31
0.0
  0
LINE
  5
1C9B3
  8
0
  6
CONTINUOUS
 10
37.45404367813572
 20
1.668195356021243
 30
0.0
 11
36.23199999996837
 21
2.890239034188595
 31
0.0
  0
LINE
  5
1C9B4
  8
0
  6
CONTINUOUS
 10
37.5963750343428
 20
2.199383208894346
 30
0.0
 11
36.23199999996837
 21
3.563758243268782
 31
0.0
  0
LINE
  5
1C9B5
  8
0
  6
CONTINUOUS
 10
33.08199999996839
 20
6.040239034188573
 30
0.0
 11
31.64199999996833
 21
7.480239034188628
 31
0.0
  0
LINE
  5
1C9B6
  8
0
  6
CONTINUOUS
 10
33.08199999996839
 20
6.713758243268759
 30
0.0
 11
31.64199999996833
 21
8.153758243268815
 31
0.0
  0
LINE
  5
1C9B7
  8
0
  6
CONTINUOUS
 10
37.67199999996831
 20
2.797277452349027
 30
0.0
 11
36.23199999996837
 21
4.237277452348969
 31
0.0
  0
LINE
  5
1C9B8
  8
0
  6
CONTINUOUS
 10
37.67199999996831
 20
3.470796661429214
 30
0.0
 11
36.23199999996837
 21
4.910796661429155
 31
0.0
  0
LINE
  5
1C9B9
  8
0
  6
CONTINUOUS
 10
37.67199999996831
 20
4.1443158705094
 30
0.0
 11
36.23199999996837
 21
5.584315870509341
 31
0.0
  0
LINE
  5
1C9BA
  8
0
  6
CONTINUOUS
 10
33.08199999996839
 20
7.387277452348946
 30
0.0
 11
31.70617745232608
 21
8.763099999991255
 31
0.0
  0
LINE
  5
1C9BB
  8
0
  6
CONTINUOUS
 10
33.08199999996839
 20
8.060796661429134
 30
0.0
 11
32.37969666140626
 21
8.763099999991255
 31
0.0
  0
LINE
  5
1C9BC
  8
0
  6
CONTINUOUS
 10
33.08199999996839
 20
8.734315870509318
 30
0.0
 11
33.05321587048645
 21
8.763099999991255
 31
0.0
  0
LINE
  5
1C9BD
  8
0
  6
CONTINUOUS
 10
37.67199999996831
 20
4.817835079589586
 30
0.0
 11
36.23199999996837
 21
6.257835079589528
 31
0.0
  0
LINE
  5
1C9BE
  8
0
  6
CONTINUOUS
 10
37.67199999996831
 20
5.491354288669772
 30
0.0
 11
36.23199999996837
 21
6.931354288669715
 31
0.0
  0
LINE
  5
1C9BF
  8
0
  6
CONTINUOUS
 10
37.67199999996831
 20
6.164873497749959
 30
0.0
 11
36.23199999996837
 21
7.6048734977499
 31
0.0
  0
LINE
  5
1C9C0
  8
0
  6
CONTINUOUS
 10
37.67199999996831
 20
6.838392706830145
 30
0.0
 11
36.23199999996837
 21
8.278392706830086
 31
0.0
  0
LINE
  5
1C9C1
  8
0
  6
CONTINUOUS
 10
37.67199999996831
 20
7.511911915910333
 30
0.0
 11
36.42081191588738
 21
8.763099999991255
 31
0.0
  0
LINE
  5
1C9C2
  8
0
  6
CONTINUOUS
 10
37.67199999996831
 20
8.185431124990519
 30
0.0
 11
37.09433112496757
 21
8.763099999991255
 31
0.0
  0
ENDBLK
  5
1CA2A
  8
0
  0
BLOCK
  8
0
  2
*X1970
 70
     1
 10
0.0
 20
0.0
 30
0.0
  3
*X1970
  1

  0
LINE
  5
1C9C4
  8
0
  6
CONTINUOUS
 10
38.60499999996136
 20
8.762866199104765
 30
0.0
 11
38.71672554182345
 21
8.874591740966855
 31
0.0
  0
LINE
  5
1C9C5
  8
0
  6
CONTINUOUS
 10
38.60499999996136
 20
8.089346990024577
 30
0.0
 11
39.03418785440363
 21
8.518534844466847
 31
0.0
  0
LINE
  5
1C9C6
  8
0
  6
CONTINUOUS
 10
38.60499999996136
 20
7.41582778094439
 30
0.0
 11
39.35165016698382
 21
8.16247794796684
 31
0.0
  0
LINE
  5
1C9C7
  8
0
  6
CONTINUOUS
 10
38.60499999996136
 20
6.742308571864204
 30
0.0
 11
39.66911247956399
 21
7.806421051466834
 31
0.0
  0
LINE
  5
1C9C8
  8
0
  6
CONTINUOUS
 10
38.60499999996136
 20
6.068789362784018
 30
0.0
 11
39.98657479214418
 21
7.450364154966827
 31
0.0
  0
LINE
  5
1C9C9
  8
0
  6
CONTINUOUS
 10
38.60499999996136
 20
5.395270153703832
 30
0.0
 11
40.30403710472435
 21
7.09430725846682
 31
0.0
  0
LINE
  5
1C9CA
  8
0
  6
CONTINUOUS
 10
38.60499999996136
 20
4.721750944623645
 30
0.0
 11
40.62149941730453
 21
6.738250361966813
 31
0.0
  0
LINE
  5
1C9CB
  8
0
  6
CONTINUOUS
 10
38.60499999996136
 20
4.048231735543458
 30
0.0
 11
40.93896172988471
 21
6.382193465466806
 31
0.0
  0
LINE
  5
1C9CC
  8
0
  6
CONTINUOUS
 10
38.60499999996136
 20
3.374712526463272
 30
0.0
 11
40.02599999995994
 21
4.795712526461843
 31
0.0
  0
LINE
  5
1C9CD
  8
0
  6
CONTINUOUS
 10
38.60499999996136
 20
2.701193317383085
 30
0.0
 11
40.02599999995994
 21
4.122193317381657
 31
0.0
  0
LINE
  5
1C9CE
  8
0
  6
CONTINUOUS
 10
40.28339754687704
 20
5.053110073378947
 30
0.0
 11
41.25642404246489
 21
6.026136568966799
 31
0.0
  0
LINE
  5
1C9CF
  8
0
  6
CONTINUOUS
 10
40.60085985945722
 20
4.697053176878939
 30
0.0
 11
41.57388635504507
 21
5.670079672466793
 31
0.0
  0
LINE
  5
1C9D0
  8
0
  6
CONTINUOUS
 10
43.57899999995641
 20
8.348712526458318
 30
0.0
 11
43.99338747348935
 21
8.763099999991255
 31
0.0
  0
LINE
  5
1C9D1
  8
0
  6
CONTINUOUS
 10
43.57899999995641
 20
7.675193317378131
 30
0.0
 11
44.66690668256953
 21
8.763099999991255
 31
0.0
  0
LINE
  5
1C9D2
  8
0
  6
CONTINUOUS
 10
38.60499999996136
 20
2.027674108302898
 30
0.0
 11
40.02599999995994
 21
3.44867410830147
 31
0.0
  0
LINE
  5
1C9D3
  8
0
  6
CONTINUOUS
 10
38.60499999996136
 20
1.354154899222712
 30
0.0
 11
40.02599999995994
 21
2.775154899221284
 31
0.0
  0
LINE
  5
1C9D4
  8
0
  6
CONTINUOUS
 10
38.60499999996136
 20
0.6806356901425255
 30
0.0
 11
40.02599999995994
 21
2.101635690141098
 31
0.0
  0
LINE
  5
1C9D5
  8
0
  6
CONTINUOUS
 10
38.60499999996136
 20
0.0071164810623383
 30
0.0
 11
40.02599999995994
 21
1.428116481060911
 31
0.0
  0
LINE
  5
1C9D6
  8
0
  6
CONTINUOUS
 10
40.9183221720374
 20
4.340996280378933
 30
0.0
 11
41.89134866762525
 21
5.314022775966786
 31
0.0
  0
LINE
  5
1C9D7
  8
0
  6
CONTINUOUS
 10
41.23578448461758
 20
3.984939383878926
 30
0.0
 11
42.20881098020543
 21
4.957965879466778
 31
0.0
  0
LINE
  5
1C9D8
  8
0
  6
CONTINUOUS
 10
41.55324679719776
 20
3.628882487378919
 30
0.0
 11
42.52627329278561
 21
4.601908982966772
 31
0.0
  0
LINE
  5
1C9D9
  8
0
  6
CONTINUOUS
 10
41.87070910977793
 20
3.272825590878912
 30
0.0
 11
42.84373560536579
 21
4.245852086466765
 31
0.0
  0
LINE
  5
1C9DA
  8
0
  6
CONTINUOUS
 10
43.57899999995641
 20
7.001674108297943
 30
0.0
 11
44.99999999995498
 21
8.422674108296516
 31
0.0
  0
LINE
  5
1C9DB
  8
0
  6
CONTINUOUS
 10
43.57899999995641
 20
6.328154899217758
 30
0.0
 11
44.99999999995498
 21
7.749154899216329
 31
0.0
  0
LINE
  5
1C9DC
  8
0
  6
CONTINUOUS
 10
43.57899999995641
 20
5.654635690137571
 30
0.0
 11
44.99999999995498
 21
7.075635690136142
 31
0.0
  0
LINE
  5
1C9DD
  8
0
  6
CONTINUOUS
 10
43.57899999995641
 20
4.981116481057384
 30
0.0
 11
44.99999999995498
 21
6.402116481055955
 31
0.0
  0
LINE
  5
1C9DE
  8
0
  6
CONTINUOUS
 10
39.27140272797921
 20
-0.0000000000000009
 30
0.0
 11
40.02599999995994
 21
0.7545972719807246
 31
0.0
  0
LINE
  5
1C9DF
  8
0
  6
CONTINUOUS
 10
39.9449219370594
 20
-0.0000000000000009
 30
0.0
 11
40.02599999995994
 21
0.0810780629005379
 31
0.0
  0
LINE
  5
1C9E0
  8
0
  6
CONTINUOUS
 10
42.18817142235812
 20
2.916768694378905
 30
0.0
 11
43.16119791794597
 21
3.889795189966758
 31
0.0
  0
LINE
  5
1C9E1
  8
0
  6
CONTINUOUS
 10
42.50563373493829
 20
2.560711797878898
 30
0.0
 11
43.47866023052615
 21
3.533738293466751
 31
0.0
  0
LINE
  5
1C9E2
  8
0
  6
CONTINUOUS
 10
43.57899999995641
 20
4.307597271977198
 30
0.0
 11
44.99999999995498
 21
5.728597271975769
 31
0.0
  0
LINE
  5
1C9E3
  8
0
  6
CONTINUOUS
 10
43.57899999995641
 20
3.634078062897011
 30
0.0
 11
44.99999999995498
 21
5.055078062895582
 31
0.0
  0
LINE
  5
1C9E4
  8
0
  6
CONTINUOUS
 10
42.82309604751848
 20
2.204654901378891
 30
0.0
 11
44.99999999995498
 21
4.381558853815395
 31
0.0
  0
LINE
  5
1C9E5
  8
0
  6
CONTINUOUS
 10
43.14055836009865
 20
1.848598004878885
 30
0.0
 11
44.99999999995498
 21
3.70803964473521
 31
0.0
  0
LINE
  5
1C9E6
  8
0
  6
CONTINUOUS
 10
43.45802067267883
 20
1.492541108378878
 30
0.0
 11
44.99999999995498
 21
3.034520435655023
 31
0.0
  0
LINE
  5
1C9E7
  8
0
  6
CONTINUOUS
 10
43.77548298525902
 20
1.136484211878871
 30
0.0
 11
44.99999999995498
 21
2.361001226574837
 31
0.0
  0
LINE
  5
1C9E8
  8
0
  6
CONTINUOUS
 10
44.09294529783919
 20
0.7804273153788639
 30
0.0
 11
44.99999999995498
 21
1.687482017494649
 31
0.0
  0
LINE
  5
1C9E9
  8
0
  6
CONTINUOUS
 10
44.41040761041938
 20
0.4243704188788566
 30
0.0
 11
44.99999999995498
 21
1.013962808414463
 31
0.0
  0
LINE
  5
1C9EA
  8
0
  6
CONTINUOUS
 10
44.72786992299955
 20
0.0683135223788494
 30
0.0
 11
44.99999999995498
 21
0.340443599334276
 31
0.0
  0
LINE
  5
1C9EB
  8
0
  6
CONTINUOUS
 10
39.12223903415696
 20
-0.0000000000000009
 30
0.0
 11
38.60499999996136
 21
0.5172390341955961
 31
0.0
  0
LINE
  5
1C9EC
  8
0
  6
CONTINUOUS
 10
39.79575824323715
 20
-0.0000000000000009
 30
0.0
 11
38.60499999996136
 21
1.190758243275783
 31
0.0
  0
LINE
  5
1C9ED
  8
0
  6
CONTINUOUS
 10
40.02599999995994
 20
0.443277452357397
 30
0.0
 11
38.60499999996136
 21
1.864277452355969
 31
0.0
  0
LINE
  5
1C9EE
  8
0
  6
CONTINUOUS
 10
40.02599999995994
 20
1.116796661437583
 30
0.0
 11
38.60499999996136
 21
2.537796661436155
 31
0.0
  0
LINE
  5
1C9EF
  8
0
  6
CONTINUOUS
 10
40.02599999995994
 20
1.79031587051777
 30
0.0
 11
38.60499999996136
 21
3.211315870516341
 31
0.0
  0
LINE
  5
1C9F0
  8
0
  6
CONTINUOUS
 10
40.02599999995994
 20
2.463835079597956
 30
0.0
 11
38.60499999996136
 21
3.884835079596527
 31
0.0
  0
LINE
  5
1C9F1
  8
0
  6
CONTINUOUS
 10
40.02599999995994
 20
3.137354288678143
 30
0.0
 11
38.60499999996136
 21
4.558354288676714
 31
0.0
  0
LINE
  5
1C9F2
  8
0
  6
CONTINUOUS
 10
40.02599999995994
 20
3.810873497758329
 30
0.0
 11
38.60499999996136
 21
5.2318734977569
 31
0.0
  0
LINE
  5
1C9F3
  8
0
  6
CONTINUOUS
 10
40.02599999995994
 20
4.484392706838515
 30
0.0
 11
38.60499999996136
 21
5.905392706837086
 31
0.0
  0
LINE
  5
1C9F4
  8
0
  6
CONTINUOUS
 10
44.99999999995498
 20
0.183911915923658
 30
0.0
 11
41.53858364506288
 21
3.64532827081576
 31
0.0
  0
LINE
  5
1C9F5
  8
0
  6
CONTINUOUS
 10
40.02599999995994
 20
5.157911915918703
 30
0.0
 11
38.60499999996136
 21
6.578911915917274
 31
0.0
  0
LINE
  5
1C9F6
  8
0
  6
CONTINUOUS
 10
44.99999999995498
 20
0.8574311250038447
 30
0.0
 11
38.60499999996136
 21
7.25243112499746
 31
0.0
  0
LINE
  5
1C9F7
  8
0
  6
CONTINUOUS
 10
44.99999999995498
 20
1.530950334084031
 30
0.0
 11
38.60499999996136
 21
7.925950334077647
 31
0.0
  0
LINE
  5
1C9F8
  8
0
  6
CONTINUOUS
 10
44.99999999995498
 20
2.204469543164218
 30
0.0
 11
43.57899999995641
 21
3.625469543162789
 31
0.0
  0
LINE
  5
1C9F9
  8
0
  6
CONTINUOUS
 10
41.89876730984767
 20
5.305702233271528
 30
0.0
 11
38.60499999996136
 21
8.599469543157834
 31
0.0
  0
LINE
  5
1C9FA
  8
0
  6
CONTINUOUS
 10
44.99999999995498
 20
2.877988752244405
 30
0.0
 11
43.57899999995641
 21
4.298988752242975
 31
0.0
  0
LINE
  5
1C9FB
  8
0
  6
CONTINUOUS
 10
44.99999999995498
 20
3.551507961324591
 30
0.0
 11
43.57899999995641
 21
4.972507961323163
 31
0.0
  0
LINE
  5
1C9FC
  8
0
  6
CONTINUOUS
 10
44.99999999995498
 20
4.225027170404777
 30
0.0
 11
43.57899999995641
 21
5.646027170403348
 31
0.0
  0
LINE
  5
1C9FD
  8
0
  6
CONTINUOUS
 10
44.99999999995498
 20
4.898546379484964
 30
0.0
 11
43.57899999995641
 21
6.319546379483535
 31
0.0
  0
LINE
  5
1C9FE
  8
0
  6
CONTINUOUS
 10
44.99999999995498
 20
5.572065588565151
 30
0.0
 11
43.57899999995641
 21
6.993065588563722
 31
0.0
  0
LINE
  5
1C9FF
  8
0
  6
CONTINUOUS
 10
44.99999999995498
 20
6.245584797645336
 30
0.0
 11
43.57899999995641
 21
7.666584797643908
 31
0.0
  0
LINE
  5
1CA00
  8
0
  6
CONTINUOUS
 10
44.99999999995498
 20
6.919104006725522
 30
0.0
 11
43.57899999995641
 21
8.340104006724093
 31
0.0
  0
LINE
  5
1CA01
  8
0
  6
CONTINUOUS
 10
44.99999999995498
 20
7.592623215805709
 30
0.0
 11
43.82952321576943
 21
8.763099999991255
 31
0.0
  0
LINE
  5
1CA02
  8
0
  6
CONTINUOUS
 10
44.99999999995498
 20
8.266142424885896
 30
0.0
 11
44.50304242484962
 21
8.763099999991255
 31
0.0
  0
ENDBLK
  5
1CA2C
  8
0
  0
BLOCK
  8
0
  2
*X1971
 70
     1
 10
0.0
 20
0.0
 30
0.0
  3
*X1971
  1

  0
LINE
  5
1CA04
  8
0
  6
CONTINUOUS
 10
0.0
 20
8.548461116714023
 30
0.0
 11
0.2146388832772324
 21
8.763099999991255
 31
0.0
  0
LINE
  5
1CA05
  8
0
  6
CONTINUOUS
 10
-0.0000000000000002
 20
7.874941907633837
 30
0.0
 11
0.8881580923574184
 21
8.763099999991255
 31
0.0
  0
LINE
  5
1CA06
  8
0
  6
CONTINUOUS
 10
0.0
 20
7.20142269855365
 30
0.0
 11
1.420999999998572
 21
8.622422698552223
 31
0.0
  0
LINE
  5
1CA07
  8
0
  6
CONTINUOUS
 10
-0.0000000000000001
 20
6.527903489473465
 30
0.0
 11
1.420999999998571
 21
7.948903489472036
 31
0.0
  0
LINE
  5
1CA08
  8
0
  6
CONTINUOUS
 10
-0.0000000000000002
 20
5.854384280393278
 30
0.0
 11
1.420999999998571
 21
7.275384280391849
 31
0.0
  0
LINE
  5
1CA09
  8
0
  6
CONTINUOUS
 10
-0.0000000000000002
 20
5.180865071313091
 30
0.0
 11
1.420999999998571
 21
6.601865071311663
 31
0.0
  0
LINE
  5
1CA0A
  8
0
  6
CONTINUOUS
 10
0.0
 20
4.507345862232905
 30
0.0
 11
1.420999999998571
 21
5.928345862231477
 31
0.0
  0
LINE
  5
1CA0B
  8
0
  6
CONTINUOUS
 10
-0.0000000000000003
 20
3.833826653152718
 30
0.0
 11
1.420999999998571
 21
5.25482665315129
 31
0.0
  0
LINE
  5
1CA0C
  8
0
  6
CONTINUOUS
 10
-0.0000000000000002
 20
3.160307444072532
 30
0.0
 11
1.420999999998571
 21
4.581307444071103
 31
0.0
  0
LINE
  5
1CA0D
  8
0
  6
CONTINUOUS
 10
-0.0000000000000001
 20
2.486788234992345
 30
0.0
 11
1.420999999998571
 21
3.907788234990917
 31
0.0
  0
LINE
  5
1CA0E
  8
0
  6
CONTINUOUS
 10
-0.0000000000000006
 20
1.813269025912159
 30
0.0
 11
1.420999999998571
 21
3.234269025910731
 31
0.0
  0
LINE
  5
1CA0F
  8
0
  6
CONTINUOUS
 10
0.0
 20
1.139749816831973
 30
0.0
 11
1.420999999998571
 21
2.560749816830544
 31
0.0
  0
LINE
  5
1CA10
  8
0
  6
CONTINUOUS
 10
0.0000000000000002
 20
0.466230607751787
 30
0.0
 11
1.420999999998571
 21
1.887230607750358
 31
0.0
  0
LINE
  5
1CA11
  8
0
  6
CONTINUOUS
 10
0.2072886013284003
 20
-0.0000000000000009
 30
0.0
 11
1.420999999998571
 21
1.213711398670171
 31
0.0
  0
LINE
  5
1CA12
  8
0
  6
CONTINUOUS
 10
0.8808078104085864
 20
-0.0000000000000009
 30
0.0
 11
1.420999999998571
 21
0.5401921895899839
 31
0.0
  0
LINE
  5
1CA13
  8
0
  6
CONTINUOUS
 10
0.0581249075061505
 20
-0.0000000000000009
 30
0.0
 11
-0.0000000000000002
 21
0.0581249075061496
 31
0.0
  0
LINE
  5
1CA14
  8
0
  6
CONTINUOUS
 10
0.7316441165863372
 20
-0.0000000000000009
 30
0.0
 11
-0.0000000000000002
 21
0.7316441165863363
 31
0.0
  0
LINE
  5
1CA15
  8
0
  6
CONTINUOUS
 10
1.405163325666523
 20
-0.0000000000000009
 30
0.0
 11
-0.0000000000000002
 21
1.405163325666523
 31
0.0
  0
LINE
  5
1CA16
  8
0
  6
CONTINUOUS
 10
1.420999999998572
 20
0.6576825347481381
 30
0.0
 11
-0.0000000000000001
 21
2.07868253474671
 31
0.0
  0
LINE
  5
1CA17
  8
0
  6
CONTINUOUS
 10
1.420999999998571
 20
1.331201743828324
 30
0.0
 11
-0.0000000000000001
 21
2.752201743826896
 31
0.0
  0
LINE
  5
1CA18
  8
0
  6
CONTINUOUS
 10
1.420999999998571
 20
2.004720952908511
 30
0.0
 11
-0.0000000000000002
 21
3.425720952907082
 31
0.0
  0
LINE
  5
1CA19
  8
0
  6
CONTINUOUS
 10
1.420999999998571
 20
2.678240161988697
 30
0.0
 11
-0.0000000000000001
 21
4.099240161987269
 31
0.0
  0
LINE
  5
1CA1A
  8
0
  6
CONTINUOUS
 10
1.420999999998572
 20
3.351759371068884
 30
0.0
 11
0.0
 21
4.772759371067455
 31
0.0
  0
LINE
  5
1CA1B
  8
0
  6
CONTINUOUS
 10
1.420999999998571
 20
4.02527858014907
 30
0.0
 11
-0.0000000000000003
 21
5.446278580147642
 31
0.0
  0
LINE
  5
1CA1C
  8
0
  6
CONTINUOUS
 10
1.420999999998571
 20
4.698797789229257
 30
0.0
 11
0.0
 21
6.119797789227828
 31
0.0
  0
LINE
  5
1CA1D
  8
0
  6
CONTINUOUS
 10
1.420999999998571
 20
5.372316998309444
 30
0.0
 11
-0.0000000000000001
 21
6.793316998308015
 31
0.0
  0
LINE
  5
1CA1E
  8
0
  6
CONTINUOUS
 10
1.420999999998572
 20
6.045836207389629
 30
0.0
 11
-0.0000000000000004
 21
7.466836207388202
 31
0.0
  0
LINE
  5
1CA1F
  8
0
  6
CONTINUOUS
 10
1.420999999998571
 20
6.719355416469816
 30
0.0
 11
0.0
 21
8.140355416468388
 31
0.0
  0
LINE
  5
1CA20
  8
0
  6
CONTINUOUS
 10
1.420999999998571
 20
7.392874625550003
 30
0.0
 11
0.0507746255573185
 21
8.763099999991255
 31
0.0
  0
LINE
  5
1CA21
  8
0
  6
CONTINUOUS
 10
1.420999999998571
 20
8.06639383463019
 30
0.0
 11
0.7242938346375052
 21
8.763099999991255
 31
0.0
  0
LINE
  5
1CA22
  8
0
  6
CONTINUOUS
 10
1.420999999998571
 20
8.739913043710375
 30
0.0
 11
1.397813043717691
 21
8.763099999991255
 31
0.0
  0
ENDBLK
  5
1CA2E
  8
0
  0
ENDSEC
  0
SECTION
  2
ENTITIES
  0
LINE
  5
1C001
  8
01
 10
16934.00165822636
 20
7338.762938599903
 30
0.0
 11
16934.00165822636
 21
7303.762936146155
 31
0.0
  0
LINE
  5
1C002
  8
01
 10
16934.00165822636
 20
7350.762938599903
 30
0.0
 11
16934.00165822636
 21
7385.762941053647
 31
0.0
  0
LINE
  5
1C003
  8
01
 10
16479.00165822636
 20
7350.762938599903
 30
0.0
 11
16479.00165822636
 21
7385.762941053647
 31
0.0
  0
LINE
  5
1C004
  8
01
 10
16933.99689381191
 20
7303.7629309412
 30
0.0
 11
17003.50165822636
 21
7303.7629309412
 31
0.0
  0
LINE
  5
1C005
  8
01
 10
16504.00165822636
 20
7303.7629309412
 30
0.0
 11
16909.00165822636
 21
7303.7629309412
 31
0.0
  0
LINE
  5
1C006
  8
01
 10
16409.50165822636
 20
7303.7629309412
 30
0.0
 11
16479.00642264082
 21
7303.7629309412
 31
0.0
  0
LINE
  5
1C007
  8
01
 10
16409.50165822636
 20
7275.712930941208
 30
0.0
 11
16405.50165822636
 21
7275.712930941208
 31
0.0
  0
LINE
  5
1C008
  8
01
 10
16409.50165822636
 20
7304.812930941207
 30
0.0
 11
16405.50165822636
 21
7304.812930941207
 31
0.0
  0
LINE
  5
1C009
  8
01
 10
17003.50165822636
 20
7304.812930941207
 30
0.0
 11
17007.50165822636
 21
7304.812930941207
 31
0.0
  0
LINE
  5
1C00A
  8
01
 10
17003.50165822636
 20
7275.712930941208
 30
0.0
 11
17007.50165822636
 21
7275.712930941208
 31
0.0
  0
LINE
  5
1C00B
  8
01
 10
17003.50165822636
 20
7384.712946258594
 30
0.0
 11
17007.50165822636
 21
7384.712946258594
 31
0.0
  0
LINE
  5
1C00C
  8
01
 10
16409.50165822636
 20
7384.712946258594
 30
0.0
 11
16405.50165822636
 21
7384.712946258594
 31
0.0
  0
LINE
  5
1C00D
  8
01
 10
16479.00642264082
 20
7385.762946258601
 30
0.0
 11
16409.50165822636
 21
7385.762946258601
 31
0.0
  0
LINE
  5
1C00E
  8
01
 10
16909.00165822636
 20
7385.762946258601
 30
0.0
 11
16504.00165822636
 21
7385.762946258601
 31
0.0
  0
LINE
  5
1C00F
  8
01
 10
17003.50165822636
 20
7385.762946258601
 30
0.0
 11
16933.99689381191
 21
7385.762946258601
 31
0.0
  0
LINE
  5
1C010
  8
01
 10
16479.00165822636
 20
7338.762938599903
 30
0.0
 11
16479.00165822636
 21
7303.762936146155
 31
0.0
  0
LINE
  5
1C011
  8
01
 10
16924.87782508156
 20
7296.378054399796
 30
0.0
 11
16925.28641757652
 21
7296.612619272491
 31
0.0
  0
LINE
  5
1C012
  8
01
 10
16922.12668755979
 20
7357.813807709426
 30
0.0
 11
16922.12669706144
 21
7357.729688717383
 31
0.0
  0
LINE
  5
1C013
  8
01
 10
16922.12669721757
 20
7359.796255685367
 30
0.0
 11
16922.12668766661
 21
7359.712069488025
 31
0.0
  0
LINE
  5
1C014
  8
01
 10
16920.87662889293
 20
7359.712069490368
 30
0.0
 11
16920.87661939128
 21
7359.796188482414
 31
0.0
  0
LINE
  5
1C015
  8
01
 10
16920.87661928874
 20
7357.72962742762
 30
0.0
 11
16920.87662882051
 21
7357.81380771086
 31
0.0
  0
LINE
  5
1C016
  8
01
 10
16924.87782508156
 20
7393.147822800005
 30
0.0
 11
16925.28641757652
 21
7392.91325792731
 31
0.0
  0
LINE
  5
1C017
  8
01
 10
16488.12549137116
 20
7393.147822800005
 30
0.0
 11
16487.7168988762
 21
7392.91325792731
 31
0.0
  0
LINE
  5
1C018
  8
1DIM
 10
16409.50165822636
 20
7277.2629309412
 30
0.0
 11
17003.50165822636
 21
7277.262930941302
 31
0.0
  0
LINE
  5
1C019
  8
01
 10
16488.23829326046
 20
7296.316577474667
 30
0.0
 11
16487.7168988762
 21
7296.612619272491
 31
0.0
  0
LINE
  5
1C01A
  8
01
 10
16909.00165822636
 20
7338.762938599903
 30
0.0
 11
16909.00165822636
 21
7303.762936146155
 31
0.0
  0
LINE
  5
1C01B
  8
01
 10
16925.28641757652
 20
7296.612619272491
 30
0.0
 11
16925.83615587949
 21
7296.955026639745
 31
0.0
  0
LINE
  5
1C01C
  8
01
 10
16925.83615587949
 20
7296.955026639745
 30
0.0
 11
16926.37411823791
 21
7297.315653188725
 31
0.0
  0
LINE
  5
1C01D
  8
01
 10
16926.37411823791
 20
7297.315653188725
 30
0.0
 11
16927.33504069772
 21
7298.014965094022
 31
0.0
  0
LINE
  5
1C01E
  8
01
 10
16927.33504069772
 20
7298.014965094022
 30
0.0
 11
16928.27716849162
 21
7298.739398896818
 31
0.0
  0
LINE
  5
1C01F
  8
01
 10
16928.27716849162
 20
7298.739398896818
 30
0.0
 11
16929.19984502319
 21
7299.488449718014
 31
0.0
  0
LINE
  5
1C020
  8
01
 10
16929.19984502319
 20
7299.488449718014
 30
0.0
 11
16930.1024272522
 21
7300.261595522199
 31
0.0
  0
LINE
  5
1C021
  8
01
 10
16930.1024272522
 20
7300.261595522199
 30
0.0
 11
16933.99689381191
 21
7303.758500970373
 31
0.0
  0
LINE
  5
1C022
  8
01
 10
16909.00165822636
 20
7303.762936146155
 30
0.0
 11
16912.90088920051
 21
7300.261595522199
 31
0.0
  0
LINE
  5
1C023
  8
01
 10
16912.90088920051
 20
7300.261595522199
 30
0.0
 11
16913.80347142953
 21
7299.488449718014
 31
0.0
  0
LINE
  5
1C024
  8
01
 10
16913.80347142953
 20
7299.488449718014
 30
0.0
 11
16914.72614796111
 21
7298.739398896818
 31
0.0
  0
LINE
  5
1C025
  8
01
 10
16914.72614796111
 20
7298.739398896818
 30
0.0
 11
16915.668275755
 21
7298.014965094022
 31
0.0
  0
LINE
  5
1C026
  8
01
 10
16915.668275755
 20
7298.014965094022
 30
0.0
 11
16916.62919821481
 21
7297.315653188725
 31
0.0
  0
LINE
  5
1C027
  8
01
 10
16916.62919821481
 20
7297.315653188725
 30
0.0
 11
16916.88941237531
 21
7297.135481629328
 31
0.0
  0
LINE
  5
1C028
  8
01
 10
16916.88941237531
 20
7297.135481629328
 30
0.0
 11
16917.15346832345
 21
7296.960620262358
 31
0.0
  0
LINE
  5
1C029
  8
01
 10
16917.15346832345
 20
7296.960620262358
 30
0.0
 11
16917.42120233671
 21
7296.791190141477
 31
0.0
  0
LINE
  5
1C02A
  8
01
 10
16917.42120233671
 20
7296.791190141477
 30
0.0
 11
16917.69244567776
 21
7296.627305537808
 31
0.0
  0
LINE
  5
1C02B
  8
01
 10
16917.69244567776
 20
7296.627305537808
 30
0.0
 11
16917.96702494829
 21
7296.469073683918
 31
0.0
  0
LINE
  5
1C02C
  8
01
 10
16917.96702494829
 20
7296.469073683918
 30
0.0
 11
16918.24476245835
 21
7296.316594540123
 31
0.0
  0
LINE
  5
1C02D
  8
01
 10
16918.24476245835
 20
7296.316594540123
 30
0.0
 11
16918.5254766094
 21
7296.169960584168
 31
0.0
  0
LINE
  5
1C02E
  8
01
 10
16918.5254766094
 20
7296.169960584168
 30
0.0
 11
16918.80898228947
 21
7296.029256625206
 31
0.0
  0
LINE
  5
1C02F
  8
01
 10
16918.80898228947
 20
7296.029256625206
 30
0.0
 11
16918.96729487956
 21
7295.957038876677
 31
0.0
  0
LINE
  5
1C030
  8
01
 10
16918.96729487956
 20
7295.957038876677
 30
0.0
 11
16919.12684395795
 21
7295.887820440865
 31
0.0
  0
LINE
  5
1C031
  8
01
 10
16919.12684395795
 20
7295.887820440865
 30
0.0
 11
16919.2876496959
 21
7295.82183035398
 31
0.0
  0
LINE
  5
1C032
  8
01
 10
16919.2876496959
 20
7295.82183035398
 30
0.0
 11
16919.44973226466
 21
7295.759297652243
 31
0.0
  0
LINE
  5
1C033
  8
01
 10
16919.44973226466
 20
7295.759297652243
 30
0.0
 11
16919.61311183548
 21
7295.700451371868
 31
0.0
  0
LINE
  5
1C034
  8
01
 10
16919.61311183548
 20
7295.700451371868
 30
0.0
 11
16919.77780857959
 21
7295.645520549064
 31
0.0
  0
LINE
  5
1C035
  8
01
 10
16919.77780857959
 20
7295.645520549064
 30
0.0
 11
16919.94384266825
 21
7295.594734220049
 31
0.0
  0
LINE
  5
1C036
  8
01
 10
16919.94384266825
 20
7295.594734220049
 30
0.0
 11
16920.1112342727
 21
7295.54832142104
 31
0.0
  0
LINE
  5
1C037
  8
01
 10
16920.1112342727
 20
7295.54832142104
 30
0.0
 11
16920.28000356418
 21
7295.506511188247
 31
0.0
  0
LINE
  5
1C038
  8
01
 10
16920.28000356418
 20
7295.506511188247
 30
0.0
 11
16920.45017071396
 21
7295.469532557883
 31
0.0
  0
LINE
  5
1C039
  8
01
 10
16920.45017071396
 20
7295.469532557883
 30
0.0
 11
16920.62175589326
 21
7295.43761456617
 31
0.0
  0
LINE
  5
1C03A
  8
01
 10
16920.62175589326
 20
7295.43761456617
 30
0.0
 11
16920.79477927334
 21
7295.410986249317
 31
0.0
  0
LINE
  5
1C03B
  8
01
 10
16920.79477927334
 20
7295.410986249317
 30
0.0
 11
16920.96926102545
 21
7295.389876643538
 31
0.0
  0
LINE
  5
1C03C
  8
01
 10
16920.96926102545
 20
7295.389876643538
 30
0.0
 11
16921.14522132082
 21
7295.37451478505
 31
0.0
  0
LINE
  5
1C03D
  8
01
 10
16921.14522132082
 20
7295.37451478505
 30
0.0
 11
16921.32268033071
 21
7295.365129710066
 31
0.0
  0
LINE
  5
1C03E
  8
01
 10
16921.32268033071
 20
7295.365129710066
 30
0.0
 11
16921.41197815711
 21
7295.362750040207
 31
0.0
  0
LINE
  5
1C03F
  8
01
 10
16921.41197815711
 20
7295.362750040207
 30
0.0
 11
16921.50165822636
 21
7295.361950454801
 31
0.0
  0
LINE
  5
1C040
  8
01
 10
16921.50165822636
 20
7295.361950454801
 30
0.0
 11
16921.59133829561
 21
7295.362750040207
 31
0.0
  0
LINE
  5
1C041
  8
01
 10
16921.59133829561
 20
7295.362750040207
 30
0.0
 11
16921.68063612201
 21
7295.365129710066
 31
0.0
  0
LINE
  5
1C042
  8
01
 10
16921.68063612201
 20
7295.365129710066
 30
0.0
 11
16921.8580951319
 21
7295.37451478505
 31
0.0
  0
LINE
  5
1C043
  8
01
 10
16921.8580951319
 20
7295.37451478505
 30
0.0
 11
16922.03405542727
 21
7295.389876643538
 31
0.0
  0
LINE
  5
1C044
  8
01
 10
16922.03405542727
 20
7295.389876643538
 30
0.0
 11
16922.20853717938
 21
7295.410986249317
 31
0.0
  0
LINE
  5
1C045
  8
01
 10
16922.20853717938
 20
7295.410986249317
 30
0.0
 11
16922.38156055946
 21
7295.43761456617
 31
0.0
  0
LINE
  5
1C046
  8
01
 10
16922.38156055946
 20
7295.43761456617
 30
0.0
 11
16922.55314573876
 21
7295.469532557883
 31
0.0
  0
LINE
  5
1C047
  8
01
 10
16922.55314573876
 20
7295.469532557883
 30
0.0
 11
16922.72331288853
 21
7295.506511188247
 31
0.0
  0
LINE
  5
1C048
  8
01
 10
16922.72331288853
 20
7295.506511188247
 30
0.0
 11
16922.89208218002
 21
7295.54832142104
 31
0.0
  0
LINE
  5
1C049
  8
01
 10
16922.89208218002
 20
7295.54832142104
 30
0.0
 11
16923.05947378447
 21
7295.594734220049
 31
0.0
  0
LINE
  5
1C04A
  8
01
 10
16923.05947378447
 20
7295.594734220049
 30
0.0
 11
16923.22550787313
 21
7295.645520549064
 31
0.0
  0
LINE
  5
1C04B
  8
01
 10
16923.22550787313
 20
7295.645520549064
 30
0.0
 11
16923.39020461724
 21
7295.700451371868
 31
0.0
  0
LINE
  5
1C04C
  8
01
 10
16923.39020461724
 20
7295.700451371868
 30
0.0
 11
16923.55358418806
 21
7295.759297652243
 31
0.0
  0
LINE
  5
1C04D
  8
01
 10
16923.55358418806
 20
7295.759297652243
 30
0.0
 11
16923.71566675682
 21
7295.82183035398
 31
0.0
  0
LINE
  5
1C04E
  8
01
 10
16923.71566675682
 20
7295.82183035398
 30
0.0
 11
16923.87647249477
 21
7295.887820440861
 31
0.0
  0
LINE
  5
1C04F
  8
01
 10
16923.87647249477
 20
7295.887820440861
 30
0.0
 11
16924.03602157317
 21
7295.957038876677
 31
0.0
  0
LINE
  5
1C050
  8
01
 10
16924.03602157317
 20
7295.957038876677
 30
0.0
 11
16924.19433416325
 21
7296.029256625203
 31
0.0
  0
LINE
  5
1C051
  8
01
 10
16924.19433416325
 20
7296.029256625203
 30
0.0
 11
16924.53900253788
 21
7296.197927877958
 31
0.0
  0
LINE
  5
1C052
  8
01
 10
16924.53900253788
 20
7296.197927877958
 30
0.0
 11
16924.87782508156
 21
7296.378054399796
 31
0.0
  0
LINE
  5
1C053
  8
01
 10
16934.00165822636
 20
7338.762938599903
 30
0.0
 11
16909.00165822636
 21
7338.762938599903
 31
0.0
  0
ARC
  5
1C054
  8
01
 10
16921.50165822636
 20
7358.762938599899
 30
0.0
 40
3.800133805782863
 50
180.0
 51
270.0
  0
ARC
  5
1C055
  8
01
 10
16921.50165822636
 20
7358.762938599899
 30
0.0
 40
3.800133805782934
 50
270.0
 51
90.0
  0
ARC
  5
1C056
  8
01
 10
16921.50165822636
 20
7358.762938599899
 30
0.0
 40
3.800133805782707
 50
90.0
 51
180.0
  0
LINE
  5
1C057
  8
01
 10
16922.12669706144
 20
7357.729688717383
 30
0.0
 11
16922.12665822636
 21
7356.637938599899
 31
0.0
  0
LINE
  5
1C058
  8
01
 10
16922.12665822636
 20
7358.137938599899
 30
0.0
 11
16922.12668755979
 21
7357.813807709426
 31
0.0
  0
LINE
  5
1C059
  8
01
 10
16923.62665822636
 20
7358.137938599899
 30
0.0
 11
16922.12665822636
 21
7358.137938599899
 31
0.0
  0
LINE
  5
1C05A
  8
01
 10
16923.62665822636
 20
7359.387938599899
 30
0.0
 11
16923.62665822636
 21
7358.137938599899
 31
0.0
  0
LINE
  5
1C05B
  8
01
 10
16922.12665822636
 20
7359.387938599899
 30
0.0
 11
16923.62665822636
 21
7359.387938599899
 31
0.0
  0
LINE
  5
1C05C
  8
01
 10
16922.12668766661
 20
7359.712069488025
 30
0.0
 11
16922.12665822636
 21
7359.387938599899
 31
0.0
  0
LINE
  5
1C05D
  8
01
 10
16922.12665822636
 20
7360.887938599899
 30
0.0
 11
16922.12669721757
 21
7359.796255685367
 31
0.0
  0
LINE
  5
1C05E
  8
01
 10
16921.50165822636
 20
7360.887938599899
 30
0.0
 11
16922.12665822636
 21
7360.887938599899
 31
0.0
  0
LINE
  5
1C05F
  8
01
 10
16920.87665822636
 20
7360.887938599899
 30
0.0
 11
16921.50165822636
 21
7360.887938599899
 31
0.0
  0
LINE
  5
1C060
  8
01
 10
16920.87661939128
 20
7359.796188482414
 30
0.0
 11
16920.87665822636
 21
7360.887938599899
 31
0.0
  0
LINE
  5
1C061
  8
01
 10
16920.87665822636
 20
7359.387938599899
 30
0.0
 11
16920.87662889293
 21
7359.712069490368
 31
0.0
  0
LINE
  5
1C062
  8
01
 10
16919.37665822636
 20
7359.387938599899
 30
0.0
 11
16920.87665822636
 21
7359.387938599899
 31
0.0
  0
LINE
  5
1C063
  8
01
 10
16919.37665822636
 20
7358.137938599899
 30
0.0
 11
16919.37665822636
 21
7359.387938599899
 31
0.0
  0
LINE
  5
1C064
  8
01
 10
16920.87665822636
 20
7358.137938599899
 30
0.0
 11
16919.37665822636
 21
7358.137938599899
 31
0.0
  0
LINE
  5
1C065
  8
01
 10
16920.87662882051
 20
7357.81380771086
 30
0.0
 11
16920.87665822636
 21
7358.137938599899
 31
0.0
  0
LINE
  5
1C066
  8
01
 10
16920.87665822636
 20
7356.637938599899
 30
0.0
 11
16920.87661928874
 21
7357.72962742762
 31
0.0
  0
LINE
  5
1C067
  8
01
 10
16922.12665822636
 20
7356.637938599899
 30
0.0
 11
16920.87665822636
 21
7356.637938599899
 31
0.0
  0
ARC
  5
1C068
  8
01
 10
16921.50165822636
 20
7359.567198257238
 30
0.0
 40
3.354594793857159
 50
28.94821982263188
 51
151.0517801773681
  0
ARC
  5
1C069
  8
01
 10
16921.50165822314
 20
7357.958678937095
 30
0.0
 40
3.354594788395055
 50
208.9482197676351
 51
331.0517788249056
  0
LINE
  5
1C06A
  8
01
 10
16909.00165822636
 20
7350.762938599903
 30
0.0
 11
16909.00165822636
 21
7385.762941053647
 31
0.0
  0
LINE
  5
1C06B
  8
01
 10
16925.28641757652
 20
7392.91325792731
 30
0.0
 11
16925.83615587949
 21
7392.570850560056
 31
0.0
  0
LINE
  5
1C06C
  8
01
 10
16925.83615587949
 20
7392.570850560056
 30
0.0
 11
16926.37411823791
 21
7392.210224011076
 31
0.0
  0
LINE
  5
1C06D
  8
01
 10
16926.37411823791
 20
7392.210224011076
 30
0.0
 11
16927.33504069772
 21
7391.510912105779
 31
0.0
  0
LINE
  5
1C06E
  8
01
 10
16927.33504069772
 20
7391.510912105779
 30
0.0
 11
16928.27716849162
 21
7390.786478302984
 31
0.0
  0
LINE
  5
1C06F
  8
01
 10
16928.27716849162
 20
7390.786478302984
 30
0.0
 11
16929.19984502319
 21
7390.037427481788
 31
0.0
  0
LINE
  5
1C070
  8
01
 10
16929.19984502319
 20
7390.037427481788
 30
0.0
 11
16930.1024272522
 21
7389.264281677602
 31
0.0
  0
LINE
  5
1C071
  8
01
 10
16930.1024272522
 20
7389.264281677602
 30
0.0
 11
16933.99689381191
 21
7385.767376229429
 31
0.0
  0
LINE
  5
1C072
  8
01
 10
16909.00165822636
 20
7385.762941053647
 30
0.0
 11
16912.90088920051
 21
7389.264281677602
 31
0.0
  0
LINE
  5
1C073
  8
01
 10
16912.90088920051
 20
7389.264281677602
 30
0.0
 11
16913.80347142953
 21
7390.037427481788
 31
0.0
  0
LINE
  5
1C074
  8
01
 10
16913.80347142953
 20
7390.037427481788
 30
0.0
 11
16914.72614796111
 21
7390.786478302984
 31
0.0
  0
LINE
  5
1C075
  8
01
 10
16914.72614796111
 20
7390.786478302984
 30
0.0
 11
16915.668275755
 21
7391.510912105779
 31
0.0
  0
LINE
  5
1C076
  8
01
 10
16915.668275755
 20
7391.510912105779
 30
0.0
 11
16916.62919821481
 21
7392.210224011076
 31
0.0
  0
LINE
  5
1C077
  8
01
 10
16916.62919821481
 20
7392.210224011076
 30
0.0
 11
16916.88941226799
 21
7392.390395507908
 31
0.0
  0
LINE
  5
1C078
  8
01
 10
16916.88941226799
 20
7392.390395507908
 30
0.0
 11
16917.1534681511
 21
7392.565256838428
 31
0.0
  0
LINE
  5
1C079
  8
01
 10
16917.1534681511
 20
7392.565256838428
 30
0.0
 11
16917.42120213586
 21
7392.734686944885
 31
0.0
  0
LINE
  5
1C07A
  8
01
 10
16917.42120213586
 20
7392.734686944885
 30
0.0
 11
16917.69244547913
 21
7392.898571552032
 31
0.0
  0
LINE
  5
1C07B
  8
01
 10
16917.69244547913
 20
7392.898571552032
 30
0.0
 11
16917.96702477676
 21
7393.056803423166
 31
0.0
  0
LINE
  5
1C07C
  8
01
 10
16917.96702477676
 20
7393.056803423166
 30
0.0
 11
16918.2447623329
 21
7393.209282593813
 31
0.0
  0
LINE
  5
1C07D
  8
01
 10
16918.2447623329
 20
7393.209282593813
 30
0.0
 11
16918.52547654309
 21
7393.355916582059
 31
0.0
  0
LINE
  5
1C07E
  8
01
 10
16918.52547654309
 20
7393.355916582059
 30
0.0
 11
16918.80898228947
 21
7393.496620574599
 31
0.0
  0
LINE
  5
1C07F
  8
01
 10
16918.80898228947
 20
7393.496620574599
 30
0.0
 11
16918.96729487956
 21
7393.568838323128
 31
0.0
  0
LINE
  5
1C080
  8
01
 10
16918.96729487956
 20
7393.568838323128
 30
0.0
 11
16919.12684395795
 21
7393.63805675894
 31
0.0
  0
LINE
  5
1C081
  8
01
 10
16919.12684395795
 20
7393.63805675894
 30
0.0
 11
16919.2876496959
 21
7393.704046845822
 31
0.0
  0
LINE
  5
1C082
  8
01
 10
16919.2876496959
 20
7393.704046845822
 30
0.0
 11
16919.44973226466
 21
7393.766579547559
 31
0.0
  0
LINE
  5
1C083
  8
01
 10
16919.44973226466
 20
7393.766579547559
 30
0.0
 11
16919.61311183548
 21
7393.825425827934
 31
0.0
  0
LINE
  5
1C084
  8
01
 10
16919.61311183548
 20
7393.825425827934
 30
0.0
 11
16919.77780857959
 21
7393.880356650738
 31
0.0
  0
LINE
  5
1C085
  8
01
 10
16919.77780857959
 20
7393.880356650738
 30
0.0
 11
16919.94384266825
 21
7393.931142979753
 31
0.0
  0
LINE
  5
1C086
  8
01
 10
16919.94384266825
 20
7393.931142979753
 30
0.0
 11
16920.1112342727
 21
7393.977555778762
 31
0.0
  0
LINE
  5
1C087
  8
01
 10
16920.1112342727
 20
7393.977555778762
 30
0.0
 11
16920.28000356418
 21
7394.019366011558
 31
0.0
  0
LINE
  5
1C088
  8
01
 10
16920.28000356418
 20
7394.019366011558
 30
0.0
 11
16920.45017071396
 21
7394.056344641918
 31
0.0
  0
LINE
  5
1C089
  8
01
 10
16920.45017071396
 20
7394.056344641918
 30
0.0
 11
16920.62175589326
 21
7394.088262633632
 31
0.0
  0
LINE
  5
1C08A
  8
01
 10
16920.62175589326
 20
7394.088262633632
 30
0.0
 11
16920.79477927334
 21
7394.114890950488
 31
0.0
  0
LINE
  5
1C08B
  8
01
 10
16920.79477927334
 20
7394.114890950488
 30
0.0
 11
16920.96926102545
 21
7394.136000556264
 31
0.0
  0
LINE
  5
1C08C
  8
01
 10
16920.96926102545
 20
7394.136000556264
 30
0.0
 11
16921.14522132082
 21
7394.151362414752
 31
0.0
  0
LINE
  5
1C08D
  8
01
 10
16921.14522132082
 20
7394.151362414752
 30
0.0
 11
16921.32268033071
 21
7394.160747489736
 31
0.0
  0
LINE
  5
1C08E
  8
01
 10
16921.32268033071
 20
7394.160747489736
 30
0.0
 11
16921.41197815711
 21
7394.163127159598
 31
0.0
  0
LINE
  5
1C08F
  8
01
 10
16921.41197815711
 20
7394.163127159598
 30
0.0
 11
16921.50165822636
 21
7394.163926745001
 31
0.0
  0
LINE
  5
1C090
  8
01
 10
16921.50165822636
 20
7394.163926745001
 30
0.0
 11
16921.59133829561
 21
7394.163127159598
 31
0.0
  0
LINE
  5
1C091
  8
01
 10
16921.59133829561
 20
7394.163127159598
 30
0.0
 11
16921.68063612201
 21
7394.160747489736
 31
0.0
  0
LINE
  5
1C092
  8
01
 10
16921.68063612201
 20
7394.160747489736
 30
0.0
 11
16921.8580951319
 21
7394.151362414752
 31
0.0
  0
LINE
  5
1C093
  8
01
 10
16921.8580951319
 20
7394.151362414752
 30
0.0
 11
16922.03405542727
 21
7394.136000556264
 31
0.0
  0
LINE
  5
1C094
  8
01
 10
16922.03405542727
 20
7394.136000556264
 30
0.0
 11
16922.20853717938
 21
7394.114890950488
 31
0.0
  0
LINE
  5
1C095
  8
01
 10
16922.20853717938
 20
7394.114890950488
 30
0.0
 11
16922.38156055946
 21
7394.088262633632
 31
0.0
  0
LINE
  5
1C096
  8
01
 10
16922.38156055946
 20
7394.088262633632
 30
0.0
 11
16922.55314573876
 21
7394.056344641918
 31
0.0
  0
LINE
  5
1C097
  8
01
 10
16922.55314573876
 20
7394.056344641918
 30
0.0
 11
16922.72331288853
 21
7394.019366011558
 31
0.0
  0
LINE
  5
1C098
  8
01
 10
16922.72331288853
 20
7394.019366011558
 30
0.0
 11
16922.89208218002
 21
7393.977555778762
 31
0.0
  0
LINE
  5
1C099
  8
01
 10
16922.89208218002
 20
7393.977555778762
 30
0.0
 11
16923.05947378447
 21
7393.931142979753
 31
0.0
  0
LINE
  5
1C09A
  8
01
 10
16923.05947378447
 20
7393.931142979753
 30
0.0
 11
16923.22550787313
 21
7393.880356650738
 31
0.0
  0
LINE
  5
1C09B
  8
01
 10
16923.22550787313
 20
7393.880356650738
 30
0.0
 11
16923.39020461724
 21
7393.825425827934
 31
0.0
  0
LINE
  5
1C09C
  8
01
 10
16923.39020461724
 20
7393.825425827934
 30
0.0
 11
16923.55358418806
 21
7393.766579547559
 31
0.0
  0
LINE
  5
1C09D
  8
01
 10
16923.55358418806
 20
7393.766579547559
 30
0.0
 11
16923.71566675682
 21
7393.704046845822
 31
0.0
  0
LINE
  5
1C09E
  8
01
 10
16923.71566675682
 20
7393.704046845822
 30
0.0
 11
16923.87647249477
 21
7393.63805675894
 31
0.0
  0
LINE
  5
1C09F
  8
01
 10
16923.87647249477
 20
7393.63805675894
 30
0.0
 11
16924.03602157317
 21
7393.568838323128
 31
0.0
  0
LINE
  5
1C0A0
  8
01
 10
16924.03602157317
 20
7393.568838323128
 30
0.0
 11
16924.19433416325
 21
7393.496620574599
 31
0.0
  0
LINE
  5
1C0A1
  8
01
 10
16924.19433416325
 20
7393.496620574599
 30
0.0
 11
16924.53900253788
 21
7393.327949321843
 31
0.0
  0
LINE
  5
1C0A2
  8
01
 10
16924.53900253788
 20
7393.327949321843
 30
0.0
 11
16924.87782508156
 21
7393.147822800005
 31
0.0
  0
LINE
  5
1C0A3
  8
01
 10
16934.00165822636
 20
7350.762938599903
 30
0.0
 11
16909.00165822636
 21
7350.762938599903
 31
0.0
  0
ARC
  5
1C0A4
  8
01
 10
16491.50165822636
 20
7359.559048321564
 30
0.0
 40
3.362744729530697
 50
27.82460798403989
 51
152.1753920159601
  0
ARC
  5
1C0A5
  8
01
 10
16491.50165822738
 20
7357.966828876539
 30
0.0
 40
3.362744727838041
 50
207.8246081134949
 51
332.1753920334044
  0
LINE
  5
1C0A6
  8
01
 10
16504.00165822636
 20
7350.762938599903
 30
0.0
 11
16504.00165822636
 21
7385.762941053647
 31
0.0
  0
LINE
  5
1C0A7
  8
01
 10
16487.7168988762
 20
7392.91325792731
 30
0.0
 11
16487.16716057323
 21
7392.570850560056
 31
0.0
  0
LINE
  5
1C0A8
  8
01
 10
16487.16716057323
 20
7392.570850560056
 30
0.0
 11
16486.62919821481
 21
7392.210224011076
 31
0.0
  0
LINE
  5
1C0A9
  8
01
 10
16486.62919821481
 20
7392.210224011076
 30
0.0
 11
16485.668275755
 21
7391.510912105779
 31
0.0
  0
LINE
  5
1C0AA
  8
01
 10
16485.668275755
 20
7391.510912105779
 30
0.0
 11
16484.72614796111
 21
7390.786478302984
 31
0.0
  0
LINE
  5
1C0AB
  8
01
 10
16484.72614796111
 20
7390.786478302984
 30
0.0
 11
16483.80347142953
 21
7390.037427481788
 31
0.0
  0
LINE
  5
1C0AC
  8
01
 10
16483.80347142953
 20
7390.037427481788
 30
0.0
 11
16482.90088920051
 21
7389.264281677602
 31
0.0
  0
LINE
  5
1C0AD
  8
01
 10
16482.90088920051
 20
7389.264281677602
 30
0.0
 11
16479.00642264082
 21
7385.767376229429
 31
0.0
  0
LINE
  5
1C0AE
  8
01
 10
16504.00165822636
 20
7385.762941053647
 30
0.0
 11
16500.1024272522
 21
7389.264281677602
 31
0.0
  0
LINE
  5
1C0AF
  8
01
 10
16500.1024272522
 20
7389.264281677602
 30
0.0
 11
16499.19984502319
 21
7390.037427481788
 31
0.0
  0
LINE
  5
1C0B0
  8
01
 10
16499.19984502319
 20
7390.037427481788
 30
0.0
 11
16498.27716849162
 21
7390.786478302984
 31
0.0
  0
LINE
  5
1C0B1
  8
01
 10
16498.27716849162
 20
7390.786478302984
 30
0.0
 11
16497.33504069772
 21
7391.510912105779
 31
0.0
  0
LINE
  5
1C0B2
  8
01
 10
16497.33504069772
 20
7391.510912105779
 30
0.0
 11
16496.37411823791
 21
7392.210224011076
 31
0.0
  0
LINE
  5
1C0B3
  8
01
 10
16496.37411823791
 20
7392.210224011076
 30
0.0
 11
16496.11390418473
 21
7392.390395507908
 31
0.0
  0
LINE
  5
1C0B4
  8
01
 10
16496.11390418473
 20
7392.390395507908
 30
0.0
 11
16495.84984830162
 21
7392.565256838428
 31
0.0
  0
LINE
  5
1C0B5
  8
01
 10
16495.84984830162
 20
7392.565256838428
 30
0.0
 11
16495.58211431686
 21
7392.734686944885
 31
0.0
  0
LINE
  5
1C0B6
  8
01
 10
16495.58211431686
 20
7392.734686944885
 30
0.0
 11
16495.31087097359
 21
7392.898571552032
 31
0.0
  0
LINE
  5
1C0B7
  8
01
 10
16495.31087097359
 20
7392.898571552032
 30
0.0
 11
16495.03629167596
 21
7393.056803423166
 31
0.0
  0
LINE
  5
1C0B8
  8
01
 10
16495.03629167596
 20
7393.056803423166
 30
0.0
 11
16494.75855411982
 21
7393.209282593813
 31
0.0
  0
LINE
  5
1C0B9
  8
01
 10
16494.75855411982
 20
7393.209282593813
 30
0.0
 11
16494.47783990962
 21
7393.355916582059
 31
0.0
  0
LINE
  5
1C0BA
  8
01
 10
16494.47783990962
 20
7393.355916582059
 30
0.0
 11
16494.19433416325
 21
7393.496620574599
 31
0.0
  0
LINE
  5
1C0BB
  8
01
 10
16494.19433416325
 20
7393.496620574599
 30
0.0
 11
16494.03602157317
 21
7393.568838323128
 31
0.0
  0
LINE
  5
1C0BC
  8
01
 10
16494.03602157317
 20
7393.568838323128
 30
0.0
 11
16493.87647249477
 21
7393.63805675894
 31
0.0
  0
LINE
  5
1C0BD
  8
01
 10
16493.87647249477
 20
7393.63805675894
 30
0.0
 11
16493.71566675682
 21
7393.704046845822
 31
0.0
  0
LINE
  5
1C0BE
  8
01
 10
16493.71566675682
 20
7393.704046845822
 30
0.0
 11
16493.55358418806
 21
7393.766579547559
 31
0.0
  0
LINE
  5
1C0BF
  8
01
 10
16493.55358418806
 20
7393.766579547559
 30
0.0
 11
16493.39020461724
 21
7393.825425827934
 31
0.0
  0
LINE
  5
1C0C0
  8
01
 10
16493.39020461724
 20
7393.825425827934
 30
0.0
 11
16493.22550787313
 21
7393.880356650738
 31
0.0
  0
LINE
  5
1C0C1
  8
01
 10
16493.22550787313
 20
7393.880356650738
 30
0.0
 11
16493.05947378447
 21
7393.931142979753
 31
0.0
  0
LINE
  5
1C0C2
  8
01
 10
16493.05947378447
 20
7393.931142979753
 30
0.0
 11
16492.89208218002
 21
7393.977555778762
 31
0.0
  0
LINE
  5
1C0C3
  8
01
 10
16492.89208218002
 20
7393.977555778762
 30
0.0
 11
16492.72331288853
 21
7394.019366011558
 31
0.0
  0
LINE
  5
1C0C4
  8
01
 10
16492.72331288853
 20
7394.019366011558
 30
0.0
 11
16492.55314573876
 21
7394.056344641918
 31
0.0
  0
LINE
  5
1C0C5
  8
01
 10
16492.55314573876
 20
7394.056344641918
 30
0.0
 11
16492.38156055946
 21
7394.088262633632
 31
0.0
  0
LINE
  5
1C0C6
  8
01
 10
16492.38156055946
 20
7394.088262633632
 30
0.0
 11
16492.20853717938
 21
7394.114890950488
 31
0.0
  0
LINE
  5
1C0C7
  8
01
 10
16492.20853717938
 20
7394.114890950488
 30
0.0
 11
16492.03405542728
 21
7394.136000556264
 31
0.0
  0
LINE
  5
1C0C8
  8
01
 10
16492.03405542728
 20
7394.136000556264
 30
0.0
 11
16491.8580951319
 21
7394.151362414752
 31
0.0
  0
LINE
  5
1C0C9
  8
01
 10
16491.8580951319
 20
7394.151362414752
 30
0.0
 11
16491.68063612201
 21
7394.160747489736
 31
0.0
  0
LINE
  5
1C0CA
  8
01
 10
16491.68063612201
 20
7394.160747489736
 30
0.0
 11
16491.59133829561
 21
7394.163127159598
 31
0.0
  0
LINE
  5
1C0CB
  8
01
 10
16491.59133829561
 20
7394.163127159598
 30
0.0
 11
16491.50165822636
 21
7394.163926745001
 31
0.0
  0
LINE
  5
1C0CC
  8
01
 10
16491.50165822636
 20
7394.163926745001
 30
0.0
 11
16491.41197815711
 21
7394.163127159598
 31
0.0
  0
LINE
  5
1C0CD
  8
01
 10
16491.41197815711
 20
7394.163127159598
 30
0.0
 11
16491.32268033071
 21
7394.160747489736
 31
0.0
  0
LINE
  5
1C0CE
  8
01
 10
16491.32268033071
 20
7394.160747489736
 30
0.0
 11
16491.14522132082
 21
7394.151362414752
 31
0.0
  0
LINE
  5
1C0CF
  8
01
 10
16491.14522132082
 20
7394.151362414752
 30
0.0
 11
16490.96926102545
 21
7394.136000556264
 31
0.0
  0
LINE
  5
1C0D0
  8
01
 10
16490.96926102545
 20
7394.136000556264
 30
0.0
 11
16490.79477927334
 21
7394.114890950488
 31
0.0
  0
LINE
  5
1C0D1
  8
01
 10
16490.79477927334
 20
7394.114890950488
 30
0.0
 11
16490.62175589326
 21
7394.088262633632
 31
0.0
  0
LINE
  5
1C0D2
  8
01
 10
16490.62175589326
 20
7394.088262633632
 30
0.0
 11
16490.45017071396
 21
7394.056344641918
 31
0.0
  0
LINE
  5
1C0D3
  8
01
 10
16490.45017071396
 20
7394.056344641918
 30
0.0
 11
16490.28000356418
 21
7394.019366011558
 31
0.0
  0
LINE
  5
1C0D4
  8
01
 10
16490.28000356418
 20
7394.019366011558
 30
0.0
 11
16490.1112342727
 21
7393.977555778762
 31
0.0
  0
LINE
  5
1C0D5
  8
01
 10
16490.1112342727
 20
7393.977555778762
 30
0.0
 11
16489.94384266825
 21
7393.931142979753
 31
0.0
  0
LINE
  5
1C0D6
  8
01
 10
16489.94384266825
 20
7393.931142979753
 30
0.0
 11
16489.77780857959
 21
7393.880356650738
 31
0.0
  0
LINE
  5
1C0D7
  8
01
 10
16489.77780857959
 20
7393.880356650738
 30
0.0
 11
16489.61311183548
 21
7393.825425827934
 31
0.0
  0
LINE
  5
1C0D8
  8
01
 10
16489.61311183548
 20
7393.825425827934
 30
0.0
 11
16489.44973226466
 21
7393.766579547559
 31
0.0
  0
LINE
  5
1C0D9
  8
01
 10
16489.44973226466
 20
7393.766579547559
 30
0.0
 11
16489.2876496959
 21
7393.704046845822
 31
0.0
  0
LINE
  5
1C0DA
  8
01
 10
16489.2876496959
 20
7393.704046845822
 30
0.0
 11
16489.12684395795
 21
7393.63805675894
 31
0.0
  0
LINE
  5
1C0DB
  8
01
 10
16489.12684395795
 20
7393.63805675894
 30
0.0
 11
16488.96729487955
 21
7393.568838323128
 31
0.0
  0
LINE
  5
1C0DC
  8
01
 10
16488.96729487955
 20
7393.568838323128
 30
0.0
 11
16488.80898228947
 21
7393.496620574599
 31
0.0
  0
LINE
  5
1C0DD
  8
01
 10
16488.80898228947
 20
7393.496620574599
 30
0.0
 11
16488.46431391484
 21
7393.327949321843
 31
0.0
  0
LINE
  5
1C0DE
  8
01
 10
16488.46431391484
 20
7393.327949321843
 30
0.0
 11
16488.12549137116
 21
7393.147822800005
 31
0.0
  0
LINE
  5
1C0DF
  8
01
 10
16479.00165822636
 20
7350.762938599903
 30
0.0
 11
16504.00165822636
 21
7350.762938599903
 31
0.0
  0
ARC
  5
1C0E0
  8
01
 10
16491.50165822636
 20
7358.762938599899
 30
0.0
 40
3.800133805783048
 50
270.0
 51
0.0
  0
ARC
  5
1C0E1
  8
01
 10
16491.50165822636
 20
7358.762938599899
 30
0.0
 40
3.800133805782934
 50
90.0
 51
270.0
  0
ARC
  5
1C0E2
  8
01
 10
16491.50165822636
 20
7358.762938599899
 30
0.0
 40
3.800133805782707
 50
0.0
 51
90.0
  0
LINE
  5
1C0E3
  8
01
 10
16490.87665822636
 20
7358.137938599899
 30
0.0
 11
16490.87665822636
 21
7356.637938599899
 31
0.0
  0
LINE
  5
1C0E4
  8
01
 10
16489.37665822636
 20
7358.137938599899
 30
0.0
 11
16490.87665822636
 21
7358.137938599899
 31
0.0
  0
LINE
  5
1C0E5
  8
01
 10
16489.37665822636
 20
7359.387938599899
 30
0.0
 11
16489.37665822636
 21
7358.137938599899
 31
0.0
  0
LINE
  5
1C0E6
  8
01
 10
16490.87665822636
 20
7359.387938599899
 30
0.0
 11
16489.37665822636
 21
7359.387938599899
 31
0.0
  0
LINE
  5
1C0E7
  8
01
 10
16490.87665822636
 20
7360.887938599899
 30
0.0
 11
16490.87665822636
 21
7359.387938599899
 31
0.0
  0
LINE
  5
1C0E8
  8
01
 10
16491.50165822636
 20
7360.887938599899
 30
0.0
 11
16490.87665822636
 21
7360.887938599899
 31
0.0
  0
LINE
  5
1C0E9
  8
01
 10
16492.12665822636
 20
7360.887938599899
 30
0.0
 11
16491.50165822636
 21
7360.887938599899
 31
0.0
  0
LINE
  5
1C0EA
  8
01
 10
16492.12665822636
 20
7359.387938599899
 30
0.0
 11
16492.12665822636
 21
7360.887938599899
 31
0.0
  0
LINE
  5
1C0EB
  8
01
 10
16493.62665822636
 20
7359.387938599899
 30
0.0
 11
16492.12665822636
 21
7359.387938599899
 31
0.0
  0
LINE
  5
1C0EC
  8
01
 10
16493.62665822636
 20
7358.137938599899
 30
0.0
 11
16493.62665822636
 21
7359.387938599899
 31
0.0
  0
LINE
  5
1C0ED
  8
01
 10
16492.12665822636
 20
7358.137938599899
 30
0.0
 11
16493.62665822636
 21
7358.137938599899
 31
0.0
  0
LINE
  5
1C0EE
  8
01
 10
16492.12665822636
 20
7356.637938599899
 30
0.0
 11
16492.12665822636
 21
7358.137938599899
 31
0.0
  0
LINE
  5
1C0EF
  8
01
 10
16490.87665822636
 20
7356.637938599899
 30
0.0
 11
16492.12665822636
 21
7356.637938599899
 31
0.0
  0
LINE
  5
1C0F0
  8
01
 10
16409.50165822636
 20
7268.896745242564
 30
0.0
 11
17003.50165822636
 21
7268.89674524267
 31
0.0
  0
LINE
  5
1C0F1
  8
01
 10
16409.50165822636
 20
7304.812930941207
 30
0.0
 11
16409.50165822636
 21
7275.712930941208
 31
0.0
  0
LINE
  5
1C0F2
  8
01
 10
16405.50165822636
 20
7304.812930941207
 30
0.0
 11
16405.50165822636
 21
7290.262930941208
 31
0.0
  0
LINE
  5
1C0F3
  8
01
 10
16405.50165822636
 20
7290.262930941208
 30
0.0
 11
16405.50165822636
 21
7275.712930941208
 31
0.0
  0
LINE
  5
1C0F4
  8
01
 10
17007.50165822636
 20
7304.812930941207
 30
0.0
 11
17007.50165822636
 21
7290.262930941208
 31
0.0
  0
LINE
  5
1C0F5
  8
01
 10
17007.50165822636
 20
7290.262930941208
 30
0.0
 11
17007.50165822636
 21
7275.712930941208
 31
0.0
  0
LINE
  5
1C0F6
  8
01
 10
17003.50165822636
 20
7304.812930941207
 30
0.0
 11
17003.50165822636
 21
7290.262930941208
 31
0.0
  0
LINE
  5
1C0F7
  8
01
 10
17003.50165822636
 20
7290.262930941208
 30
0.0
 11
17003.50165822636
 21
7275.712930941208
 31
0.0
  0
LINE
  5
1C0F8
  8
01
 10
17007.50165822636
 20
7384.712946258594
 30
0.0
 11
17007.50165822636
 21
7399.262946258594
 31
0.0
  0
LINE
  5
1C0F9
  8
01
 10
17007.50165822636
 20
7399.262946258594
 30
0.0
 11
17007.50165822636
 21
7413.812946258593
 31
0.0
  0
LINE
  5
1C0FA
  8
01
 10
17003.50165822636
 20
7384.712946258594
 30
0.0
 11
17003.50165822636
 21
7399.262946258594
 31
0.0
  0
LINE
  5
1C0FB
  8
01
 10
17003.50165822636
 20
7399.262946258594
 30
0.0
 11
17003.50165822636
 21
7413.776285463187
 31
0.0
  0
LINE
  5
1C0FC
  8
01
 10
16409.50165822636
 20
7384.712946258594
 30
0.0
 11
16409.50165822636
 21
7399.262946258594
 31
0.0
  0
LINE
  5
1C0FD
  8
01
 10
16409.50165822636
 20
7399.262946258594
 30
0.0
 11
16409.50165822636
 21
7413.776285463187
 31
0.0
  0
LINE
  5
1C0FE
  8
01
 10
16405.50165822636
 20
7384.712946258594
 30
0.0
 11
16405.50165822636
 21
7399.262946258594
 31
0.0
  0
LINE
  5
1C0FF
  8
01
 10
16405.50165822636
 20
7399.262946258594
 30
0.0
 11
16405.50165822636
 21
7413.812946258593
 31
0.0
  0
LINE
  5
1C100
  8
01
 10
16504.00165822636
 20
7338.762938599903
 30
0.0
 11
16504.00165822636
 21
7303.762936146155
 31
0.0
  0
LINE
  5
1C101
  8
01
 10
16487.7168988762
 20
7296.612619272491
 30
0.0
 11
16487.16716057323
 21
7296.955026639745
 31
0.0
  0
LINE
  5
1C102
  8
01
 10
16487.16716057323
 20
7296.955026639745
 30
0.0
 11
16486.62919821481
 21
7297.315653188725
 31
0.0
  0
LINE
  5
1C103
  8
01
 10
16486.62919821481
 20
7297.315653188725
 30
0.0
 11
16485.668275755
 21
7298.014965094022
 31
0.0
  0
LINE
  5
1C104
  8
01
 10
16485.668275755
 20
7298.014965094022
 30
0.0
 11
16484.72614796111
 21
7298.739398896818
 31
0.0
  0
LINE
  5
1C105
  8
01
 10
16484.72614796111
 20
7298.739398896818
 30
0.0
 11
16483.80347142953
 21
7299.488449718014
 31
0.0
  0
LINE
  5
1C106
  8
01
 10
16483.80347142953
 20
7299.488449718014
 30
0.0
 11
16482.90088920051
 21
7300.261595522199
 31
0.0
  0
LINE
  5
1C107
  8
01
 10
16482.90088920051
 20
7300.261595522199
 30
0.0
 11
16479.00642264082
 21
7303.758500970373
 31
0.0
  0
LINE
  5
1C108
  8
01
 10
16504.00165822636
 20
7303.762936146155
 30
0.0
 11
16500.1024272522
 21
7300.261595522199
 31
0.0
  0
LINE
  5
1C109
  8
01
 10
16500.1024272522
 20
7300.261595522199
 30
0.0
 11
16499.19984502319
 21
7299.488449718014
 31
0.0
  0
LINE
  5
1C10A
  8
01
 10
16499.19984502319
 20
7299.488449718014
 30
0.0
 11
16498.27716849162
 21
7298.739398896818
 31
0.0
  0
LINE
  5
1C10B
  8
01
 10
16498.27716849162
 20
7298.739398896818
 30
0.0
 11
16497.33504069772
 21
7298.014965094022
 31
0.0
  0
LINE
  5
1C10C
  8
01
 10
16497.33504069772
 20
7298.014965094022
 30
0.0
 11
16496.37411823791
 21
7297.315653188725
 31
0.0
  0
LINE
  5
1C10D
  8
01
 10
16496.37411823791
 20
7297.315653188725
 30
0.0
 11
16496.11390418473
 21
7297.135481691894
 31
0.0
  0
LINE
  5
1C10E
  8
01
 10
16496.11390418473
 20
7297.135481691894
 30
0.0
 11
16495.84984830162
 21
7296.960620361373
 31
0.0
  0
LINE
  5
1C10F
  8
01
 10
16495.84984830162
 20
7296.960620361373
 30
0.0
 11
16495.58211431686
 21
7296.791190254917
 31
0.0
  0
LINE
  5
1C110
  8
01
 10
16495.58211431686
 20
7296.791190254917
 30
0.0
 11
16495.31087097359
 21
7296.627305647769
 31
0.0
  0
LINE
  5
1C111
  8
01
 10
16495.31087097359
 20
7296.627305647769
 30
0.0
 11
16495.03629167596
 21
7296.469073776636
 31
0.0
  0
LINE
  5
1C112
  8
01
 10
16495.03629167596
 20
7296.469073776636
 30
0.0
 11
16494.75855411982
 21
7296.316594605993
 31
0.0
  0
LINE
  5
1C113
  8
01
 10
16494.75855411982
 20
7296.316594605993
 30
0.0
 11
16494.47783990962
 21
7296.169960617743
 31
0.0
  0
LINE
  5
1C114
  8
01
 10
16494.47783990962
 20
7296.169960617743
 30
0.0
 11
16494.19433416325
 21
7296.029256625206
 31
0.0
  0
LINE
  5
1C115
  8
01
 10
16494.19433416325
 20
7296.029256625206
 30
0.0
 11
16494.03602157317
 21
7295.957038876677
 31
0.0
  0
LINE
  5
1C116
  8
01
 10
16494.03602157317
 20
7295.957038876677
 30
0.0
 11
16493.87647249477
 21
7295.887820440865
 31
0.0
  0
LINE
  5
1C117
  8
01
 10
16493.87647249477
 20
7295.887820440865
 30
0.0
 11
16493.71566675682
 21
7295.82183035398
 31
0.0
  0
LINE
  5
1C118
  8
01
 10
16493.71566675682
 20
7295.82183035398
 30
0.0
 11
16493.55358418806
 21
7295.759297652243
 31
0.0
  0
LINE
  5
1C119
  8
01
 10
16493.55358418806
 20
7295.759297652243
 30
0.0
 11
16493.39020461724
 21
7295.700451371868
 31
0.0
  0
LINE
  5
1C11A
  8
01
 10
16493.39020461724
 20
7295.700451371868
 30
0.0
 11
16493.22550787313
 21
7295.645520549064
 31
0.0
  0
LINE
  5
1C11B
  8
01
 10
16493.22550787313
 20
7295.645520549064
 30
0.0
 11
16493.05947378447
 21
7295.594734220049
 31
0.0
  0
LINE
  5
1C11C
  8
01
 10
16493.05947378447
 20
7295.594734220049
 30
0.0
 11
16492.89208218002
 21
7295.54832142104
 31
0.0
  0
LINE
  5
1C11D
  8
01
 10
16492.89208218002
 20
7295.54832142104
 30
0.0
 11
16492.72331288853
 21
7295.506511188247
 31
0.0
  0
LINE
  5
1C11E
  8
01
 10
16492.72331288853
 20
7295.506511188247
 30
0.0
 11
16492.55314573876
 21
7295.469532557883
 31
0.0
  0
LINE
  5
1C11F
  8
01
 10
16492.55314573876
 20
7295.469532557883
 30
0.0
 11
16492.38156055946
 21
7295.43761456617
 31
0.0
  0
LINE
  5
1C120
  8
01
 10
16492.38156055946
 20
7295.43761456617
 30
0.0
 11
16492.20853717938
 21
7295.410986249317
 31
0.0
  0
LINE
  5
1C121
  8
01
 10
16492.20853717938
 20
7295.410986249317
 30
0.0
 11
16492.03405542728
 21
7295.389876643538
 31
0.0
  0
LINE
  5
1C122
  8
01
 10
16492.03405542728
 20
7295.389876643538
 30
0.0
 11
16491.8580951319
 21
7295.37451478505
 31
0.0
  0
LINE
  5
1C123
  8
01
 10
16491.8580951319
 20
7295.37451478505
 30
0.0
 11
16491.68063612201
 21
7295.365129710066
 31
0.0
  0
LINE
  5
1C124
  8
01
 10
16491.68063612201
 20
7295.365129710066
 30
0.0
 11
16491.59133829561
 21
7295.362750040207
 31
0.0
  0
LINE
  5
1C125
  8
01
 10
16491.59133829561
 20
7295.362750040207
 30
0.0
 11
16491.50165822636
 21
7295.361950454801
 31
0.0
  0
LINE
  5
1C126
  8
01
 10
16491.50165822636
 20
7295.361950454801
 30
0.0
 11
16491.41197815711
 21
7295.362750040207
 31
0.0
  0
LINE
  5
1C127
  8
01
 10
16491.41197815711
 20
7295.362750040207
 30
0.0
 11
16491.32268033071
 21
7295.365129710066
 31
0.0
  0
LINE
  5
1C128
  8
01
 10
16491.32268033071
 20
7295.365129710066
 30
0.0
 11
16491.14522132082
 21
7295.37451478505
 31
0.0
  0
LINE
  5
1C129
  8
01
 10
16491.14522132082
 20
7295.37451478505
 30
0.0
 11
16490.96926102545
 21
7295.389876643538
 31
0.0
  0
LINE
  5
1C12A
  8
01
 10
16490.96926102545
 20
7295.389876643538
 30
0.0
 11
16490.79477927334
 21
7295.410986249317
 31
0.0
  0
LINE
  5
1C12B
  8
01
 10
16490.79477927334
 20
7295.410986249317
 30
0.0
 11
16490.62175589326
 21
7295.43761456617
 31
0.0
  0
LINE
  5
1C12C
  8
01
 10
16490.62175589326
 20
7295.43761456617
 30
0.0
 11
16490.45017071396
 21
7295.469532557883
 31
0.0
  0
LINE
  5
1C12D
  8
01
 10
16490.45017071396
 20
7295.469532557883
 30
0.0
 11
16490.28000356418
 21
7295.506511188247
 31
0.0
  0
LINE
  5
1C12E
  8
01
 10
16490.28000356418
 20
7295.506511188247
 30
0.0
 11
16490.1112342727
 21
7295.54832142104
 31
0.0
  0
LINE
  5
1C12F
  8
01
 10
16490.1112342727
 20
7295.54832142104
 30
0.0
 11
16489.94384266825
 21
7295.594734220049
 31
0.0
  0
LINE
  5
1C130
  8
01
 10
16489.94384266825
 20
7295.594734220049
 30
0.0
 11
16489.77780857959
 21
7295.645520549064
 31
0.0
  0
LINE
  5
1C131
  8
01
 10
16489.77780857959
 20
7295.645520549064
 30
0.0
 11
16489.61311183548
 21
7295.700451371868
 31
0.0
  0
LINE
  5
1C132
  8
01
 10
16489.61311183548
 20
7295.700451371868
 30
0.0
 11
16489.44973226466
 21
7295.759297652243
 31
0.0
  0
LINE
  5
1C133
  8
01
 10
16489.44973226466
 20
7295.759297652243
 30
0.0
 11
16489.2876496959
 21
7295.82183035398
 31
0.0
  0
LINE
  5
1C134
  8
01
 10
16489.2876496959
 20
7295.82183035398
 30
0.0
 11
16489.12684395795
 21
7295.887820440861
 31
0.0
  0
LINE
  5
1C135
  8
01
 10
16489.12684395795
 20
7295.887820440861
 30
0.0
 11
16488.96729487955
 21
7295.957038876677
 31
0.0
  0
LINE
  5
1C136
  8
01
 10
16488.96729487955
 20
7295.957038876677
 30
0.0
 11
16488.80898228947
 21
7296.029256625203
 31
0.0
  0
LINE
  5
1C137
  8
01
 10
16488.80898228947
 20
7296.029256625203
 30
0.0
 11
16488.52159047789
 21
7296.168850620415
 31
0.0
  0
LINE
  5
1C138
  8
01
 10
16488.52159047789
 20
7296.168850620415
 30
0.0
 11
16488.23829326046
 21
7296.316577474667
 31
0.0
  0
LINE
  5
1C139
  8
01
 10
16479.00165822636
 20
7338.762938599903
 30
0.0
 11
16504.00165822636
 21
7338.762938599903
 31
0.0
  0
LINE
  5
1C13A
  8
01
 10
16484.50165822636
 20
7350.762938599903
 30
0.0
 11
16484.50165822636
 21
7338.762938599903
 31
0.0
  0
LINE
  5
1C13B
  8
01
 10
16498.50165822636
 20
7350.762938599903
 30
0.0
 11
16498.50165822636
 21
7338.762938599903
 31
0.0
  0
LINE
  5
1C13C
  8
01
 10
16928.50165822636
 20
7350.762938599903
 30
0.0
 11
16928.50165822636
 21
7338.762938599903
 31
0.0
  0
LINE
  5
1C13D
  8
01
 10
16914.50165822636
 20
7350.762938599903
 30
0.0
 11
16914.50165822636
 21
7338.762938599903
 31
0.0
  0
LINE
  5
1C13E
  8
01
 10
16479.00165822636
 20
7338.762938599903
 30
0.0
 11
16403.00331645272
 21
7338.762938599903
 31
0.0
  0
LINE
  5
1C13F
  8
01
 10
16479.00165822636
 20
7350.762938599903
 30
0.0
 11
16403.00331645272
 21
7350.762938599903
 31
0.0
  0
LINE
  5
1C140
  8
01
 10
16909.00165822636
 20
7338.762938599903
 30
0.0
 11
16504.00165822636
 21
7338.762938599903
 31
0.0
  0
LINE
  5
1C141
  8
01
 10
16909.00165822636
 20
7350.762938599903
 30
0.0
 11
16504.00165822636
 21
7350.762938599903
 31
0.0
  0
LINE
  5
1C142
  8
01
 10
16934.00165822636
 20
7338.762938599903
 30
0.0
 11
17010.0
 21
7338.762938599903
 31
0.0
  0
LINE
  5
1C143
  8
01
 10
16934.00165822636
 20
7350.762938599903
 30
0.0
 11
17010.0
 21
7350.762938599903
 31
0.0
  0
LINE
  5
1C144
  8
01
 10
16409.50165822636
 20
7275.712930941208
 30
0.0
 11
16409.50165822636
 21
7268.89674524267
 31
0.0
  0
LINE
  5
1C145
  8
01
 10
17003.50165822636
 20
7275.712930941208
 30
0.0
 11
17003.50165822636
 21
7268.89674524267
 31
0.0
  0
LINE
  5
1C146
  8
01
 10
16410.00165822636
 20
7272.396745242564
 30
0.0
 11
16413.00165822636
 21
7272.396745242564
 31
0.0
  0
LINE
  5
1C147
  8
01
 10
16413.5523232585
 20
7272.396745242564
 30
0.0
 11
16416.5523232585
 21
7272.396745242564
 31
0.0
  0
LINE
  5
1C148
  8
01
 10
16417.10298829063
 20
7272.396745242564
 30
0.0
 11
16420.10298829063
 21
7272.396745242564
 31
0.0
  0
LINE
  5
1C149
  8
01
 10
16420.65365332276
 20
7272.396745242564
 30
0.0
 11
16423.65365332276
 21
7272.396745242564
 31
0.0
  0
LINE
  5
1C14A
  8
01
 10
16424.2043183549
 20
7272.396745242564
 30
0.0
 11
16427.2043183549
 21
7272.396745242564
 31
0.0
  0
LINE
  5
1C14B
  8
01
 10
16427.75498338703
 20
7272.396745242564
 30
0.0
 11
16430.75498338703
 21
7272.396745242564
 31
0.0
  0
LINE
  5
1C14C
  8
01
 10
16431.30564841917
 20
7272.396745242564
 30
0.0
 11
16434.30564841917
 21
7272.396745242564
 31
0.0
  0
LINE
  5
1C14D
  8
01
 10
16434.8563134513
 20
7272.396745242564
 30
0.0
 11
16437.8563134513
 21
7272.396745242564
 31
0.0
  0
LINE
  5
1C14E
  8
01
 10
16438.40697848344
 20
7272.396745242564
 30
0.0
 11
16441.40697848344
 21
7272.396745242564
 31
0.0
  0
LINE
  5
1C14F
  8
01
 10
16441.95764351557
 20
7272.396745242564
 30
0.0
 11
16444.95764351557
 21
7272.396745242564
 31
0.0
  0
LINE
  5
1C150
  8
01
 10
16445.50830854771
 20
7272.396745242564
 30
0.0
 11
16448.50830854771
 21
7272.396745242564
 31
0.0
  0
LINE
  5
1C151
  8
01
 10
16449.05897357984
 20
7272.396745242564
 30
0.0
 11
16452.05897357984
 21
7272.396745242564
 31
0.0
  0
LINE
  5
1C152
  8
01
 10
16452.60963861198
 20
7272.396745242564
 30
0.0
 11
16455.60963861198
 21
7272.396745242564
 31
0.0
  0
LINE
  5
1C153
  8
01
 10
16456.16030364411
 20
7272.396745242564
 30
0.0
 11
16459.16030364411
 21
7272.396745242564
 31
0.0
  0
LINE
  5
1C154
  8
01
 10
16459.71096867625
 20
7272.396745242564
 30
0.0
 11
16462.71096867625
 21
7272.396745242564
 31
0.0
  0
LINE
  5
1C155
  8
01
 10
16463.26163370838
 20
7272.396745242564
 30
0.0
 11
16466.26163370838
 21
7272.396745242564
 31
0.0
  0
LINE
  5
1C156
  8
01
 10
16466.81229874051
 20
7272.396745242564
 30
0.0
 11
16469.81229874051
 21
7272.396745242564
 31
0.0
  0
LINE
  5
1C157
  8
01
 10
16470.36296377265
 20
7272.396745242564
 30
0.0
 11
16473.36296377265
 21
7272.396745242564
 31
0.0
  0
LINE
  5
1C158
  8
01
 10
16473.91362880478
 20
7272.396745242564
 30
0.0
 11
16476.91362880478
 21
7272.396745242564
 31
0.0
  0
LINE
  5
1C159
  8
01
 10
16477.46429383692
 20
7272.396745242564
 30
0.0
 11
16480.46429383692
 21
7272.396745242564
 31
0.0
  0
LINE
  5
1C15A
  8
01
 10
16481.01495886905
 20
7272.396745242564
 30
0.0
 11
16484.01495886905
 21
7272.396745242564
 31
0.0
  0
LINE
  5
1C15B
  8
01
 10
16484.56562390119
 20
7272.396745242564
 30
0.0
 11
16487.56562390119
 21
7272.396745242564
 31
0.0
  0
LINE
  5
1C15C
  8
01
 10
16488.11628893332
 20
7272.396745242564
 30
0.0
 11
16491.11628893332
 21
7272.396745242564
 31
0.0
  0
LINE
  5
1C15D
  8
01
 10
16491.66695396546
 20
7272.396745242564
 30
0.0
 11
16494.66695396546
 21
7272.396745242564
 31
0.0
  0
LINE
  5
1C15E
  8
01
 10
16495.21761899759
 20
7272.396745242564
 30
0.0
 11
16498.21761899759
 21
7272.396745242564
 31
0.0
  0
LINE
  5
1C15F
  8
01
 10
16498.76828402973
 20
7272.396745242564
 30
0.0
 11
16501.76828402973
 21
7272.396745242564
 31
0.0
  0
LINE
  5
1C160
  8
01
 10
16502.31894906186
 20
7272.396745242564
 30
0.0
 11
16505.31894906186
 21
7272.396745242564
 31
0.0
  0
LINE
  5
1C161
  8
01
 10
16505.869614094
 20
7272.396745242564
 30
0.0
 11
16508.869614094
 21
7272.396745242564
 31
0.0
  0
LINE
  5
1C162
  8
01
 10
16509.42027912613
 20
7272.396745242564
 30
0.0
 11
16512.42027912613
 21
7272.396745242564
 31
0.0
  0
LINE
  5
1C163
  8
01
 10
16512.97094415827
 20
7272.396745242564
 30
0.0
 11
16515.97094415827
 21
7272.396745242564
 31
0.0
  0
LINE
  5
1C164
  8
01
 10
16516.5216091904
 20
7272.396745242564
 30
0.0
 11
16519.5216091904
 21
7272.396745242564
 31
0.0
  0
LINE
  5
1C165
  8
01
 10
16520.07227422254
 20
7272.396745242564
 30
0.0
 11
16523.07227422254
 21
7272.396745242564
 31
0.0
  0
LINE
  5
1C166
  8
01
 10
16523.62293925467
 20
7272.396745242564
 30
0.0
 11
16526.62293925467
 21
7272.396745242564
 31
0.0
  0
LINE
  5
1C167
  8
01
 10
16527.17360428681
 20
7272.396745242564
 30
0.0
 11
16530.17360428681
 21
7272.396745242564
 31
0.0
  0
LINE
  5
1C168
  8
01
 10
16530.72426931894
 20
7272.396745242564
 30
0.0
 11
16533.72426931894
 21
7272.396745242564
 31
0.0
  0
LINE
  5
1C169
  8
01
 10
16534.27493435107
 20
7272.396745242564
 30
0.0
 11
16537.27493435107
 21
7272.396745242564
 31
0.0
  0
LINE
  5
1C16A
  8
01
 10
16537.82559938321
 20
7272.396745242564
 30
0.0
 11
16540.82559938321
 21
7272.396745242564
 31
0.0
  0
LINE
  5
1C16B
  8
01
 10
16541.37626441534
 20
7272.396745242564
 30
0.0
 11
16544.37626441534
 21
7272.396745242564
 31
0.0
  0
LINE
  5
1C16C
  8
01
 10
16544.92692944748
 20
7272.396745242564
 30
0.0
 11
16547.92692944748
 21
7272.396745242564
 31
0.0
  0
LINE
  5
1C16D
  8
01
 10
16548.47759447961
 20
7272.396745242564
 30
0.0
 11
16551.47759447961
 21
7272.396745242564
 31
0.0
  0
LINE
  5
1C16E
  8
01
 10
16552.02825951175
 20
7272.396745242564
 30
0.0
 11
16555.02825951175
 21
7272.396745242564
 31
0.0
  0
LINE
  5
1C16F
  8
01
 10
16555.57892454388
 20
7272.396745242564
 30
0.0
 11
16558.57892454388
 21
7272.396745242564
 31
0.0
  0
LINE
  5
1C170
  8
01
 10
16559.12958957602
 20
7272.396745242564
 30
0.0
 11
16562.12958957602
 21
7272.396745242564
 31
0.0
  0
LINE
  5
1C171
  8
01
 10
16562.68025460815
 20
7272.396745242564
 30
0.0
 11
16565.68025460815
 21
7272.396745242564
 31
0.0
  0
LINE
  5
1C172
  8
01
 10
16566.23091964029
 20
7272.396745242564
 30
0.0
 11
16569.23091964029
 21
7272.396745242564
 31
0.0
  0
LINE
  5
1C173
  8
01
 10
16569.78158467242
 20
7272.396745242564
 30
0.0
 11
16572.78158467242
 21
7272.396745242564
 31
0.0
  0
LINE
  5
1C174
  8
01
 10
16573.33224970456
 20
7272.396745242564
 30
0.0
 11
16576.33224970456
 21
7272.396745242564
 31
0.0
  0
LINE
  5
1C175
  8
01
 10
16576.88291473669
 20
7272.396745242564
 30
0.0
 11
16579.88291473669
 21
7272.396745242564
 31
0.0
  0
LINE
  5
1C176
  8
01
 10
16580.43357976883
 20
7272.396745242564
 30
0.0
 11
16583.43357976883
 21
7272.396745242564
 31
0.0
  0
LINE
  5
1C177
  8
01
 10
16583.98424480096
 20
7272.396745242564
 30
0.0
 11
16586.98424480096
 21
7272.396745242564
 31
0.0
  0
LINE
  5
1C178
  8
01
 10
16587.5349098331
 20
7272.396745242564
 30
0.0
 11
16590.5349098331
 21
7272.396745242564
 31
0.0
  0
LINE
  5
1C179
  8
01
 10
16591.08557486523
 20
7272.396745242564
 30
0.0
 11
16594.08557486523
 21
7272.396745242564
 31
0.0
  0
LINE
  5
1C17A
  8
01
 10
16594.63623989737
 20
7272.396745242564
 30
0.0
 11
16597.63623989737
 21
7272.396745242564
 31
0.0
  0
LINE
  5
1C17B
  8
01
 10
16598.1869049295
 20
7272.396745242564
 30
0.0
 11
16601.1869049295
 21
7272.396745242564
 31
0.0
  0
LINE
  5
1C17C
  8
01
 10
16601.73756996164
 20
7272.396745242564
 30
0.0
 11
16604.73756996164
 21
7272.396745242564
 31
0.0
  0
LINE
  5
1C17D
  8
01
 10
16605.28823499377
 20
7272.396745242564
 30
0.0
 11
16608.28823499377
 21
7272.396745242564
 31
0.0
  0
LINE
  5
1C17E
  8
01
 10
16608.8389000259
 20
7272.396745242564
 30
0.0
 11
16611.8389000259
 21
7272.396745242564
 31
0.0
  0
LINE
  5
1C17F
  8
01
 10
16612.38956505804
 20
7272.396745242564
 30
0.0
 11
16615.38956505804
 21
7272.396745242564
 31
0.0
  0
LINE
  5
1C180
  8
01
 10
16615.94023009017
 20
7272.396745242564
 30
0.0
 11
16618.94023009017
 21
7272.396745242564
 31
0.0
  0
LINE
  5
1C181
  8
01
 10
16619.49089512231
 20
7272.396745242564
 30
0.0
 11
16622.49089512231
 21
7272.396745242564
 31
0.0
  0
LINE
  5
1C182
  8
01
 10
16623.04156015444
 20
7272.396745242564
 30
0.0
 11
16626.04156015444
 21
7272.396745242564
 31
0.0
  0
LINE
  5
1C183
  8
01
 10
16626.59222518658
 20
7272.396745242564
 30
0.0
 11
16629.59222518658
 21
7272.396745242564
 31
0.0
  0
LINE
  5
1C184
  8
01
 10
16630.14289021871
 20
7272.396745242564
 30
0.0
 11
16633.14289021871
 21
7272.396745242564
 31
0.0
  0
LINE
  5
1C185
  8
01
 10
16633.69355525085
 20
7272.396745242564
 30
0.0
 11
16636.69355525085
 21
7272.396745242564
 31
0.0
  0
LINE
  5
1C186
  8
01
 10
16637.24422028298
 20
7272.396745242564
 30
0.0
 11
16640.24422028298
 21
7272.396745242564
 31
0.0
  0
LINE
  5
1C187
  8
01
 10
16640.79488531512
 20
7272.396745242564
 30
0.0
 11
16643.79488531512
 21
7272.396745242564
 31
0.0
  0
LINE
  5
1C188
  8
01
 10
16644.34555034725
 20
7272.396745242564
 30
0.0
 11
16647.34555034725
 21
7272.396745242564
 31
0.0
  0
LINE
  5
1C189
  8
01
 10
16647.89621537939
 20
7272.396745242564
 30
0.0
 11
16650.89621537939
 21
7272.396745242564
 31
0.0
  0
LINE
  5
1C18A
  8
01
 10
16651.44688041152
 20
7272.396745242564
 30
0.0
 11
16654.44688041152
 21
7272.396745242564
 31
0.0
  0
LINE
  5
1C18B
  8
01
 10
16654.99754544365
 20
7272.396745242564
 30
0.0
 11
16657.99754544365
 21
7272.396745242564
 31
0.0
  0
LINE
  5
1C18C
  8
01
 10
16658.54821047579
 20
7272.396745242564
 30
0.0
 11
16661.54821047579
 21
7272.396745242564
 31
0.0
  0
LINE
  5
1C18D
  8
01
 10
16662.09887550792
 20
7272.396745242564
 30
0.0
 11
16665.09887550792
 21
7272.396745242564
 31
0.0
  0
LINE
  5
1C18E
  8
01
 10
16665.64954054006
 20
7272.396745242564
 30
0.0
 11
16668.64954054006
 21
7272.396745242564
 31
0.0
  0
LINE
  5
1C18F
  8
01
 10
16669.20020557219
 20
7272.396745242564
 30
0.0
 11
16672.20020557219
 21
7272.396745242564
 31
0.0
  0
LINE
  5
1C190
  8
01
 10
16672.75087060433
 20
7272.396745242564
 30
0.0
 11
16675.75087060433
 21
7272.396745242564
 31
0.0
  0
LINE
  5
1C191
  8
01
 10
16676.30153563646
 20
7272.396745242564
 30
0.0
 11
16679.30153563646
 21
7272.396745242564
 31
0.0
  0
LINE
  5
1C192
  8
01
 10
16679.8522006686
 20
7272.396745242564
 30
0.0
 11
16682.8522006686
 21
7272.396745242564
 31
0.0
  0
LINE
  5
1C193
  8
01
 10
16683.40286570073
 20
7272.396745242564
 30
0.0
 11
16686.40286570073
 21
7272.396745242564
 31
0.0
  0
LINE
  5
1C194
  8
01
 10
16686.95353073287
 20
7272.396745242564
 30
0.0
 11
16689.95353073287
 21
7272.396745242564
 31
0.0
  0
LINE
  5
1C195
  8
01
 10
16690.504195765
 20
7272.396745242564
 30
0.0
 11
16693.504195765
 21
7272.396745242564
 31
0.0
  0
LINE
  5
1C196
  8
01
 10
16694.05486079714
 20
7272.396745242564
 30
0.0
 11
16697.05486079714
 21
7272.396745242564
 31
0.0
  0
LINE
  5
1C197
  8
01
 10
16697.60552582927
 20
7272.396745242564
 30
0.0
 11
16700.60552582927
 21
7272.396745242564
 31
0.0
  0
LINE
  5
1C198
  8
01
 10
16701.15619086141
 20
7272.396745242564
 30
0.0
 11
16704.15619086141
 21
7272.396745242564
 31
0.0
  0
LINE
  5
1C199
  8
01
 10
16704.70685589354
 20
7272.396745242564
 30
0.0
 11
16707.70685589354
 21
7272.396745242564
 31
0.0
  0
LINE
  5
1C19A
  8
01
 10
16708.25752092568
 20
7272.396745242564
 30
0.0
 11
16711.25752092568
 21
7272.396745242564
 31
0.0
  0
LINE
  5
1C19B
  8
01
 10
16711.80818595781
 20
7272.396745242564
 30
0.0
 11
16714.80818595781
 21
7272.396745242564
 31
0.0
  0
LINE
  5
1C19C
  8
01
 10
16715.35885098995
 20
7272.396745242564
 30
0.0
 11
16718.35885098995
 21
7272.396745242564
 31
0.0
  0
LINE
  5
1C19D
  8
01
 10
16718.90951602208
 20
7272.396745242564
 30
0.0
 11
16721.90951602208
 21
7272.396745242564
 31
0.0
  0
LINE
  5
1C19E
  8
01
 10
16722.46018105422
 20
7272.396745242564
 30
0.0
 11
16725.46018105422
 21
7272.396745242564
 31
0.0
  0
LINE
  5
1C19F
  8
01
 10
16726.01084608635
 20
7272.396745242564
 30
0.0
 11
16729.01084608635
 21
7272.396745242564
 31
0.0
  0
LINE
  5
1C1A0
  8
01
 10
16729.56151111849
 20
7272.396745242564
 30
0.0
 11
16732.56151111849
 21
7272.396745242564
 31
0.0
  0
LINE
  5
1C1A1
  8
01
 10
16733.11217615062
 20
7272.396745242564
 30
0.0
 11
16736.11217615062
 21
7272.396745242564
 31
0.0
  0
LINE
  5
1C1A2
  8
01
 10
16736.66284118275
 20
7272.396745242564
 30
0.0
 11
16739.66284118275
 21
7272.396745242564
 31
0.0
  0
LINE
  5
1C1A3
  8
01
 10
16740.21350621489
 20
7272.396745242564
 30
0.0
 11
16743.21350621489
 21
7272.396745242564
 31
0.0
  0
LINE
  5
1C1A4
  8
01
 10
16743.76417124702
 20
7272.396745242564
 30
0.0
 11
16746.76417124702
 21
7272.396745242564
 31
0.0
  0
LINE
  5
1C1A5
  8
01
 10
16747.31483627916
 20
7272.396745242564
 30
0.0
 11
16750.31483627916
 21
7272.396745242564
 31
0.0
  0
LINE
  5
1C1A6
  8
01
 10
16750.86550131129
 20
7272.396745242564
 30
0.0
 11
16753.86550131129
 21
7272.396745242564
 31
0.0
  0
LINE
  5
1C1A7
  8
01
 10
16754.41616634343
 20
7272.396745242564
 30
0.0
 11
16757.41616634343
 21
7272.396745242564
 31
0.0
  0
LINE
  5
1C1A8
  8
01
 10
16757.96683137556
 20
7272.396745242564
 30
0.0
 11
16760.96683137556
 21
7272.396745242564
 31
0.0
  0
LINE
  5
1C1A9
  8
01
 10
16761.5174964077
 20
7272.396745242564
 30
0.0
 11
16764.5174964077
 21
7272.396745242564
 31
0.0
  0
LINE
  5
1C1AA
  8
01
 10
16765.06816143983
 20
7272.396745242564
 30
0.0
 11
16768.06816143983
 21
7272.396745242564
 31
0.0
  0
LINE
  5
1C1AB
  8
01
 10
16768.61882647196
 20
7272.396745242564
 30
0.0
 11
16771.61882647196
 21
7272.396745242564
 31
0.0
  0
LINE
  5
1C1AC
  8
01
 10
16772.1694915041
 20
7272.396745242564
 30
0.0
 11
16775.1694915041
 21
7272.396745242564
 31
0.0
  0
LINE
  5
1C1AD
  8
01
 10
16775.72015653623
 20
7272.396745242564
 30
0.0
 11
16778.72015653623
 21
7272.396745242564
 31
0.0
  0
LINE
  5
1C1AE
  8
01
 10
16779.27082156837
 20
7272.396745242564
 30
0.0
 11
16782.27082156837
 21
7272.396745242564
 31
0.0
  0
LINE
  5
1C1AF
  8
01
 10
16782.8214866005
 20
7272.396745242564
 30
0.0
 11
16785.8214866005
 21
7272.396745242564
 31
0.0
  0
LINE
  5
1C1B0
  8
01
 10
16786.37215163264
 20
7272.396745242564
 30
0.0
 11
16789.37215163264
 21
7272.396745242564
 31
0.0
  0
LINE
  5
1C1B1
  8
01
 10
16789.92281666477
 20
7272.396745242564
 30
0.0
 11
16792.92281666477
 21
7272.396745242564
 31
0.0
  0
LINE
  5
1C1B2
  8
01
 10
16793.47348169691
 20
7272.396745242564
 30
0.0
 11
16796.47348169691
 21
7272.396745242564
 31
0.0
  0
LINE
  5
1C1B3
  8
01
 10
16797.02414672904
 20
7272.396745242564
 30
0.0
 11
16800.02414672904
 21
7272.396745242564
 31
0.0
  0
LINE
  5
1C1B4
  8
01
 10
16800.57481176118
 20
7272.396745242564
 30
0.0
 11
16803.57481176118
 21
7272.396745242564
 31
0.0
  0
LINE
  5
1C1B5
  8
01
 10
16804.12547679331
 20
7272.396745242564
 30
0.0
 11
16807.12547679331
 21
7272.396745242564
 31
0.0
  0
LINE
  5
1C1B6
  8
01
 10
16807.67614182545
 20
7272.396745242564
 30
0.0
 11
16810.67614182545
 21
7272.396745242564
 31
0.0
  0
LINE
  5
1C1B7
  8
01
 10
16811.22680685758
 20
7272.396745242564
 30
0.0
 11
16814.22680685758
 21
7272.396745242564
 31
0.0
  0
LINE
  5
1C1B8
  8
01
 10
16814.77747188972
 20
7272.396745242564
 30
0.0
 11
16817.77747188972
 21
7272.396745242564
 31
0.0
  0
LINE
  5
1C1B9
  8
01
 10
16818.32813692185
 20
7272.396745242564
 30
0.0
 11
16821.32813692185
 21
7272.396745242564
 31
0.0
  0
LINE
  5
1C1BA
  8
01
 10
16821.87880195399
 20
7272.396745242564
 30
0.0
 11
16824.87880195399
 21
7272.396745242564
 31
0.0
  0
LINE
  5
1C1BB
  8
01
 10
16825.42946698612
 20
7272.396745242564
 30
0.0
 11
16828.42946698612
 21
7272.396745242564
 31
0.0
  0
LINE
  5
1C1BC
  8
01
 10
16828.98013201826
 20
7272.396745242564
 30
0.0
 11
16831.98013201826
 21
7272.396745242564
 31
0.0
  0
LINE
  5
1C1BD
  8
01
 10
16832.53079705039
 20
7272.396745242564
 30
0.0
 11
16835.53079705039
 21
7272.396745242564
 31
0.0
  0
LINE
  5
1C1BE
  8
01
 10
16836.08146208253
 20
7272.396745242564
 30
0.0
 11
16839.08146208253
 21
7272.396745242564
 31
0.0
  0
LINE
  5
1C1BF
  8
01
 10
16839.63212711466
 20
7272.396745242564
 30
0.0
 11
16842.63212711466
 21
7272.396745242564
 31
0.0
  0
LINE
  5
1C1C0
  8
01
 10
16843.1827921468
 20
7272.396745242564
 30
0.0
 11
16846.1827921468
 21
7272.396745242564
 31
0.0
  0
LINE
  5
1C1C1
  8
01
 10
16846.73345717893
 20
7272.396745242564
 30
0.0
 11
16849.73345717893
 21
7272.396745242564
 31
0.0
  0
LINE
  5
1C1C2
  8
01
 10
16850.28412221106
 20
7272.396745242564
 30
0.0
 11
16853.28412221106
 21
7272.396745242564
 31
0.0
  0
LINE
  5
1C1C3
  8
01
 10
16853.8347872432
 20
7272.396745242564
 30
0.0
 11
16856.8347872432
 21
7272.396745242564
 31
0.0
  0
LINE
  5
1C1C4
  8
01
 10
16857.38545227533
 20
7272.396745242564
 30
0.0
 11
16860.38545227533
 21
7272.396745242564
 31
0.0
  0
LINE
  5
1C1C5
  8
01
 10
16860.93611730747
 20
7272.396745242564
 30
0.0
 11
16863.93611730747
 21
7272.396745242564
 31
0.0
  0
LINE
  5
1C1C6
  8
01
 10
16864.4867823396
 20
7272.396745242564
 30
0.0
 11
16867.4867823396
 21
7272.396745242564
 31
0.0
  0
LINE
  5
1C1C7
  8
01
 10
16868.03744737174
 20
7272.396745242564
 30
0.0
 11
16871.03744737174
 21
7272.396745242564
 31
0.0
  0
LINE
  5
1C1C8
  8
01
 10
16871.58811240387
 20
7272.396745242564
 30
0.0
 11
16874.58811240387
 21
7272.396745242564
 31
0.0
  0
LINE
  5
1C1C9
  8
01
 10
16875.13877743601
 20
7272.396745242564
 30
0.0
 11
16878.13877743601
 21
7272.396745242564
 31
0.0
  0
LINE
  5
1C1CA
  8
01
 10
16878.68944246814
 20
7272.396745242564
 30
0.0
 11
16881.68944246814
 21
7272.396745242564
 31
0.0
  0
LINE
  5
1C1CB
  8
01
 10
16882.24010750027
 20
7272.396745242564
 30
0.0
 11
16885.24010750027
 21
7272.396745242564
 31
0.0
  0
LINE
  5
1C1CC
  8
01
 10
16885.79077253241
 20
7272.396745242564
 30
0.0
 11
16888.79077253241
 21
7272.396745242564
 31
0.0
  0
LINE
  5
1C1CD
  8
01
 10
16889.34143756454
 20
7272.396745242564
 30
0.0
 11
16892.34143756454
 21
7272.396745242564
 31
0.0
  0
LINE
  5
1C1CE
  8
01
 10
16892.89210259668
 20
7272.396745242564
 30
0.0
 11
16895.89210259668
 21
7272.396745242564
 31
0.0
  0
LINE
  5
1C1CF
  8
01
 10
16896.44276762881
 20
7272.396745242564
 30
0.0
 11
16899.44276762881
 21
7272.396745242564
 31
0.0
  0
LINE
  5
1C1D0
  8
01
 10
16899.99343266095
 20
7272.396745242564
 30
0.0
 11
16902.99343266095
 21
7272.396745242564
 31
0.0
  0
LINE
  5
1C1D1
  8
01
 10
16903.54409769308
 20
7272.396745242564
 30
0.0
 11
16906.54409769308
 21
7272.396745242564
 31
0.0
  0
LINE
  5
1C1D2
  8
01
 10
16907.09476272522
 20
7272.396745242564
 30
0.0
 11
16910.09476272522
 21
7272.396745242564
 31
0.0
  0
LINE
  5
1C1D3
  8
01
 10
16910.64542775735
 20
7272.396745242564
 30
0.0
 11
16913.64542775735
 21
7272.396745242564
 31
0.0
  0
LINE
  5
1C1D4
  8
01
 10
16914.19609278949
 20
7272.396745242564
 30
0.0
 11
16917.19609278949
 21
7272.396745242564
 31
0.0
  0
LINE
  5
1C1D5
  8
01
 10
16917.74675782162
 20
7272.396745242564
 30
0.0
 11
16920.74675782162
 21
7272.396745242564
 31
0.0
  0
LINE
  5
1C1D6
  8
01
 10
16921.29742285376
 20
7272.396745242564
 30
0.0
 11
16924.29742285376
 21
7272.396745242564
 31
0.0
  0
LINE
  5
1C1D7
  8
01
 10
16924.84808788589
 20
7272.396745242564
 30
0.0
 11
16927.84808788589
 21
7272.396745242564
 31
0.0
  0
LINE
  5
1C1D8
  8
01
 10
16928.39875291803
 20
7272.396745242564
 30
0.0
 11
16931.39875291803
 21
7272.396745242564
 31
0.0
  0
LINE
  5
1C1D9
  8
01
 10
16931.94941795016
 20
7272.396745242564
 30
0.0
 11
16934.94941795016
 21
7272.396745242564
 31
0.0
  0
LINE
  5
1C1DA
  8
01
 10
16935.5000829823
 20
7272.396745242564
 30
0.0
 11
16938.5000829823
 21
7272.396745242564
 31
0.0
  0
LINE
  5
1C1DB
  8
01
 10
16939.05074801443
 20
7272.396745242564
 30
0.0
 11
16942.05074801443
 21
7272.396745242564
 31
0.0
  0
LINE
  5
1C1DC
  8
01
 10
16942.60141304657
 20
7272.396745242564
 30
0.0
 11
16945.60141304657
 21
7272.396745242564
 31
0.0
  0
LINE
  5
1C1DD
  8
01
 10
16946.1520780787
 20
7272.396745242564
 30
0.0
 11
16949.1520780787
 21
7272.396745242564
 31
0.0
  0
LINE
  5
1C1DE
  8
01
 10
16949.70274311084
 20
7272.396745242564
 30
0.0
 11
16952.70274311084
 21
7272.396745242564
 31
0.0
  0
LINE
  5
1C1DF
  8
01
 10
16953.25340814297
 20
7272.396745242564
 30
0.0
 11
16956.25340814297
 21
7272.396745242564
 31
0.0
  0
LINE
  5
1C1E0
  8
01
 10
16956.80407317511
 20
7272.396745242564
 30
0.0
 11
16959.80407317511
 21
7272.396745242564
 31
0.0
  0
LINE
  5
1C1E1
  8
01
 10
16960.35473820724
 20
7272.396745242564
 30
0.0
 11
16963.35473820724
 21
7272.396745242564
 31
0.0
  0
LINE
  5
1C1E2
  8
01
 10
16963.90540323937
 20
7272.396745242564
 30
0.0
 11
16966.90540323937
 21
7272.396745242564
 31
0.0
  0
LINE
  5
1C1E3
  8
01
 10
16967.45606827151
 20
7272.396745242564
 30
0.0
 11
16970.45606827151
 21
7272.396745242564
 31
0.0
  0
LINE
  5
1C1E4
  8
01
 10
16971.00673330364
 20
7272.396745242564
 30
0.0
 11
16974.00673330364
 21
7272.396745242564
 31
0.0
  0
LINE
  5
1C1E5
  8
01
 10
16974.55739833578
 20
7272.396745242564
 30
0.0
 11
16977.55739833578
 21
7272.396745242564
 31
0.0
  0
LINE
  5
1C1E6
  8
01
 10
16978.10806336791
 20
7272.396745242564
 30
0.0
 11
16981.10806336791
 21
7272.396745242564
 31
0.0
  0
LINE
  5
1C1E7
  8
01
 10
16981.65872840005
 20
7272.396745242564
 30
0.0
 11
16984.65872840005
 21
7272.396745242564
 31
0.0
  0
LINE
  5
1C1E8
  8
01
 10
16985.20939343218
 20
7272.396745242564
 30
0.0
 11
16988.20939343218
 21
7272.396745242564
 31
0.0
  0
LINE
  5
1C1E9
  8
01
 10
16988.76005846432
 20
7272.396745242564
 30
0.0
 11
16991.76005846432
 21
7272.396745242564
 31
0.0
  0
LINE
  5
1C1EA
  8
01
 10
16992.31072349645
 20
7272.396745242564
 30
0.0
 11
16995.31072349645
 21
7272.396745242564
 31
0.0
  0
LINE
  5
1C1EB
  8
01
 10
16995.86138852858
 20
7272.396745242564
 30
0.0
 11
16998.86138852858
 21
7272.396745242564
 31
0.0
  0
LINE
  5
1C1EC
  8
01
 10
16999.41205356072
 20
7272.396745242564
 30
0.0
 11
17002.41205356072
 21
7272.396745242564
 31
0.0
  0
LINE
  5
1C1ED
  8
1DIM
 10
16409.50165822636
 20
7275.2629309412
 30
0.0
 11
17003.50165822636
 21
7275.2629309412
 31
0.0
  0
LINE
  5
1C1EE
  8
01
 10
16409.50165822636
 20
7413.812946258597
 30
0.0
 11
16405.50165822636
 21
7413.812946258597
 31
0.0
  0
LINE
  5
1C1EF
  8
01
 10
17003.50165822636
 20
7413.812946258597
 30
0.0
 11
17007.50165822636
 21
7413.812946258597
 31
0.0
  0
LINE
  5
1C1F0
  8
1DIM
 10
16409.50165822636
 20
7412.262946258605
 30
0.0
 11
17003.50165822636
 21
7412.262946258503
 31
0.0
  0
LINE
  5
1C1F1
  8
01
 10
16409.50165822636
 20
7420.629131957241
 30
0.0
 11
17003.50165822636
 21
7420.629131957136
 31
0.0
  0
LINE
  5
1C1F2
  8
01
 10
16409.50165822636
 20
7413.812946258597
 30
0.0
 11
16409.50165822636
 21
7420.629131957136
 31
0.0
  0
LINE
  5
1C1F3
  8
01
 10
17003.50165822636
 20
7413.812946258597
 30
0.0
 11
17003.50165822636
 21
7420.629131957136
 31
0.0
  0
LINE
  5
1C1F4
  8
01
 10
16410.00165822636
 20
7417.129131957241
 30
0.0
 11
16413.00165822636
 21
7417.129131957241
 31
0.0
  0
LINE
  5
1C1F5
  8
01
 10
16413.5523232585
 20
7417.129131957241
 30
0.0
 11
16416.5523232585
 21
7417.129131957241
 31
0.0
  0
LINE
  5
1C1F6
  8
01
 10
16417.10298829063
 20
7417.129131957241
 30
0.0
 11
16420.10298829063
 21
7417.129131957241
 31
0.0
  0
LINE
  5
1C1F7
  8
01
 10
16420.65365332276
 20
7417.129131957241
 30
0.0
 11
16423.65365332276
 21
7417.129131957241
 31
0.0
  0
LINE
  5
1C1F8
  8
01
 10
16424.2043183549
 20
7417.129131957241
 30
0.0
 11
16427.2043183549
 21
7417.129131957241
 31
0.0
  0
LINE
  5
1C1F9
  8
01
 10
16427.75498338703
 20
7417.129131957241
 30
0.0
 11
16430.75498338703
 21
7417.129131957241
 31
0.0
  0
LINE
  5
1C1FA
  8
01
 10
16431.30564841917
 20
7417.129131957241
 30
0.0
 11
16434.30564841917
 21
7417.129131957241
 31
0.0
  0
LINE
  5
1C1FB
  8
01
 10
16434.8563134513
 20
7417.129131957241
 30
0.0
 11
16437.8563134513
 21
7417.129131957241
 31
0.0
  0
LINE
  5
1C1FC
  8
01
 10
16438.40697848344
 20
7417.129131957241
 30
0.0
 11
16441.40697848344
 21
7417.129131957241
 31
0.0
  0
LINE
  5
1C1FD
  8
01
 10
16441.95764351557
 20
7417.129131957241
 30
0.0
 11
16444.95764351557
 21
7417.129131957241
 31
0.0
  0
LINE
  5
1C1FE
  8
01
 10
16445.50830854771
 20
7417.129131957241
 30
0.0
 11
16448.50830854771
 21
7417.129131957241
 31
0.0
  0
LINE
  5
1C1FF
  8
01
 10
16449.05897357984
 20
7417.129131957241
 30
0.0
 11
16452.05897357984
 21
7417.129131957241
 31
0.0
  0
LINE
  5
1C200
  8
01
 10
16452.60963861198
 20
7417.129131957241
 30
0.0
 11
16455.60963861198
 21
7417.129131957241
 31
0.0
  0
LINE
  5
1C201
  8
01
 10
16456.16030364411
 20
7417.129131957241
 30
0.0
 11
16459.16030364411
 21
7417.129131957241
 31
0.0
  0
LINE
  5
1C202
  8
01
 10
16459.71096867625
 20
7417.129131957241
 30
0.0
 11
16462.71096867625
 21
7417.129131957241
 31
0.0
  0
LINE
  5
1C203
  8
01
 10
16463.26163370838
 20
7417.129131957241
 30
0.0
 11
16466.26163370838
 21
7417.129131957241
 31
0.0
  0
LINE
  5
1C204
  8
01
 10
16466.81229874051
 20
7417.129131957241
 30
0.0
 11
16469.81229874051
 21
7417.129131957241
 31
0.0
  0
LINE
  5
1C205
  8
01
 10
16470.36296377265
 20
7417.129131957241
 30
0.0
 11
16473.36296377265
 21
7417.129131957241
 31
0.0
  0
LINE
  5
1C206
  8
01
 10
16473.91362880478
 20
7417.129131957241
 30
0.0
 11
16476.91362880478
 21
7417.129131957241
 31
0.0
  0
LINE
  5
1C207
  8
01
 10
16477.46429383692
 20
7417.129131957241
 30
0.0
 11
16480.46429383692
 21
7417.129131957241
 31
0.0
  0
LINE
  5
1C208
  8
01
 10
16481.01495886905
 20
7417.129131957241
 30
0.0
 11
16484.01495886905
 21
7417.129131957241
 31
0.0
  0
LINE
  5
1C209
  8
01
 10
16484.56562390119
 20
7417.129131957241
 30
0.0
 11
16487.56562390119
 21
7417.129131957241
 31
0.0
  0
LINE
  5
1C20A
  8
01
 10
16488.11628893332
 20
7417.129131957241
 30
0.0
 11
16491.11628893332
 21
7417.129131957241
 31
0.0
  0
LINE
  5
1C20B
  8
01
 10
16491.66695396546
 20
7417.129131957241
 30
0.0
 11
16494.66695396546
 21
7417.129131957241
 31
0.0
  0
LINE
  5
1C20C
  8
01
 10
16495.21761899759
 20
7417.129131957241
 30
0.0
 11
16498.21761899759
 21
7417.129131957241
 31
0.0
  0
LINE
  5
1C20D
  8
01
 10
16498.76828402973
 20
7417.129131957241
 30
0.0
 11
16501.76828402973
 21
7417.129131957241
 31
0.0
  0
LINE
  5
1C20E
  8
01
 10
16502.31894906186
 20
7417.129131957241
 30
0.0
 11
16505.31894906186
 21
7417.129131957241
 31
0.0
  0
LINE
  5
1C20F
  8
01
 10
16505.869614094
 20
7417.129131957241
 30
0.0
 11
16508.869614094
 21
7417.129131957241
 31
0.0
  0
LINE
  5
1C210
  8
01
 10
16509.42027912613
 20
7417.129131957241
 30
0.0
 11
16512.42027912613
 21
7417.129131957241
 31
0.0
  0
LINE
  5
1C211
  8
01
 10
16512.97094415827
 20
7417.129131957241
 30
0.0
 11
16515.97094415827
 21
7417.129131957241
 31
0.0
  0
LINE
  5
1C212
  8
01
 10
16516.5216091904
 20
7417.129131957241
 30
0.0
 11
16519.5216091904
 21
7417.129131957241
 31
0.0
  0
LINE
  5
1C213
  8
01
 10
16520.07227422254
 20
7417.129131957241
 30
0.0
 11
16523.07227422254
 21
7417.129131957241
 31
0.0
  0
LINE
  5
1C214
  8
01
 10
16523.62293925467
 20
7417.129131957241
 30
0.0
 11
16526.62293925467
 21
7417.129131957241
 31
0.0
  0
LINE
  5
1C215
  8
01
 10
16527.17360428681
 20
7417.129131957241
 30
0.0
 11
16530.17360428681
 21
7417.129131957241
 31
0.0
  0
LINE
  5
1C216
  8
01
 10
16530.72426931894
 20
7417.129131957241
 30
0.0
 11
16533.72426931894
 21
7417.129131957241
 31
0.0
  0
LINE
  5
1C217
  8
01
 10
16534.27493435107
 20
7417.129131957241
 30
0.0
 11
16537.27493435107
 21
7417.129131957241
 31
0.0
  0
LINE
  5
1C218
  8
01
 10
16537.82559938321
 20
7417.129131957241
 30
0.0
 11
16540.82559938321
 21
7417.129131957241
 31
0.0
  0
LINE
  5
1C219
  8
01
 10
16541.37626441534
 20
7417.129131957241
 30
0.0
 11
16544.37626441534
 21
7417.129131957241
 31
0.0
  0
LINE
  5
1C21A
  8
01
 10
16544.92692944748
 20
7417.129131957241
 30
0.0
 11
16547.92692944748
 21
7417.129131957241
 31
0.0
  0
LINE
  5
1C21B
  8
01
 10
16548.47759447961
 20
7417.129131957241
 30
0.0
 11
16551.47759447961
 21
7417.129131957241
 31
0.0
  0
LINE
  5
1C21C
  8
01
 10
16552.02825951175
 20
7417.129131957241
 30
0.0
 11
16555.02825951175
 21
7417.129131957241
 31
0.0
  0
LINE
  5
1C21D
  8
01
 10
16555.57892454388
 20
7417.129131957241
 30
0.0
 11
16558.57892454388
 21
7417.129131957241
 31
0.0
  0
LINE
  5
1C21E
  8
01
 10
16559.12958957602
 20
7417.129131957241
 30
0.0
 11
16562.12958957602
 21
7417.129131957241
 31
0.0
  0
LINE
  5
1C21F
  8
01
 10
16562.68025460815
 20
7417.129131957241
 30
0.0
 11
16565.68025460815
 21
7417.129131957241
 31
0.0
  0
LINE
  5
1C220
  8
01
 10
16566.23091964029
 20
7417.129131957241
 30
0.0
 11
16569.23091964029
 21
7417.129131957241
 31
0.0
  0
LINE
  5
1C221
  8
01
 10
16569.78158467242
 20
7417.129131957241
 30
0.0
 11
16572.78158467242
 21
7417.129131957241
 31
0.0
  0
LINE
  5
1C222
  8
01
 10
16573.33224970456
 20
7417.129131957241
 30
0.0
 11
16576.33224970456
 21
7417.129131957241
 31
0.0
  0
LINE
  5
1C223
  8
01
 10
16576.88291473669
 20
7417.129131957241
 30
0.0
 11
16579.88291473669
 21
7417.129131957241
 31
0.0
  0
LINE
  5
1C224
  8
01
 10
16580.43357976883
 20
7417.129131957241
 30
0.0
 11
16583.43357976883
 21
7417.129131957241
 31
0.0
  0
LINE
  5
1C225
  8
01
 10
16583.98424480096
 20
7417.129131957241
 30
0.0
 11
16586.98424480096
 21
7417.129131957241
 31
0.0
  0
LINE
  5
1C226
  8
01
 10
16587.5349098331
 20
7417.129131957241
 30
0.0
 11
16590.5349098331
 21
7417.129131957241
 31
0.0
  0
LINE
  5
1C227
  8
01
 10
16591.08557486523
 20
7417.129131957241
 30
0.0
 11
16594.08557486523
 21
7417.129131957241
 31
0.0
  0
LINE
  5
1C228
  8
01
 10
16594.63623989737
 20
7417.129131957241
 30
0.0
 11
16597.63623989737
 21
7417.129131957241
 31
0.0
  0
LINE
  5
1C229
  8
01
 10
16598.1869049295
 20
7417.129131957241
 30
0.0
 11
16601.1869049295
 21
7417.129131957241
 31
0.0
  0
LINE
  5
1C22A
  8
01
 10
16601.73756996164
 20
7417.129131957241
 30
0.0
 11
16604.73756996164
 21
7417.129131957241
 31
0.0
  0
LINE
  5
1C22B
  8
01
 10
16605.28823499377
 20
7417.129131957241
 30
0.0
 11
16608.28823499377
 21
7417.129131957241
 31
0.0
  0
LINE
  5
1C22C
  8
01
 10
16608.8389000259
 20
7417.129131957241
 30
0.0
 11
16611.8389000259
 21
7417.129131957241
 31
0.0
  0
LINE
  5
1C22D
  8
01
 10
16612.38956505804
 20
7417.129131957241
 30
0.0
 11
16615.38956505804
 21
7417.129131957241
 31
0.0
  0
LINE
  5
1C22E
  8
01
 10
16615.94023009017
 20
7417.129131957241
 30
0.0
 11
16618.94023009017
 21
7417.129131957241
 31
0.0
  0
LINE
  5
1C22F
  8
01
 10
16619.49089512231
 20
7417.129131957241
 30
0.0
 11
16622.49089512231
 21
7417.129131957241
 31
0.0
  0
LINE
  5
1C230
  8
01
 10
16623.04156015444
 20
7417.129131957241
 30
0.0
 11
16626.04156015444
 21
7417.129131957241
 31
0.0
  0
LINE
  5
1C231
  8
01
 10
16626.59222518658
 20
7417.129131957241
 30
0.0
 11
16629.59222518658
 21
7417.129131957241
 31
0.0
  0
LINE
  5
1C232
  8
01
 10
16630.14289021871
 20
7417.129131957241
 30
0.0
 11
16633.14289021871
 21
7417.129131957241
 31
0.0
  0
LINE
  5
1C233
  8
01
 10
16633.69355525085
 20
7417.129131957241
 30
0.0
 11
16636.69355525085
 21
7417.129131957241
 31
0.0
  0
LINE
  5
1C234
  8
01
 10
16637.24422028298
 20
7417.129131957241
 30
0.0
 11
16640.24422028298
 21
7417.129131957241
 31
0.0
  0
LINE
  5
1C235
  8
01
 10
16640.79488531512
 20
7417.129131957241
 30
0.0
 11
16643.79488531512
 21
7417.129131957241
 31
0.0
  0
LINE
  5
1C236
  8
01
 10
16644.34555034725
 20
7417.129131957241
 30
0.0
 11
16647.34555034725
 21
7417.129131957241
 31
0.0
  0
LINE
  5
1C237
  8
01
 10
16647.89621537939
 20
7417.129131957241
 30
0.0
 11
16650.89621537939
 21
7417.129131957241
 31
0.0
  0
LINE
  5
1C238
  8
01
 10
16651.44688041152
 20
7417.129131957241
 30
0.0
 11
16654.44688041152
 21
7417.129131957241
 31
0.0
  0
LINE
  5
1C239
  8
01
 10
16654.99754544365
 20
7417.129131957241
 30
0.0
 11
16657.99754544365
 21
7417.129131957241
 31
0.0
  0
LINE
  5
1C23A
  8
01
 10
16658.54821047579
 20
7417.129131957241
 30
0.0
 11
16661.54821047579
 21
7417.129131957241
 31
0.0
  0
LINE
  5
1C23B
  8
01
 10
16662.09887550792
 20
7417.129131957241
 30
0.0
 11
16665.09887550792
 21
7417.129131957241
 31
0.0
  0
LINE
  5
1C23C
  8
01
 10
16665.64954054006
 20
7417.129131957241
 30
0.0
 11
16668.64954054006
 21
7417.129131957241
 31
0.0
  0
LINE
  5
1C23D
  8
01
 10
16669.20020557219
 20
7417.129131957241
 30
0.0
 11
16672.20020557219
 21
7417.129131957241
 31
0.0
  0
LINE
  5
1C23E
  8
01
 10
16672.75087060433
 20
7417.129131957241
 30
0.0
 11
16675.75087060433
 21
7417.129131957241
 31
0.0
  0
LINE
  5
1C23F
  8
01
 10
16676.30153563646
 20
7417.129131957241
 30
0.0
 11
16679.30153563646
 21
7417.129131957241
 31
0.0
  0
LINE
  5
1C240
  8
01
 10
16679.8522006686
 20
7417.129131957241
 30
0.0
 11
16682.8522006686
 21
7417.129131957241
 31
0.0
  0
LINE
  5
1C241
  8
01
 10
16683.40286570073
 20
7417.129131957241
 30
0.0
 11
16686.40286570073
 21
7417.129131957241
 31
0.0
  0
LINE
  5
1C242
  8
01
 10
16686.95353073287
 20
7417.129131957241
 30
0.0
 11
16689.95353073287
 21
7417.129131957241
 31
0.0
  0
LINE
  5
1C243
  8
01
 10
16690.504195765
 20
7417.129131957241
 30
0.0
 11
16693.504195765
 21
7417.129131957241
 31
0.0
  0
LINE
  5
1C244
  8
01
 10
16694.05486079714
 20
7417.129131957241
 30
0.0
 11
16697.05486079714
 21
7417.129131957241
 31
0.0
  0
LINE
  5
1C245
  8
01
 10
16697.60552582927
 20
7417.129131957241
 30
0.0
 11
16700.60552582927
 21
7417.129131957241
 31
0.0
  0
LINE
  5
1C246
  8
01
 10
16701.15619086141
 20
7417.129131957241
 30
0.0
 11
16704.15619086141
 21
7417.129131957241
 31
0.0
  0
LINE
  5
1C247
  8
01
 10
16704.70685589354
 20
7417.129131957241
 30
0.0
 11
16707.70685589354
 21
7417.129131957241
 31
0.0
  0
LINE
  5
1C248
  8
01
 10
16708.25752092568
 20
7417.129131957241
 30
0.0
 11
16711.25752092568
 21
7417.129131957241
 31
0.0
  0
LINE
  5
1C249
  8
01
 10
16711.80818595781
 20
7417.129131957241
 30
0.0
 11
16714.80818595781
 21
7417.129131957241
 31
0.0
  0
LINE
  5
1C24A
  8
01
 10
16715.35885098995
 20
7417.129131957241
 30
0.0
 11
16718.35885098995
 21
7417.129131957241
 31
0.0
  0
LINE
  5
1C24B
  8
01
 10
16718.90951602208
 20
7417.129131957241
 30
0.0
 11
16721.90951602208
 21
7417.129131957241
 31
0.0
  0
LINE
  5
1C24C
  8
01
 10
16722.46018105422
 20
7417.129131957241
 30
0.0
 11
16725.46018105422
 21
7417.129131957241
 31
0.0
  0
LINE
  5
1C24D
  8
01
 10
16726.01084608635
 20
7417.129131957241
 30
0.0
 11
16729.01084608635
 21
7417.129131957241
 31
0.0
  0
LINE
  5
1C24E
  8
01
 10
16729.56151111849
 20
7417.129131957241
 30
0.0
 11
16732.56151111849
 21
7417.129131957241
 31
0.0
  0
LINE
  5
1C24F
  8
01
 10
16733.11217615062
 20
7417.129131957241
 30
0.0
 11
16736.11217615062
 21
7417.129131957241
 31
0.0
  0
LINE
  5
1C250
  8
01
 10
16736.66284118275
 20
7417.129131957241
 30
0.0
 11
16739.66284118275
 21
7417.129131957241
 31
0.0
  0
LINE
  5
1C251
  8
01
 10
16740.21350621489
 20
7417.129131957241
 30
0.0
 11
16743.21350621489
 21
7417.129131957241
 31
0.0
  0
LINE
  5
1C252
  8
01
 10
16743.76417124702
 20
7417.129131957241
 30
0.0
 11
16746.76417124702
 21
7417.129131957241
 31
0.0
  0
LINE
  5
1C253
  8
01
 10
16747.31483627916
 20
7417.129131957241
 30
0.0
 11
16750.31483627916
 21
7417.129131957241
 31
0.0
  0
LINE
  5
1C254
  8
01
 10
16750.86550131129
 20
7417.129131957241
 30
0.0
 11
16753.86550131129
 21
7417.129131957241
 31
0.0
  0
LINE
  5
1C255
  8
01
 10
16754.41616634343
 20
7417.129131957241
 30
0.0
 11
16757.41616634343
 21
7417.129131957241
 31
0.0
  0
LINE
  5
1C256
  8
01
 10
16757.96683137556
 20
7417.129131957241
 30
0.0
 11
16760.96683137556
 21
7417.129131957241
 31
0.0
  0
LINE
  5
1C257
  8
01
 10
16761.5174964077
 20
7417.129131957241
 30
0.0
 11
16764.5174964077
 21
7417.129131957241
 31
0.0
  0
LINE
  5
1C258
  8
01
 10
16765.06816143983
 20
7417.129131957241
 30
0.0
 11
16768.06816143983
 21
7417.129131957241
 31
0.0
  0
LINE
  5
1C259
  8
01
 10
16768.61882647196
 20
7417.129131957241
 30
0.0
 11
16771.61882647196
 21
7417.129131957241
 31
0.0
  0
LINE
  5
1C25A
  8
01
 10
16772.1694915041
 20
7417.129131957241
 30
0.0
 11
16775.1694915041
 21
7417.129131957241
 31
0.0
  0
LINE
  5
1C25B
  8
01
 10
16775.72015653623
 20
7417.129131957241
 30
0.0
 11
16778.72015653623
 21
7417.129131957241
 31
0.0
  0
LINE
  5
1C25C
  8
01
 10
16779.27082156837
 20
7417.129131957241
 30
0.0
 11
16782.27082156837
 21
7417.129131957241
 31
0.0
  0
LINE
  5
1C25D
  8
01
 10
16782.8214866005
 20
7417.129131957241
 30
0.0
 11
16785.8214866005
 21
7417.129131957241
 31
0.0
  0
LINE
  5
1C25E
  8
01
 10
16786.37215163264
 20
7417.129131957241
 30
0.0
 11
16789.37215163264
 21
7417.129131957241
 31
0.0
  0
LINE
  5
1C25F
  8
01
 10
16789.92281666477
 20
7417.129131957241
 30
0.0
 11
16792.92281666477
 21
7417.129131957241
 31
0.0
  0
LINE
  5
1C260
  8
01
 10
16793.47348169691
 20
7417.129131957241
 30
0.0
 11
16796.47348169691
 21
7417.129131957241
 31
0.0
  0
LINE
  5
1C261
  8
01
 10
16797.02414672904
 20
7417.129131957241
 30
0.0
 11
16800.02414672904
 21
7417.129131957241
 31
0.0
  0
LINE
  5
1C262
  8
01
 10
16800.57481176118
 20
7417.129131957241
 30
0.0
 11
16803.57481176118
 21
7417.129131957241
 31
0.0
  0
LINE
  5
1C263
  8
01
 10
16804.12547679331
 20
7417.129131957241
 30
0.0
 11
16807.12547679331
 21
7417.129131957241
 31
0.0
  0
LINE
  5
1C264
  8
01
 10
16807.67614182545
 20
7417.129131957241
 30
0.0
 11
16810.67614182545
 21
7417.129131957241
 31
0.0
  0
LINE
  5
1C265
  8
01
 10
16811.22680685758
 20
7417.129131957241
 30
0.0
 11
16814.22680685758
 21
7417.129131957241
 31
0.0
  0
LINE
  5
1C266
  8
01
 10
16814.77747188972
 20
7417.129131957241
 30
0.0
 11
16817.77747188972
 21
7417.129131957241
 31
0.0
  0
LINE
  5
1C267
  8
01
 10
16818.32813692185
 20
7417.129131957241
 30
0.0
 11
16821.32813692185
 21
7417.129131957241
 31
0.0
  0
LINE
  5
1C268
  8
01
 10
16821.87880195399
 20
7417.129131957241
 30
0.0
 11
16824.87880195399
 21
7417.129131957241
 31
0.0
  0
LINE
  5
1C269
  8
01
 10
16825.42946698612
 20
7417.129131957241
 30
0.0
 11
16828.42946698612
 21
7417.129131957241
 31
0.0
  0
LINE
  5
1C26A
  8
01
 10
16828.98013201826
 20
7417.129131957241
 30
0.0
 11
16831.98013201826
 21
7417.129131957241
 31
0.0
  0
LINE
  5
1C26B
  8
01
 10
16832.53079705039
 20
7417.129131957241
 30
0.0
 11
16835.53079705039
 21
7417.129131957241
 31
0.0
  0
LINE
  5
1C26C
  8
01
 10
16836.08146208253
 20
7417.129131957241
 30
0.0
 11
16839.08146208253
 21
7417.129131957241
 31
0.0
  0
LINE
  5
1C26D
  8
01
 10
16839.63212711466
 20
7417.129131957241
 30
0.0
 11
16842.63212711466
 21
7417.129131957241
 31
0.0
  0
LINE
  5
1C26E
  8
01
 10
16843.1827921468
 20
7417.129131957241
 30
0.0
 11
16846.1827921468
 21
7417.129131957241
 31
0.0
  0
LINE
  5
1C26F
  8
01
 10
16846.73345717893
 20
7417.129131957241
 30
0.0
 11
16849.73345717893
 21
7417.129131957241
 31
0.0
  0
LINE
  5
1C270
  8
01
 10
16850.28412221106
 20
7417.129131957241
 30
0.0
 11
16853.28412221106
 21
7417.129131957241
 31
0.0
  0
LINE
  5
1C271
  8
01
 10
16853.8347872432
 20
7417.129131957241
 30
0.0
 11
16856.8347872432
 21
7417.129131957241
 31
0.0
  0
LINE
  5
1C272
  8
01
 10
16857.38545227533
 20
7417.129131957241
 30
0.0
 11
16860.38545227533
 21
7417.129131957241
 31
0.0
  0
LINE
  5
1C273
  8
01
 10
16860.93611730747
 20
7417.129131957241
 30
0.0
 11
16863.93611730747
 21
7417.129131957241
 31
0.0
  0
LINE
  5
1C274
  8
01
 10
16864.4867823396
 20
7417.129131957241
 30
0.0
 11
16867.4867823396
 21
7417.129131957241
 31
0.0
  0
LINE
  5
1C275
  8
01
 10
16868.03744737174
 20
7417.129131957241
 30
0.0
 11
16871.03744737174
 21
7417.129131957241
 31
0.0
  0
LINE
  5
1C276
  8
01
 10
16871.58811240387
 20
7417.129131957241
 30
0.0
 11
16874.58811240387
 21
7417.129131957241
 31
0.0
  0
LINE
  5
1C277
  8
01
 10
16875.13877743601
 20
7417.129131957241
 30
0.0
 11
16878.13877743601
 21
7417.129131957241
 31
0.0
  0
LINE
  5
1C278
  8
01
 10
16878.68944246814
 20
7417.129131957241
 30
0.0
 11
16881.68944246814
 21
7417.129131957241
 31
0.0
  0
LINE
  5
1C279
  8
01
 10
16882.24010750027
 20
7417.129131957241
 30
0.0
 11
16885.24010750027
 21
7417.129131957241
 31
0.0
  0
LINE
  5
1C27A
  8
01
 10
16885.79077253241
 20
7417.129131957241
 30
0.0
 11
16888.79077253241
 21
7417.129131957241
 31
0.0
  0
LINE
  5
1C27B
  8
01
 10
16889.34143756454
 20
7417.129131957241
 30
0.0
 11
16892.34143756454
 21
7417.129131957241
 31
0.0
  0
LINE
  5
1C27C
  8
01
 10
16892.89210259668
 20
7417.129131957241
 30
0.0
 11
16895.89210259668
 21
7417.129131957241
 31
0.0
  0
LINE
  5
1C27D
  8
01
 10
16896.44276762881
 20
7417.129131957241
 30
0.0
 11
16899.44276762881
 21
7417.129131957241
 31
0.0
  0
LINE
  5
1C27E
  8
01
 10
16899.99343266095
 20
7417.129131957241
 30
0.0
 11
16902.99343266095
 21
7417.129131957241
 31
0.0
  0
LINE
  5
1C27F
  8
01
 10
16903.54409769308
 20
7417.129131957241
 30
0.0
 11
16906.54409769308
 21
7417.129131957241
 31
0.0
  0
LINE
  5
1C280
  8
01
 10
16907.09476272522
 20
7417.129131957241
 30
0.0
 11
16910.09476272522
 21
7417.129131957241
 31
0.0
  0
LINE
  5
1C281
  8
01
 10
16910.64542775735
 20
7417.129131957241
 30
0.0
 11
16913.64542775735
 21
7417.129131957241
 31
0.0
  0
LINE
  5
1C282
  8
01
 10
16914.19609278949
 20
7417.129131957241
 30
0.0
 11
16917.19609278949
 21
7417.129131957241
 31
0.0
  0
LINE
  5
1C283
  8
01
 10
16917.74675782162
 20
7417.129131957241
 30
0.0
 11
16920.74675782162
 21
7417.129131957241
 31
0.0
  0
LINE
  5
1C284
  8
01
 10
16921.29742285376
 20
7417.129131957241
 30
0.0
 11
16924.29742285376
 21
7417.129131957241
 31
0.0
  0
LINE
  5
1C285
  8
01
 10
16924.84808788589
 20
7417.129131957241
 30
0.0
 11
16927.84808788589
 21
7417.129131957241
 31
0.0
  0
LINE
  5
1C286
  8
01
 10
16928.39875291803
 20
7417.129131957241
 30
0.0
 11
16931.39875291803
 21
7417.129131957241
 31
0.0
  0
LINE
  5
1C287
  8
01
 10
16931.94941795016
 20
7417.129131957241
 30
0.0
 11
16934.94941795016
 21
7417.129131957241
 31
0.0
  0
LINE
  5
1C288
  8
01
 10
16935.5000829823
 20
7417.129131957241
 30
0.0
 11
16938.5000829823
 21
7417.129131957241
 31
0.0
  0
LINE
  5
1C289
  8
01
 10
16939.05074801443
 20
7417.129131957241
 30
0.0
 11
16942.05074801443
 21
7417.129131957241
 31
0.0
  0
LINE
  5
1C28A
  8
01
 10
16942.60141304657
 20
7417.129131957241
 30
0.0
 11
16945.60141304657
 21
7417.129131957241
 31
0.0
  0
LINE
  5
1C28B
  8
01
 10
16946.1520780787
 20
7417.129131957241
 30
0.0
 11
16949.1520780787
 21
7417.129131957241
 31
0.0
  0
LINE
  5
1C28C
  8
01
 10
16949.70274311084
 20
7417.129131957241
 30
0.0
 11
16952.70274311084
 21
7417.129131957241
 31
0.0
  0
LINE
  5
1C28D
  8
01
 10
16953.25340814297
 20
7417.129131957241
 30
0.0
 11
16956.25340814297
 21
7417.129131957241
 31
0.0
  0
LINE
  5
1C28E
  8
01
 10
16956.80407317511
 20
7417.129131957241
 30
0.0
 11
16959.80407317511
 21
7417.129131957241
 31
0.0
  0
LINE
  5
1C28F
  8
01
 10
16960.35473820724
 20
7417.129131957241
 30
0.0
 11
16963.35473820724
 21
7417.129131957241
 31
0.0
  0
LINE
  5
1C290
  8
01
 10
16963.90540323937
 20
7417.129131957241
 30
0.0
 11
16966.90540323937
 21
7417.129131957241
 31
0.0
  0
LINE
  5
1C291
  8
01
 10
16967.45606827151
 20
7417.129131957241
 30
0.0
 11
16970.45606827151
 21
7417.129131957241
 31
0.0
  0
LINE
  5
1C292
  8
01
 10
16971.00673330364
 20
7417.129131957241
 30
0.0
 11
16974.00673330364
 21
7417.129131957241
 31
0.0
  0
LINE
  5
1C293
  8
01
 10
16974.55739833578
 20
7417.129131957241
 30
0.0
 11
16977.55739833578
 21
7417.129131957241
 31
0.0
  0
LINE
  5
1C294
  8
01
 10
16978.10806336791
 20
7417.129131957241
 30
0.0
 11
16981.10806336791
 21
7417.129131957241
 31
0.0
  0
LINE
  5
1C295
  8
01
 10
16981.65872840005
 20
7417.129131957241
 30
0.0
 11
16984.65872840005
 21
7417.129131957241
 31
0.0
  0
LINE
  5
1C296
  8
01
 10
16985.20939343218
 20
7417.129131957241
 30
0.0
 11
16988.20939343218
 21
7417.129131957241
 31
0.0
  0
LINE
  5
1C297
  8
01
 10
16988.76005846432
 20
7417.129131957241
 30
0.0
 11
16991.76005846432
 21
7417.129131957241
 31
0.0
  0
LINE
  5
1C298
  8
01
 10
16992.31072349645
 20
7417.129131957241
 30
0.0
 11
16995.31072349645
 21
7417.129131957241
 31
0.0
  0
LINE
  5
1C299
  8
01
 10
16995.86138852858
 20
7417.129131957241
 30
0.0
 11
16998.86138852858
 21
7417.129131957241
 31
0.0
  0
LINE
  5
1C29A
  8
01
 10
16999.41205356072
 20
7417.129131957241
 30
0.0
 11
17002.41205356072
 21
7417.129131957241
 31
0.0
  0
LINE
  5
1C29B
  8
1DIM
 10
16409.50165822636
 20
7414.262946258605
 30
0.0
 11
17003.50165822636
 21
7414.262946258605
 31
0.0
  0
LINE
  5
1C2DD
  8
1CENTER
 10
16486.51936408657
 20
7358.762938599899
 30
0.0
 11
16496.48395236615
 21
7358.762938599899
 31
0.0
  0
LINE
  5
1C2DE
  8
1CENTER
 10
16491.50165822636
 20
7353.780644460105
 30
0.0
 11
16491.50165822636
 21
7363.745232739693
 31
0.0
  0
LINE
  5
1C2DF
  8
1CENTER
 10
16926.48395236616
 20
7358.762938599899
 30
0.0
 11
16916.51936408657
 21
7358.762938599899
 31
0.0
  0
LINE
  5
1C2E0
  8
1CENTER
 10
16921.50165822636
 20
7353.780644460105
 30
0.0
 11
16921.50165822636
 21
7363.745232739693
 31
0.0
  0
LINE
  5
1C2FE
  8
01
 10
17162.874085774
 20
7277.762930941208
 30
0.0
 11
17191.76859544229
 21
7277.762930941208
 31
0.0
  0
LINE
  5
1C2FF
  8
01
 10
17150.71523132281
 20
7277.762930941208
 30
0.0
 11
17154.55637687161
 21
7277.762930941208
 31
0.0
  0
LINE
  5
1C300
  8
01
 10
17162.874085774
 20
7302.762930941208
 30
0.0
 11
17191.76859544229
 21
7302.762930941208
 31
0.0
  0
LINE
  5
1C301
  8
01
 10
17150.71523132281
 20
7302.762930941208
 30
0.0
 11
17154.55637687161
 21
7302.762930941208
 31
0.0
  0
LINE
  5
1C302
  8
01
 10
17154.91509751702
 20
7277.850700755273
 30
0.0
 11
17154.91509751702
 21
7277.819686350813
 31
0.0
  0
LINE
  5
1C306
  8
01
 10
17138.71523132281
 20
7277.762930941208
 30
0.0
 11
17097.66186720333
 21
7277.762930941208
 31
0.0
  0
LINE
  5
1C307
  8
01
 10
17138.71523132281
 20
7302.762930941208
 30
0.0
 11
17097.66186720333
 21
7302.762930941208
 31
0.0
  0
ARC
  5
1C308
  8
01
 10
17158.61658842183
 20
7319.384294791413
 30
0.0
 40
17.15804414482147
 50
270.329399609388
 51
284.3439430988357
  0
ARC
  5
1C309
  8
01
 10
17158.81117991354
 20
7319.363368672832
 30
0.0
 40
17.13710307557279
 50
255.6474511715364
 51
269.6792061063376
  0
ARC
  5
1C30A
  8
01
 10
17158.61658851271
 20
7261.14156781054
 30
0.0
 40
17.15804342476925
 50
75.65605659759437
 51
89.67060068026971
  0
ARC
  5
1C30B
  8
01
 10
17158.81118001446
 20
7261.16249242577
 30
0.0
 40
17.13710385993818
 50
90.3207942163901
 51
104.3525485057287
  0
LINE
  5
1C30C
  8
01
 10
17150.71523132281
 20
7302.762930941208
 30
0.0
 11
17150.71523132281
 21
7277.762930941208
 31
0.0
  0
LINE
  5
1C30F
  8
01
 10
17162.51536527291
 20
7277.850700722054
 30
0.0
 11
17162.51536512859
 21
7277.819686350813
 31
0.0
  0
LINE
  5
1C323
  8
01
 10
17068.84522366412
 20
7288.262930941208
 30
0.0
 11
17075.80333620965
 21
7288.262930941208
 31
0.0
  0
LINE
  5
1C324
  8
01
 10
17075.80333620965
 20
7292.262930941208
 30
0.0
 11
17068.84522366412
 21
7292.262930941208
 31
0.0
  0
CIRCLE
  5
1C325
  8
01
 10
17090.21522366411
 20
7290.262930941208
 30
0.0
 40
14.55000000000018
  0
CIRCLE
  5
1C326
  8
01
 10
17199.2152389815
 20
7290.262930941208
 30
0.0
 40
14.55000000000007
  0
LINE
  5
1C327
  8
01
 10
17138.71523132281
 20
7302.762930941208
 30
0.0
 11
17138.71523132281
 21
7277.762930941208
 31
0.0
  0
LINE
  5
1C328
  8
01
 10
17150.71523132281
 20
7297.262930941208
 30
0.0
 11
17138.71523132281
 21
7297.262930941208
 31
0.0
  0
LINE
  5
1C329
  8
01
 10
17150.71523132281
 20
7283.262930941204
 30
0.0
 11
17138.71523132281
 21
7283.262930941204
 31
0.0
  0
LINE
  5
1C32A
  8
01
 10
17068.84522366412
 20
7292.262930941208
 30
0.0
 11
17068.84522366412
 21
7288.262930941208
 31
0.0
  0
LINE
  5
1C32B
  8
01
 10
17220.5852389815
 20
7288.262930941208
 30
0.0
 11
17213.62712643596
 21
7288.262930941208
 31
0.0
  0
LINE
  5
1C32C
  8
01
 10
17213.62712643596
 20
7292.262930941208
 30
0.0
 11
17220.5852389815
 21
7292.262930941208
 31
0.0
  0
LINE
  5
1C32D
  8
01
 10
17220.5852389815
 20
7292.262930941208
 30
0.0
 11
17220.5852389815
 21
7288.262930941208
 31
0.0
  0
LINE
  5
1C331
  8
1DIM
 10
17138.71523132281
 20
7312.762930941208
 30
0.0
 11
17138.71523132281
 21
7267.762930941208
 31
0.0
  0
LINE
  5
1C332
  8
1DIM
 10
17150.71523132281
 20
7312.762930941208
 30
0.0
 11
17150.71523132281
 21
7267.762930941208
 31
0.0
  0
LINE
  5
1C333
  8
1DIM
 10
17160.36521831025
 20
7285.962930941208
 30
0.0
 11
17160.36521831025
 21
7280.763020722006
 31
0.0
  0
LINE
  5
1C334
  8
1DIM
 10
17160.36521831025
 20
7299.762930941208
 30
0.0
 11
17160.36521831025
 21
7294.562930941207
 31
0.0
  0
LINE
  5
1C335
  8
1PHANTOM
 10
17163.71521831025
 20
7298.762931497426
 30
0.0
 11
17162.71521862108
 21
7299.762931252037
 31
0.0
  0
LINE
  5
1C336
  8
1PHANTOM
 10
17162.71560675018
 20
7280.76312498808
 30
0.0
 11
17163.71521831025
 21
7281.762757003449
 31
0.0
  0
LINE
  5
1C337
  8
1PHANTOM
 10
17160.36521831025
 20
7280.762930941208
 30
0.0
 11
17162.71521831025
 21
7280.762930941208
 31
0.0
  0
LINE
  5
1C338
  8
1PHANTOM
 10
17150.71522245654
 20
7280.762930941208
 30
0.0
 11
17157.06521831025
 21
7280.762930941208
 31
0.0
  0
LINE
  5
1C339
  8
1DIM
 10
17160.36521831025
 20
7285.962930941205
 30
0.0
 11
17163.71521831025
 21
7285.962930941205
 31
0.0
  0
LINE
  5
1C33A
  8
1DIM
 10
17150.71522650183
 20
7285.962930941205
 30
0.0
 11
17157.06521831025
 21
7285.962930941205
 31
0.0
  0
LINE
  5
1C340
  8
1DIM
 10
17160.36470765105
 20
7285.963132239507
 30
0.0
 11
17160.36521831025
 21
7285.962930941205
 31
0.0
  0
LINE
  5
1C341
  8
1DIM
 10
17160.36521831025
 20
7285.962930941205
 30
0.0
 11
17160.22829468655
 21
7286.017096673389
 31
0.0
  0
LINE
  5
1C342
  8
1DIM
 10
17160.22829468655
 20
7286.017096673389
 30
0.0
 11
17160.08959677784
 21
7286.066542556815
 31
0.0
  0
LINE
  5
1C343
  8
1DIM
 10
17160.08959677784
 20
7286.066542556815
 30
0.0
 11
17159.94928722601
 21
7286.11121060955
 31
0.0
  0
LINE
  5
1C344
  8
1DIM
 10
17159.94928722601
 20
7286.11121060955
 30
0.0
 11
17159.80753056284
 21
7286.15104845231
 31
0.0
  0
LINE
  5
1C345
  8
1DIM
 10
17159.80753056284
 20
7286.15104845231
 30
0.0
 11
17159.66449301702
 21
7286.186009369885
 31
0.0
  0
LINE
  5
1C346
  8
1DIM
 10
17159.66449301702
 20
7286.186009369885
 30
0.0
 11
17159.52034231928
 21
7286.216052365904
 31
0.0
  0
LINE
  5
1C347
  8
1DIM
 10
17159.52034231928
 20
7286.216052365904
 30
0.0
 11
17159.37524750563
 21
7286.241142210929
 31
0.0
  0
LINE
  5
1C348
  8
1DIM
 10
17159.37524750563
 20
7286.241142210929
 30
0.0
 11
17159.22937871922
 21
7286.261249483745
 31
0.0
  0
LINE
  5
1C349
  8
1DIM
 10
17159.22937871922
 20
7286.261249483745
 30
0.0
 11
17159.08290701076
 21
7286.276350605884
 31
0.0
  0
LINE
  5
1C34A
  8
1DIM
 10
17159.08290701076
 20
7286.276350605884
 30
0.0
 11
17158.93600413797
 21
7286.28642786925
 31
0.0
  0
LINE
  5
1C34B
  8
1DIM
 10
17158.93600413797
 20
7286.28642786925
 30
0.0
 11
17158.78884236419
 21
7286.291469456901
 31
0.0
  0
LINE
  5
1C34C
  8
1DIM
 10
17158.78884236419
 20
7286.291469456901
 30
0.0
 11
17158.64159425632
 21
7286.291469456901
 31
0.0
  0
LINE
  5
1C34D
  8
1DIM
 10
17158.64159425632
 20
7286.291469456901
 30
0.0
 11
17158.49443248253
 21
7286.28642786925
 31
0.0
  0
LINE
  5
1C34E
  8
1DIM
 10
17158.49443248253
 20
7286.28642786925
 30
0.0
 11
17158.34752960975
 21
7286.276350605884
 31
0.0
  0
LINE
  5
1C34F
  8
1DIM
 10
17158.34752960975
 20
7286.276350605884
 30
0.0
 11
17158.20105790129
 21
7286.261249483745
 31
0.0
  0
LINE
  5
1C350
  8
1DIM
 10
17158.20105790129
 20
7286.261249483745
 30
0.0
 11
17158.05518911487
 21
7286.241142210929
 31
0.0
  0
LINE
  5
1C351
  8
1DIM
 10
17158.05518911487
 20
7286.241142210929
 30
0.0
 11
17157.91009430123
 21
7286.216052365904
 31
0.0
  0
LINE
  5
1C352
  8
1DIM
 10
17157.91009430123
 20
7286.216052365904
 30
0.0
 11
17157.76594360348
 21
7286.186009369885
 31
0.0
  0
LINE
  5
1C353
  8
1DIM
 10
17157.76594360348
 20
7286.186009369885
 30
0.0
 11
17157.62290605767
 21
7286.15104845231
 31
0.0
  0
LINE
  5
1C354
  8
1DIM
 10
17157.62290605767
 20
7286.15104845231
 30
0.0
 11
17157.4811493945
 21
7286.11121060955
 31
0.0
  0
LINE
  5
1C355
  8
1DIM
 10
17157.4811493945
 20
7286.11121060955
 30
0.0
 11
17157.34083984267
 21
7286.066542556815
 31
0.0
  0
LINE
  5
1C356
  8
1DIM
 10
17157.34083984267
 20
7286.066542556815
 30
0.0
 11
17157.20214193395
 21
7286.017096673389
 31
0.0
  0
LINE
  5
1C357
  8
1DIM
 10
17157.20214193395
 20
7286.017096673389
 30
0.0
 11
17157.06521831025
 21
7285.962930941205
 31
0.0
  0
ARC
  5
1C358
  8
1PHANTOM
 10
17158.71522214104
 20
7271.405163056814
 30
0.0
 40
9.502122521825422
 50
80.00325541554719
 51
99.99986267100368
  0
LINE
  5
1C359
  8
1DIM
 10
17157.06521831025
 20
7285.962930941205
 30
0.0
 11
17157.06521831025
 21
7280.762930941208
 31
0.0
  0
ARC
  5
1C35A
  8
1DIM
 10
17158.71521831025
 20
7298.533762088475
 30
0.0
 40
4.300000000011586
 50
247.4356430236097
 51
292.5643569763903
  0
LINE
  5
1C35B
  8
1DIM
 10
17157.06521831025
 20
7299.762930941208
 30
0.0
 11
17157.06521831025
 21
7294.562930941207
 31
0.0
  0
ARC
  5
1C35C
  8
1PHANTOM
 10
17158.71521831025
 20
7309.118544229583
 30
0.0
 40
9.500000000083237
 50
259.9979036138348
 51
280.0020963861652
  0
LINE
  5
1C35D
  8
1PHANTOM
 10
17163.71521831025
 20
7281.763352165417
 30
0.0
 11
17163.71521831025
 21
7298.762930941208
 31
0.0
  0
LINE
  5
1C35E
  8
1PHANTOM
 10
17160.36521831025
 20
7299.762930941208
 30
0.0
 11
17162.71521831025
 21
7299.762930941208
 31
0.0
  0
LINE
  5
1C35F
  8
1PHANTOM
 10
17150.71524018908
 20
7299.762930941208
 30
0.0
 11
17157.06521831025
 21
7299.762930941208
 31
0.0
  0
LINE
  5
1C360
  8
1DIM
 10
17150.71524018908
 20
7294.562930941207
 30
0.0
 11
17157.06521831025
 21
7294.562930941207
 31
0.0
  0
LINE
  5
1C361
  8
1DIM
 10
17160.36521831025
 20
7294.562930941207
 30
0.0
 11
17163.71521831025
 21
7294.562930941207
 31
0.0
  0
LINE
  5
1C36E
  8
1DIM
 10
17167.95404868989
 20
7283.458769441702
 30
0.0
 11
17165.71521831025
 21
7283.262897163924
 31
0.0
  0
ARC
  5
1C36F
  8
1DIM
 10
17167.72744375875
 20
7286.048875656736
 30
0.0
 40
2.599999999995866
 50
275.0000000000061
 51
344.1191499917822
  0
ARC
  5
1C370
  8
1DIM
 10
17152.91521831009
 20
7290.262897163972
 30
0.0
 40
18.000000000173
 50
344.1191499917354
 51
347.4866746370934
  0
ARC
  5
1C371
  8
1DIM
 10
17152.91521831035
 20
7290.262897163953
 30
0.0
 40
17.99999999989626
 50
12.51332536285242
 51
15.88085000827358
  0
ARC
  5
1C372
  8
1DIM
 10
17167.72744375874
 20
7294.476918671106
 30
0.0
 40
2.60000000000654
 50
15.8808500084026
 51
84.99999999985339
  0
LINE
  5
1C373
  8
1DIM
 10
17167.95404868989
 20
7297.06702488615
 30
0.0
 11
17165.71521831025
 21
7297.262897163928
 31
0.0
  0
LINE
  5
1C374
  8
1DIM
 10
17150.71526206791
 20
7286.262897163928
 30
0.0
 11
17163.71521831025
 21
7286.262897163928
 31
0.0
  0
LINE
  5
1C375
  8
1DIM
 10
17150.71526206791
 20
7294.262897163928
 30
0.0
 11
17163.71521830361
 21
7294.262897163928
 31
0.0
  0
LINE
  5
1C376
  8
1DIM
 10
17170.4784223114
 20
7286.367532583547
 30
0.0
 11
17170.48706362693
 21
7286.363186957966
 31
0.0
  0
ARC
  5
1C377
  8
1DIM
 10
17152.91521830984
 20
7290.262897163997
 30
0.0
 40
17.98999722109076
 50
347.4947265180501
 51
352.3334583776679
  0
LINE
  5
1C378
  8
1DIM
 10
17170.48706362693
 20
7294.16260736989
 30
0.0
 11
17170.48755884741
 21
7294.162856410992
 31
0.0
  0
LINE
  5
1C379
  8
1DIM
 10
17170.48755884741
 20
7294.162856410992
 30
0.0
 11
17170.48763763393
 21
7294.162896031899
 31
0.0
  0
LINE
  5
1C37A
  8
1DIM
 10
17170.48763763393
 20
7294.162896031899
 30
0.0
 11
17170.48763956843
 21
7294.162897004735
 31
0.0
  0
LINE
  5
1C37B
  8
1DIM
 10
17170.48763956843
 20
7294.162897004735
 30
0.0
 11
17170.48763974429
 21
7294.162897093174
 31
0.0
  0
LINE
  5
1C37C
  8
1DIM
 10
17170.48763974429
 20
7294.162897093174
 30
0.0
 11
17170.48763482012
 21
7294.162894616864
 31
0.0
  0
LINE
  5
1C37D
  8
1DIM
 10
17170.48763482012
 20
7294.162894616864
 30
0.0
 11
17170.48760386823
 21
7294.162879051488
 31
0.0
  0
LINE
  5
1C37E
  8
1DIM
 10
17170.48760386823
 20
7294.162879051488
 30
0.0
 11
17170.48634333432
 21
7294.162245142405
 31
0.0
  0
LINE
  5
1C37F
  8
1DIM
 10
17170.48634333432
 20
7294.162245142405
 30
0.0
 11
17170.4784223114
 21
7294.158261744309
 31
0.0
  0
ARC
  5
1C380
  8
1DIM
 10
17152.91521831042
 20
7290.262897163957
 30
0.0
 40
17.98999722050367
 50
7.666541622267906
 51
12.50527348202077
  0
ARC
  5
1C381
  8
1DIM
 10
17150.95598008419
 20
7290.262910448
 30
0.0
 40
19.53165980079789
 50
359.9999610313974
 51
1.760327373933853
  0
ARC
  5
1C382
  8
1DIM
 10
17150.95598008516
 20
7290.262883879837
 30
0.0
 40
19.53165979981972
 50
358.2396726260206
 51
0.0000389686345803
  0
LINE
  5
1C383
  8
1DIM
 10
17165.71521831025
 20
7283.262897163928
 30
0.0
 11
17165.71521831025
 21
7290.262837739836
 31
0.0
  0
LINE
  5
1C384
  8
1DIM
 10
17170.74440785998
 20
7290.862897163926
 30
0.0
 11
17170.4784223114
 21
7290.862897163926
 31
0.0
  0
LINE
  5
1C385
  8
1DIM
 10
17170.4784223114
 20
7289.662897163926
 30
0.0
 11
17170.74440785998
 21
7289.662897163926
 31
0.0
  0
ARC
  5
1C386
  8
1DIM
 10
17166.25210102999
 20
7288.762897163928
 30
0.0
 40
4.581574036805433
 50
348.6711994946811
 51
11.32880050526536
  0
ARC
  5
1C387
  8
1DIM
 10
17166.25155377093
 20
7291.762897163928
 30
0.0
 40
4.58211063435297
 50
348.6725437378004
 51
11.32745626215724
  0
LINE
  5
1C388
  8
1DIM
 10
17165.71521831025
 20
7290.262897163928
 30
0.0
 11
17165.71521831025
 21
7297.262897163928
 31
0.0
  0
LINE
  5
1C389
  8
1DIM
 10
17163.71521831025
 20
7283.762592443552
 30
0.0
 11
17165.71521831025
 21
7283.762592443552
 31
0.0
  0
LINE
  5
1C38A
  8
1DIM
 10
17165.71521831025
 20
7283.762592443552
 30
0.0
 11
17165.71521831025
 21
7296.763083036116
 31
0.0
  0
LINE
  5
1C38B
  8
1DIM
 10
17165.71521831025
 20
7296.763083036116
 30
0.0
 11
17163.71521831025
 21
7296.763083036116
 31
0.0
  0
LINE
  5
1C38E
  8
1DIM
 10
17165.71521831025
 20
7289.891294569701
 30
0.0
 11
17163.71521831025
 21
7289.538640608284
 31
0.0
  0
LINE
  5
1C38F
  8
1DIM
 10
17163.71521831025
 20
7290.55406722017
 30
0.0
 11
17165.71521831025
 21
7290.906721181586
 31
0.0
  0
LINE
  5
1C3A9
  8
1DIM
 10
17160.08345304188
 20
7280.021365619638
 30
0.0
 11
17160.08345304188
 21
7283.754072113676
 31
0.0
  0
LINE
  5
1C3AA
  8
1DIM
 10
17157.70745304187
 20
7280.021365619638
 30
0.0
 11
17157.70745304187
 21
7283.754072113676
 31
0.0
  0
LINE
  5
1C3AB
  8
1DIM
 10
17157.68158480156
 20
7279.902072113675
 30
0.0
 11
17160.10932128219
 21
7279.902072113675
 31
0.0
  0
LINE
  5
1C3AC
  8
1DIM
 10
17160.16780628889
 20
7279.817718866657
 30
0.0
 11
17161.77545304188
 21
7278.210072113675
 31
0.0
  0
LINE
  5
1C3AD
  8
1DIM
 10
17157.62309979486
 20
7279.817718866657
 30
0.0
 11
17156.01545304187
 21
7278.210072113675
 31
0.0
  0
LINE
  5
1C3AE
  8
1DIM
 10
17161.77545304188
 20
7278.210072113675
 30
0.0
 11
17161.77545304188
 21
7277.994072113675
 31
0.0
  0
LINE
  5
1C3AF
  8
1DIM
 10
17156.01545304187
 20
7278.210072113675
 30
0.0
 11
17161.77545304188
 21
7278.210072113675
 31
0.0
  0
LINE
  5
1C3B0
  8
1DIM
 10
17161.77545304188
 20
7277.994072113675
 30
0.0
 11
17156.01545304187
 21
7277.994072113675
 31
0.0
  0
ARC
  5
1C3B1
  8
01
  6
CONTINUOUS
 10
17158.89545304187
 20
7284.070072113675
 30
0.0
 40
6.724
 50
248.4970305636893
 51
291.5029694363107
  0
ARC
  5
1C3B2
  8
1DIM
 10
17158.89545304187
 20
7284.070072113675
 30
0.0
 40
6.724
 50
244.6392330163839
 51
248.4970305636893
  0
ARC
  5
1C3B3
  8
1DIM
 10
17157.41945304188
 20
7280.021365619638
 30
0.0
 40
0.2880000000000001
 50
314.9999999994882
 51
0.0
  0
ARC
  5
1C3B4
  8
1DIM
 10
17160.37145304187
 20
7280.021365619638
 30
0.0
 40
0.2880000000000001
 50
180.0
 51
225.0000000005118
  0
LINE
  5
1C3B5
  8
1DIM
 10
17160.08345304188
 20
7283.754072113676
 30
0.0
 11
17160.08345304188
 21
7280.021365619638
 31
0.0
  0
LINE
  5
1C3B6
  8
1DIM
 10
17157.70745304187
 20
7283.754072113676
 30
0.0
 11
17157.70745304187
 21
7280.021365619638
 31
0.0
  0
LINE
  5
1C3B7
  8
1DIM
 10
17156.01545304187
 20
7278.210072113676
 30
0.0
 11
17161.77545304188
 21
7278.210072113676
 31
0.0
  0
LINE
  5
1C3B8
  8
1DIM
 10
17160.33545304187
 20
7283.502072113675
 30
0.0
 11
17160.08345304188
 21
7283.754072113676
 31
0.0
  0
LINE
  5
1C3B9
  8
1DIM
 10
17160.08345304188
 20
7283.754072113676
 30
0.0
 11
17157.70745304187
 21
7283.754072113676
 31
0.0
  0
LINE
  5
1C3BA
  8
1DIM
 10
17157.70745304187
 20
7283.754072113676
 30
0.0
 11
17157.45545304188
 21
7283.502072113675
 31
0.0
  0
LINE
  5
1C3BB
  8
1DIM
 10
17160.33545304187
 20
7283.502072113675
 30
0.0
 11
17157.45545304188
 21
7283.502072113675
 31
0.0
  0
ARC
  5
1C3BC
  8
1DIM
 10
17158.89545304187
 20
7284.070072113675
 30
0.0
 40
6.724
 50
291.5029694363107
 51
295.3607669836161
  0
LINE
  5
1C3BD
  8
1DIM
 10
17160.33545304187
 20
7281.029365619639
 30
0.0
 11
17160.08345304188
 21
7280.021365619638
 31
0.0
  0
LINE
  5
1C3BE
  8
1DIM
 10
17157.45545304188
 20
7281.029365619639
 30
0.0
 11
17157.70745304187
 21
7280.021365619638
 31
0.0
  0
LINE
  5
1C3BF
  8
1DIM
 10
17157.45545304188
 20
7281.029365619639
 30
0.0
 11
17157.45545304188
 21
7283.502072113675
 31
0.0
  0
LINE
  5
1C3C0
  8
1DIM
 10
17160.33545304187
 20
7281.029365619639
 30
0.0
 11
17160.33545304187
 21
7283.502072113675
 31
0.0
  0
LINE
  5
1C3C1
  8
1DIM
 10
17156.01545304187
 20
7278.210072113675
 30
0.0
 11
17156.01545304187
 21
7277.994072113675
 31
0.0
  0
LINE
  5
1C3C4
  8
1DIM
 10
17160.08345304188
 20
7300.504917486986
 30
0.0
 11
17160.08345304188
 21
7296.772210992949
 31
0.0
  0
LINE
  5
1C3C5
  8
1DIM
 10
17157.70745304187
 20
7300.504917486986
 30
0.0
 11
17157.70745304187
 21
7296.772210992949
 31
0.0
  0
LINE
  5
1C3C6
  8
1DIM
 10
17157.68158480156
 20
7300.62421099295
 30
0.0
 11
17160.10932128219
 21
7300.62421099295
 31
0.0
  0
LINE
  5
1C3C7
  8
1DIM
 10
17160.16780628889
 20
7300.708564239968
 30
0.0
 11
17161.77545304188
 21
7302.31621099295
 31
0.0
  0
LINE
  5
1C3C8
  8
1DIM
 10
17157.62309979486
 20
7300.708564239968
 30
0.0
 11
17156.01545304187
 21
7302.31621099295
 31
0.0
  0
LINE
  5
1C3C9
  8
1DIM
 10
17161.77545304188
 20
7302.31621099295
 30
0.0
 11
17161.77545304188
 21
7302.532210992949
 31
0.0
  0
LINE
  5
1C3CA
  8
1DIM
 10
17156.01545304187
 20
7302.31621099295
 30
0.0
 11
17161.77545304188
 21
7302.31621099295
 31
0.0
  0
LINE
  5
1C3CB
  8
1DIM
 10
17161.77545304188
 20
7302.532210992949
 30
0.0
 11
17156.01545304187
 21
7302.532210992949
 31
0.0
  0
ARC
  5
1C3CC
  8
01
  6
CONTINUOUS
 10
17158.89545304187
 20
7296.456210992949
 30
0.0
 40
6.724
 50
68.49703056368935
 51
111.5029694363107
  0
ARC
  5
1C3CD
  8
1DIM
 10
17158.89545304187
 20
7296.456210992949
 30
0.0
 40
6.724
 50
111.5029694363107
 51
115.3607669836161
  0
ARC
  5
1C3CE
  8
1DIM
 10
17157.41945304188
 20
7300.504917486986
 30
0.0
 40
0.2880000000000001
 50
0.0
 51
45.00000000051177
  0
ARC
  5
1C3CF
  8
1DIM
 10
17160.37145304187
 20
7300.504917486986
 30
0.0
 40
0.2880000000000001
 50
134.9999999994882
 51
180.0
  0
LINE
  5
1C3D0
  8
1DIM
 10
17160.08345304188
 20
7296.772210992949
 30
0.0
 11
17160.08345304188
 21
7300.504917486986
 31
0.0
  0
LINE
  5
1C3D1
  8
1DIM
 10
17157.70745304187
 20
7296.772210992949
 30
0.0
 11
17157.70745304187
 21
7300.504917486986
 31
0.0
  0
LINE
  5
1C3D2
  8
1DIM
 10
17156.01545304187
 20
7302.316210992949
 30
0.0
 11
17161.77545304188
 21
7302.316210992949
 31
0.0
  0
LINE
  5
1C3D3
  8
1DIM
 10
17160.33545304187
 20
7297.02421099295
 30
0.0
 11
17160.08345304188
 21
7296.772210992949
 31
0.0
  0
LINE
  5
1C3D4
  8
1DIM
 10
17160.08345304188
 20
7296.772210992949
 30
0.0
 11
17157.70745304187
 21
7296.772210992949
 31
0.0
  0
LINE
  5
1C3D5
  8
1DIM
 10
17157.70745304187
 20
7296.772210992949
 30
0.0
 11
17157.45545304188
 21
7297.02421099295
 31
0.0
  0
LINE
  5
1C3D6
  8
1DIM
 10
17160.33545304187
 20
7297.02421099295
 30
0.0
 11
17157.45545304188
 21
7297.02421099295
 31
0.0
  0
ARC
  5
1C3D7
  8
1DIM
 10
17158.89545304187
 20
7296.456210992949
 30
0.0
 40
6.724
 50
64.63923301638394
 51
68.49703056368935
  0
LINE
  5
1C3D8
  8
1DIM
 10
17160.33545304187
 20
7299.496917486986
 30
0.0
 11
17160.08345304188
 21
7300.504917486986
 31
0.0
  0
LINE
  5
1C3D9
  8
1DIM
 10
17157.45545304188
 20
7299.496917486986
 30
0.0
 11
17157.70745304187
 21
7300.504917486986
 31
0.0
  0
LINE
  5
1C3DA
  8
1DIM
 10
17157.45545304188
 20
7299.496917486986
 30
0.0
 11
17157.45545304188
 21
7297.02421099295
 31
0.0
  0
LINE
  5
1C3DB
  8
1DIM
 10
17160.33545304187
 20
7299.496917486986
 30
0.0
 11
17160.33545304187
 21
7297.02421099295
 31
0.0
  0
LINE
  5
1C3DC
  8
1DIM
 10
17156.01545304187
 20
7302.31621099295
 30
0.0
 11
17156.01545304187
 21
7302.532210992949
 31
0.0
  0
LINE
  5
1C3DE
  8
1DIM
 10
17150.71524018908
 20
7299.762930941208
 30
0.0
 11
17150.71522245654
 21
7280.762930941208
 31
0.0
  0
LINE
  5
1C3DF
  8
01
 10
19475.19733115417
 20
7520.657473717498
 30
0.0
 11
19475.19733115417
 21
7485.65747126375
 31
0.0
  0
LINE
  5
1C3E0
  8
01
 10
19475.19733115417
 20
7532.657473717498
 30
0.0
 11
19475.19733115417
 21
7567.657476171242
 31
0.0
  0
LINE
  5
1C3E1
  8
01
 10
19020.19733115417
 20
7532.657473717498
 30
0.0
 11
19020.19733115417
 21
7567.657476171242
 31
0.0
  0
LINE
  5
1C3E2
  8
01
 10
19475.19256673971
 20
7485.657466058796
 30
0.0
 11
19544.69733115417
 21
7485.657466058796
 31
0.0
  0
LINE
  5
1C3E3
  8
01
 10
19045.19733115417
 20
7485.657466058796
 30
0.0
 11
19450.19733115417
 21
7485.657466058796
 31
0.0
  0
LINE
  5
1C3E4
  8
01
 10
18950.69733115417
 20
7485.657466058796
 30
0.0
 11
19020.20209556862
 21
7485.657466058796
 31
0.0
  0
LINE
  5
1C3E5
  8
01
 10
18950.69733115417
 20
7457.607466058804
 30
0.0
 11
18946.69733115417
 21
7457.607466058804
 31
0.0
  0
LINE
  5
1C3E6
  8
01
 10
18950.69733115417
 20
7486.707466058802
 30
0.0
 11
18946.69733115417
 21
7486.707466058802
 31
0.0
  0
LINE
  5
1C3E7
  8
01
 10
19544.69733115417
 20
7486.707466058802
 30
0.0
 11
19548.69733115417
 21
7486.707466058802
 31
0.0
  0
LINE
  5
1C3E8
  8
01
 10
19544.69733115417
 20
7457.607466058804
 30
0.0
 11
19548.69733115417
 21
7457.607466058804
 31
0.0
  0
LINE
  5
1C3E9
  8
01
 10
19544.69733115417
 20
7566.60748137619
 30
0.0
 11
19548.69733115417
 21
7566.60748137619
 31
0.0
  0
LINE
  5
1C3EA
  8
01
 10
18950.69733115417
 20
7566.60748137619
 30
0.0
 11
18946.69733115417
 21
7566.60748137619
 31
0.0
  0
LINE
  5
1C3EB
  8
01
 10
19020.20209556862
 20
7567.657481376196
 30
0.0
 11
18950.69733115417
 21
7567.657481376196
 31
0.0
  0
LINE
  5
1C3EC
  8
01
 10
19450.19733115417
 20
7567.657481376196
 30
0.0
 11
19045.19733115417
 21
7567.657481376196
 31
0.0
  0
LINE
  5
1C3ED
  8
01
 10
19544.69733115417
 20
7567.657481376196
 30
0.0
 11
19475.19256673971
 21
7567.657481376196
 31
0.0
  0
LINE
  5
1C3EE
  8
01
 10
19020.19733115417
 20
7520.657473717498
 30
0.0
 11
19020.19733115417
 21
7485.65747126375
 31
0.0
  0
LINE
  5
1C3EF
  8
01
 10
19466.07349800937
 20
7478.272589517392
 30
0.0
 11
19466.48209050433
 21
7478.507154390087
 31
0.0
  0
LINE
  5
1C3F0
  8
01
 10
19463.3223604876
 20
7539.708342827022
 30
0.0
 11
19463.32236998925
 21
7539.624223834979
 31
0.0
  0
LINE
  5
1C3F1
  8
01
 10
19463.32237014537
 20
7541.690790802963
 30
0.0
 11
19463.32236059441
 21
7541.60660460562
 31
0.0
  0
LINE
  5
1C3F2
  8
01
 10
19462.07230182074
 20
7541.606604607963
 30
0.0
 11
19462.07229231909
 21
7541.69072360001
 31
0.0
  0
LINE
  5
1C3F3
  8
01
 10
19462.07229221654
 20
7539.624162545215
 30
0.0
 11
19462.07230174832
 21
7539.708342828455
 31
0.0
  0
LINE
  5
1C3F4
  8
01
 10
19466.07349800937
 20
7575.0423579176
 30
0.0
 11
19466.48209050433
 21
7574.807793044905
 31
0.0
  0
LINE
  5
1C3F5
  8
01
 10
19029.32116429897
 20
7575.0423579176
 30
0.0
 11
19028.912571804
 21
7574.807793044905
 31
0.0
  0
LINE
  5
1C3F6
  8
1DIM
 10
18950.69733115417
 20
7459.157466058796
 30
0.0
 11
19544.69733115417
 21
7459.157466058898
 31
0.0
  0
LINE
  5
1C3F7
  8
01
 10
19029.43396618827
 20
7478.211112592262
 30
0.0
 11
19028.912571804
 21
7478.507154390087
 31
0.0
  0
LINE
  5
1C3F8
  8
01
 10
19450.19733115417
 20
7520.657473717498
 30
0.0
 11
19450.19733115417
 21
7485.65747126375
 31
0.0
  0
LINE
  5
1C3F9
  8
01
 10
19466.48209050433
 20
7478.507154390087
 30
0.0
 11
19467.0318288073
 21
7478.849561757341
 31
0.0
  0
LINE
  5
1C3FA
  8
01
 10
19467.0318288073
 20
7478.849561757341
 30
0.0
 11
19467.56979116572
 21
7479.210188306321
 31
0.0
  0
LINE
  5
1C3FB
  8
01
 10
19467.56979116572
 20
7479.210188306321
 30
0.0
 11
19468.53071362553
 21
7479.909500211617
 31
0.0
  0
LINE
  5
1C3FC
  8
01
 10
19468.53071362553
 20
7479.909500211617
 30
0.0
 11
19469.47284141942
 21
7480.633934014413
 31
0.0
  0
LINE
  5
1C3FD
  8
01
 10
19469.47284141942
 20
7480.633934014413
 30
0.0
 11
19470.395517951
 21
7481.382984835609
 31
0.0
  0
LINE
  5
1C3FE
  8
01
 10
19470.395517951
 20
7481.382984835609
 30
0.0
 11
19471.29810018001
 21
7482.156130639794
 31
0.0
  0
LINE
  5
1C3FF
  8
01
 10
19471.29810018001
 20
7482.156130639794
 30
0.0
 11
19475.19256673971
 21
7485.653036087968
 31
0.0
  0
LINE
  5
1C400
  8
01
 10
19450.19733115417
 20
7485.65747126375
 30
0.0
 11
19454.09656212832
 21
7482.156130639794
 31
0.0
  0
LINE
  5
1C401
  8
01
 10
19454.09656212832
 20
7482.156130639794
 30
0.0
 11
19454.99914435733
 21
7481.382984835609
 31
0.0
  0
LINE
  5
1C402
  8
01
 10
19454.99914435733
 20
7481.382984835609
 30
0.0
 11
19455.92182088891
 21
7480.633934014413
 31
0.0
  0
LINE
  5
1C403
  8
01
 10
19455.92182088891
 20
7480.633934014413
 30
0.0
 11
19456.86394868281
 21
7479.909500211617
 31
0.0
  0
LINE
  5
1C404
  8
01
 10
19456.86394868281
 20
7479.909500211617
 30
0.0
 11
19457.82487114262
 21
7479.210188306321
 31
0.0
  0
LINE
  5
1C405
  8
01
 10
19457.82487114262
 20
7479.210188306321
 30
0.0
 11
19458.08508530311
 21
7479.030016746923
 31
0.0
  0
LINE
  5
1C406
  8
01
 10
19458.08508530311
 20
7479.030016746923
 30
0.0
 11
19458.34914125125
 21
7478.855155379953
 31
0.0
  0
LINE
  5
1C407
  8
01
 10
19458.34914125125
 20
7478.855155379953
 30
0.0
 11
19458.61687526451
 21
7478.685725259073
 31
0.0
  0
LINE
  5
1C408
  8
01
 10
19458.61687526451
 20
7478.685725259073
 30
0.0
 11
19458.88811860556
 21
7478.521840655403
 31
0.0
  0
LINE
  5
1C409
  8
01
 10
19458.88811860556
 20
7478.521840655403
 30
0.0
 11
19459.1626978761
 21
7478.363608801514
 31
0.0
  0
LINE
  5
1C40A
  8
01
 10
19459.1626978761
 20
7478.363608801514
 30
0.0
 11
19459.44043538616
 21
7478.211129657719
 31
0.0
  0
LINE
  5
1C40B
  8
01
 10
19459.44043538616
 20
7478.211129657719
 30
0.0
 11
19459.72114953721
 21
7478.064495701763
 31
0.0
  0
LINE
  5
1C40C
  8
01
 10
19459.72114953721
 20
7478.064495701763
 30
0.0
 11
19460.00465521728
 21
7477.923791742802
 31
0.0
  0
LINE
  5
1C40D
  8
01
 10
19460.00465521728
 20
7477.923791742802
 30
0.0
 11
19460.16296780736
 21
7477.851573994272
 31
0.0
  0
LINE
  5
1C40E
  8
01
 10
19460.16296780736
 20
7477.851573994272
 30
0.0
 11
19460.32251688576
 21
7477.78235555846
 31
0.0
  0
LINE
  5
1C40F
  8
01
 10
19460.32251688576
 20
7477.78235555846
 30
0.0
 11
19460.48332262371
 21
7477.716365471575
 31
0.0
  0
LINE
  5
1C410
  8
01
 10
19460.48332262371
 20
7477.716365471575
 30
0.0
 11
19460.64540519247
 21
7477.653832769838
 31
0.0
  0
LINE
  5
1C411
  8
01
 10
19460.64540519247
 20
7477.653832769838
 30
0.0
 11
19460.80878476329
 21
7477.594986489463
 31
0.0
  0
LINE
  5
1C412
  8
01
 10
19460.80878476329
 20
7477.594986489463
 30
0.0
 11
19460.9734815074
 21
7477.540055666659
 31
0.0
  0
LINE
  5
1C413
  8
01
 10
19460.9734815074
 20
7477.540055666659
 30
0.0
 11
19461.13951559606
 21
7477.489269337644
 31
0.0
  0
LINE
  5
1C414
  8
01
 10
19461.13951559606
 20
7477.489269337644
 30
0.0
 11
19461.30690720051
 21
7477.442856538635
 31
0.0
  0
LINE
  5
1C415
  8
01
 10
19461.30690720051
 20
7477.442856538635
 30
0.0
 11
19461.47567649199
 21
7477.401046305842
 31
0.0
  0
LINE
  5
1C416
  8
01
 10
19461.47567649199
 20
7477.401046305842
 30
0.0
 11
19461.64584364176
 21
7477.364067675479
 31
0.0
  0
LINE
  5
1C417
  8
01
 10
19461.64584364176
 20
7477.364067675479
 30
0.0
 11
19461.81742882107
 21
7477.332149683765
 31
0.0
  0
LINE
  5
1C418
  8
01
 10
19461.81742882107
 20
7477.332149683765
 30
0.0
 11
19461.99045220115
 21
7477.305521366912
 31
0.0
  0
LINE
  5
1C419
  8
01
 10
19461.99045220115
 20
7477.305521366912
 30
0.0
 11
19462.16493395325
 21
7477.284411761133
 31
0.0
  0
LINE
  5
1C41A
  8
01
 10
19462.16493395325
 20
7477.284411761133
 30
0.0
 11
19462.34089424862
 21
7477.269049902645
 31
0.0
  0
LINE
  5
1C41B
  8
01
 10
19462.34089424862
 20
7477.269049902645
 30
0.0
 11
19462.51835325851
 21
7477.259664827661
 31
0.0
  0
LINE
  5
1C41C
  8
01
 10
19462.51835325851
 20
7477.259664827661
 30
0.0
 11
19462.60765108492
 21
7477.257285157802
 31
0.0
  0
LINE
  5
1C41D
  8
01
 10
19462.60765108492
 20
7477.257285157802
 30
0.0
 11
19462.69733115417
 21
7477.256485572396
 31
0.0
  0
LINE
  5
1C41E
  8
01
 10
19462.69733115417
 20
7477.256485572396
 30
0.0
 11
19462.78701122342
 21
7477.257285157802
 31
0.0
  0
LINE
  5
1C41F
  8
01
 10
19462.78701122342
 20
7477.257285157802
 30
0.0
 11
19462.87630904982
 21
7477.259664827661
 31
0.0
  0
LINE
  5
1C420
  8
01
 10
19462.87630904982
 20
7477.259664827661
 30
0.0
 11
19463.05376805971
 21
7477.269049902645
 31
0.0
  0
LINE
  5
1C421
  8
01
 10
19463.05376805971
 20
7477.269049902645
 30
0.0
 11
19463.22972835508
 21
7477.284411761133
 31
0.0
  0
LINE
  5
1C422
  8
01
 10
19463.22972835508
 20
7477.284411761133
 30
0.0
 11
19463.40421010719
 21
7477.305521366912
 31
0.0
  0
LINE
  5
1C423
  8
01
 10
19463.40421010719
 20
7477.305521366912
 30
0.0
 11
19463.57723348726
 21
7477.332149683765
 31
0.0
  0
LINE
  5
1C424
  8
01
 10
19463.57723348726
 20
7477.332149683765
 30
0.0
 11
19463.74881866657
 21
7477.364067675479
 31
0.0
  0
LINE
  5
1C425
  8
01
 10
19463.74881866657
 20
7477.364067675479
 30
0.0
 11
19463.91898581634
 21
7477.401046305842
 31
0.0
  0
LINE
  5
1C426
  8
01
 10
19463.91898581634
 20
7477.401046305842
 30
0.0
 11
19464.08775510783
 21
7477.442856538635
 31
0.0
  0
LINE
  5
1C427
  8
01
 10
19464.08775510783
 20
7477.442856538635
 30
0.0
 11
19464.25514671228
 21
7477.489269337644
 31
0.0
  0
LINE
  5
1C428
  8
01
 10
19464.25514671228
 20
7477.489269337644
 30
0.0
 11
19464.42118080094
 21
7477.540055666659
 31
0.0
  0
LINE
  5
1C429
  8
01
 10
19464.42118080094
 20
7477.540055666659
 30
0.0
 11
19464.58587754505
 21
7477.594986489463
 31
0.0
  0
LINE
  5
1C42A
  8
01
 10
19464.58587754505
 20
7477.594986489463
 30
0.0
 11
19464.74925711586
 21
7477.653832769838
 31
0.0
  0
LINE
  5
1C42B
  8
01
 10
19464.74925711586
 20
7477.653832769838
 30
0.0
 11
19464.91133968463
 21
7477.716365471575
 31
0.0
  0
LINE
  5
1C42C
  8
01
 10
19464.91133968463
 20
7477.716365471575
 30
0.0
 11
19465.07214542258
 21
7477.782355558456
 31
0.0
  0
LINE
  5
1C42D
  8
01
 10
19465.07214542258
 20
7477.782355558456
 30
0.0
 11
19465.23169450097
 21
7477.851573994272
 31
0.0
  0
LINE
  5
1C42E
  8
01
 10
19465.23169450097
 20
7477.851573994272
 30
0.0
 11
19465.39000709105
 21
7477.923791742798
 31
0.0
  0
LINE
  5
1C42F
  8
01
 10
19465.39000709105
 20
7477.923791742798
 30
0.0
 11
19465.73467546569
 21
7478.092462995553
 31
0.0
  0
LINE
  5
1C430
  8
01
 10
19465.73467546569
 20
7478.092462995553
 30
0.0
 11
19466.07349800937
 21
7478.272589517392
 31
0.0
  0
LINE
  5
1C431
  8
01
 10
19475.19733115417
 20
7520.657473717498
 30
0.0
 11
19450.19733115417
 21
7520.657473717498
 31
0.0
  0
ARC
  5
1C432
  8
01
 10
19462.69733115417
 20
7540.657473717494
 30
0.0
 40
3.800133805782863
 50
180.0
 51
270.0
  0
ARC
  5
1C433
  8
01
 10
19462.69733115417
 20
7540.657473717494
 30
0.0
 40
3.800133805782934
 50
270.0
 51
90.0
  0
ARC
  5
1C434
  8
01
 10
19462.69733115417
 20
7540.657473717494
 30
0.0
 40
3.800133805782707
 50
90.0
 51
180.0
  0
LINE
  5
1C435
  8
01
 10
19463.32236998925
 20
7539.624223834979
 30
0.0
 11
19463.32233115417
 21
7538.532473717494
 31
0.0
  0
LINE
  5
1C436
  8
01
 10
19463.32233115417
 20
7540.032473717494
 30
0.0
 11
19463.3223604876
 21
7539.708342827022
 31
0.0
  0
LINE
  5
1C437
  8
01
 10
19464.82233115417
 20
7540.032473717494
 30
0.0
 11
19463.32233115417
 21
7540.032473717494
 31
0.0
  0
LINE
  5
1C438
  8
01
 10
19464.82233115417
 20
7541.282473717494
 30
0.0
 11
19464.82233115417
 21
7540.032473717494
 31
0.0
  0
LINE
  5
1C439
  8
01
 10
19463.32233115417
 20
7541.282473717494
 30
0.0
 11
19464.82233115417
 21
7541.282473717494
 31
0.0
  0
LINE
  5
1C43A
  8
01
 10
19463.32236059441
 20
7541.60660460562
 30
0.0
 11
19463.32233115417
 21
7541.282473717494
 31
0.0
  0
LINE
  5
1C43B
  8
01
 10
19463.32233115417
 20
7542.782473717494
 30
0.0
 11
19463.32237014537
 21
7541.690790802963
 31
0.0
  0
LINE
  5
1C43C
  8
01
 10
19462.69733115417
 20
7542.782473717494
 30
0.0
 11
19463.32233115417
 21
7542.782473717494
 31
0.0
  0
LINE
  5
1C43D
  8
01
 10
19462.07233115417
 20
7542.782473717494
 30
0.0
 11
19462.69733115417
 21
7542.782473717494
 31
0.0
  0
LINE
  5
1C43E
  8
01
 10
19462.07229231909
 20
7541.69072360001
 30
0.0
 11
19462.07233115417
 21
7542.782473717494
 31
0.0
  0
LINE
  5
1C43F
  8
01
 10
19462.07233115417
 20
7541.282473717494
 30
0.0
 11
19462.07230182074
 21
7541.606604607963
 31
0.0
  0
LINE
  5
1C440
  8
01
 10
19460.57233115417
 20
7541.282473717494
 30
0.0
 11
19462.07233115417
 21
7541.282473717494
 31
0.0
  0
LINE
  5
1C441
  8
01
 10
19460.57233115417
 20
7540.032473717494
 30
0.0
 11
19460.57233115417
 21
7541.282473717494
 31
0.0
  0
LINE
  5
1C442
  8
01
 10
19462.07233115417
 20
7540.032473717494
 30
0.0
 11
19460.57233115417
 21
7540.032473717494
 31
0.0
  0
LINE
  5
1C443
  8
01
 10
19462.07230174832
 20
7539.708342828455
 30
0.0
 11
19462.07233115417
 21
7540.032473717494
 31
0.0
  0
LINE
  5
1C444
  8
01
 10
19462.07233115417
 20
7538.532473717494
 30
0.0
 11
19462.07229221654
 21
7539.624162545215
 31
0.0
  0
LINE
  5
1C445
  8
01
 10
19463.32233115417
 20
7538.532473717494
 30
0.0
 11
19462.07233115417
 21
7538.532473717494
 31
0.0
  0
ARC
  5
1C446
  8
01
 10
19462.69733115417
 20
7541.461733374834
 30
0.0
 40
3.354594793857159
 50
28.94821982263188
 51
151.0517801773681
  0
ARC
  5
1C447
  8
01
 10
19462.69733115095
 20
7539.85321405469
 30
0.0
 40
3.354594788395055
 50
208.9482197676079
 51
331.0517788249056
  0
LINE
  5
1C448
  8
01
 10
19450.19733115417
 20
7532.657473717498
 30
0.0
 11
19450.19733115417
 21
7567.657476171242
 31
0.0
  0
LINE
  5
1C449
  8
01
 10
19466.48209050433
 20
7574.807793044905
 30
0.0
 11
19467.0318288073
 21
7574.465385677651
 31
0.0
  0
LINE
  5
1C44A
  8
01
 10
19467.0318288073
 20
7574.465385677651
 30
0.0
 11
19467.56979116572
 21
7574.104759128672
 31
0.0
  0
LINE
  5
1C44B
  8
01
 10
19467.56979116572
 20
7574.104759128672
 30
0.0
 11
19468.53071362553
 21
7573.405447223375
 31
0.0
  0
LINE
  5
1C44C
  8
01
 10
19468.53071362553
 20
7573.405447223375
 30
0.0
 11
19469.47284141942
 21
7572.681013420579
 31
0.0
  0
LINE
  5
1C44D
  8
01
 10
19469.47284141942
 20
7572.681013420579
 30
0.0
 11
19470.395517951
 21
7571.931962599383
 31
0.0
  0
LINE
  5
1C44E
  8
01
 10
19470.395517951
 20
7571.931962599383
 30
0.0
 11
19471.29810018001
 21
7571.158816795198
 31
0.0
  0
LINE
  5
1C44F
  8
01
 10
19471.29810018001
 20
7571.158816795198
 30
0.0
 11
19475.19256673971
 21
7567.661911347024
 31
0.0
  0
LINE
  5
1C450
  8
01
 10
19450.19733115417
 20
7567.657476171242
 30
0.0
 11
19454.09656212832
 21
7571.158816795198
 31
0.0
  0
LINE
  5
1C451
  8
01
 10
19454.09656212832
 20
7571.158816795198
 30
0.0
 11
19454.99914435733
 21
7571.931962599383
 31
0.0
  0
LINE
  5
1C452
  8
01
 10
19454.99914435733
 20
7571.931962599383
 30
0.0
 11
19455.92182088891
 21
7572.681013420579
 31
0.0
  0
LINE
  5
1C453
  8
01
 10
19455.92182088891
 20
7572.681013420579
 30
0.0
 11
19456.86394868281
 21
7573.405447223375
 31
0.0
  0
LINE
  5
1C454
  8
01
 10
19456.86394868281
 20
7573.405447223375
 30
0.0
 11
19457.82487114262
 21
7574.104759128672
 31
0.0
  0
LINE
  5
1C455
  8
01
 10
19457.82487114262
 20
7574.104759128672
 30
0.0
 11
19458.0850851958
 21
7574.284930625503
 31
0.0
  0
LINE
  5
1C456
  8
01
 10
19458.0850851958
 20
7574.284930625503
 30
0.0
 11
19458.34914107891
 21
7574.459791956024
 31
0.0
  0
LINE
  5
1C457
  8
01
 10
19458.34914107891
 20
7574.459791956024
 30
0.0
 11
19458.61687506367
 21
7574.62922206248
 31
0.0
  0
LINE
  5
1C458
  8
01
 10
19458.61687506367
 20
7574.62922206248
 30
0.0
 11
19458.88811840694
 21
7574.793106669627
 31
0.0
  0
LINE
  5
1C459
  8
01
 10
19458.88811840694
 20
7574.793106669627
 30
0.0
 11
19459.16269770457
 21
7574.951338540761
 31
0.0
  0
LINE
  5
1C45A
  8
01
 10
19459.16269770457
 20
7574.951338540761
 30
0.0
 11
19459.44043526071
 21
7575.103817711408
 31
0.0
  0
LINE
  5
1C45B
  8
01
 10
19459.44043526071
 20
7575.103817711408
 30
0.0
 11
19459.7211494709
 21
7575.250451699654
 31
0.0
  0
LINE
  5
1C45C
  8
01
 10
19459.7211494709
 20
7575.250451699654
 30
0.0
 11
19460.00465521728
 21
7575.391155692194
 31
0.0
  0
LINE
  5
1C45D
  8
01
 10
19460.00465521728
 20
7575.391155692194
 30
0.0
 11
19460.16296780736
 21
7575.463373440723
 31
0.0
  0
LINE
  5
1C45E
  8
01
 10
19460.16296780736
 20
7575.463373440723
 30
0.0
 11
19460.32251688576
 21
7575.532591876536
 31
0.0
  0
LINE
  5
1C45F
  8
01
 10
19460.32251688576
 20
7575.532591876536
 30
0.0
 11
19460.48332262371
 21
7575.598581963417
 31
0.0
  0
LINE
  5
1C460
  8
01
 10
19460.48332262371
 20
7575.598581963417
 30
0.0
 11
19460.64540519247
 21
7575.661114665154
 31
0.0
  0
LINE
  5
1C461
  8
01
 10
19460.64540519247
 20
7575.661114665154
 30
0.0
 11
19460.80878476329
 21
7575.719960945529
 31
0.0
  0
LINE
  5
1C462
  8
01
 10
19460.80878476329
 20
7575.719960945529
 30
0.0
 11
19460.9734815074
 21
7575.774891768333
 31
0.0
  0
LINE
  5
1C463
  8
01
 10
19460.9734815074
 20
7575.774891768333
 30
0.0
 11
19461.13951559606
 21
7575.825678097348
 31
0.0
  0
LINE
  5
1C464
  8
01
 10
19461.13951559606
 20
7575.825678097348
 30
0.0
 11
19461.30690720051
 21
7575.872090896357
 31
0.0
  0
LINE
  5
1C465
  8
01
 10
19461.30690720051
 20
7575.872090896357
 30
0.0
 11
19461.47567649199
 21
7575.913901129154
 31
0.0
  0
LINE
  5
1C466
  8
01
 10
19461.47567649199
 20
7575.913901129154
 30
0.0
 11
19461.64584364176
 21
7575.950879759514
 31
0.0
  0
LINE
  5
1C467
  8
01
 10
19461.64584364176
 20
7575.950879759514
 30
0.0
 11
19461.81742882107
 21
7575.982797751227
 31
0.0
  0
LINE
  5
1C468
  8
01
 10
19461.81742882107
 20
7575.982797751227
 30
0.0
 11
19461.99045220115
 21
7576.009426068083
 31
0.0
  0
LINE
  5
1C469
  8
01
 10
19461.99045220115
 20
7576.009426068083
 30
0.0
 11
19462.16493395325
 21
7576.030535673859
 31
0.0
  0
LINE
  5
1C46A
  8
01
 10
19462.16493395325
 20
7576.030535673859
 30
0.0
 11
19462.34089424862
 21
7576.045897532347
 31
0.0
  0
LINE
  5
1C46B
  8
01
 10
19462.34089424862
 20
7576.045897532347
 30
0.0
 11
19462.51835325851
 21
7576.055282607331
 31
0.0
  0
LINE
  5
1C46C
  8
01
 10
19462.51835325851
 20
7576.055282607331
 30
0.0
 11
19462.60765108492
 21
7576.057662277193
 31
0.0
  0
LINE
  5
1C46D
  8
01
 10
19462.60765108492
 20
7576.057662277193
 30
0.0
 11
19462.69733115417
 21
7576.058461862596
 31
0.0
  0
LINE
  5
1C46E
  8
01
 10
19462.69733115417
 20
7576.058461862596
 30
0.0
 11
19462.78701122342
 21
7576.057662277193
 31
0.0
  0
LINE
  5
1C46F
  8
01
 10
19462.78701122342
 20
7576.057662277193
 30
0.0
 11
19462.87630904982
 21
7576.055282607331
 31
0.0
  0
LINE
  5
1C470
  8
01
 10
19462.87630904982
 20
7576.055282607331
 30
0.0
 11
19463.05376805971
 21
7576.045897532347
 31
0.0
  0
LINE
  5
1C471
  8
01
 10
19463.05376805971
 20
7576.045897532347
 30
0.0
 11
19463.22972835508
 21
7576.030535673859
 31
0.0
  0
LINE
  5
1C472
  8
01
 10
19463.22972835508
 20
7576.030535673859
 30
0.0
 11
19463.40421010719
 21
7576.009426068083
 31
0.0
  0
LINE
  5
1C473
  8
01
 10
19463.40421010719
 20
7576.009426068083
 30
0.0
 11
19463.57723348726
 21
7575.982797751227
 31
0.0
  0
LINE
  5
1C474
  8
01
 10
19463.57723348726
 20
7575.982797751227
 30
0.0
 11
19463.74881866657
 21
7575.950879759514
 31
0.0
  0
LINE
  5
1C475
  8
01
 10
19463.74881866657
 20
7575.950879759514
 30
0.0
 11
19463.91898581634
 21
7575.913901129154
 31
0.0
  0
LINE
  5
1C476
  8
01
 10
19463.91898581634
 20
7575.913901129154
 30
0.0
 11
19464.08775510783
 21
7575.872090896357
 31
0.0
  0
LINE
  5
1C477
  8
01
 10
19464.08775510783
 20
7575.872090896357
 30
0.0
 11
19464.25514671228
 21
7575.825678097348
 31
0.0
  0
LINE
  5
1C478
  8
01
 10
19464.25514671228
 20
7575.825678097348
 30
0.0
 11
19464.42118080094
 21
7575.774891768333
 31
0.0
  0
LINE
  5
1C479
  8
01
 10
19464.42118080094
 20
7575.774891768333
 30
0.0
 11
19464.58587754505
 21
7575.719960945529
 31
0.0
  0
LINE
  5
1C47A
  8
01
 10
19464.58587754505
 20
7575.719960945529
 30
0.0
 11
19464.74925711586
 21
7575.661114665154
 31
0.0
  0
LINE
  5
1C47B
  8
01
 10
19464.74925711586
 20
7575.661114665154
 30
0.0
 11
19464.91133968463
 21
7575.598581963417
 31
0.0
  0
LINE
  5
1C47C
  8
01
 10
19464.91133968463
 20
7575.598581963417
 30
0.0
 11
19465.07214542258
 21
7575.532591876536
 31
0.0
  0
LINE
  5
1C47D
  8
01
 10
19465.07214542258
 20
7575.532591876536
 30
0.0
 11
19465.23169450097
 21
7575.463373440723
 31
0.0
  0
LINE
  5
1C47E
  8
01
 10
19465.23169450097
 20
7575.463373440723
 30
0.0
 11
19465.39000709105
 21
7575.391155692194
 31
0.0
  0
LINE
  5
1C47F
  8
01
 10
19465.39000709105
 20
7575.391155692194
 30
0.0
 11
19465.73467546569
 21
7575.222484439439
 31
0.0
  0
LINE
  5
1C480
  8
01
 10
19465.73467546569
 20
7575.222484439439
 30
0.0
 11
19466.07349800937
 21
7575.0423579176
 31
0.0
  0
LINE
  5
1C481
  8
01
 10
19475.19733115417
 20
7532.657473717498
 30
0.0
 11
19450.19733115417
 21
7532.657473717498
 31
0.0
  0
ARC
  5
1C482
  8
01
 10
19032.69733115417
 20
7541.453583439159
 30
0.0
 40
3.362744729530697
 50
27.82460798403989
 51
152.1753920159601
  0
ARC
  5
1C483
  8
01
 10
19032.69733115519
 20
7539.861363994134
 30
0.0
 40
3.362744727838041
 50
207.8246081134675
 51
332.1753920334044
  0
LINE
  5
1C484
  8
01
 10
19045.19733115417
 20
7532.657473717498
 30
0.0
 11
19045.19733115417
 21
7567.657476171242
 31
0.0
  0
LINE
  5
1C485
  8
01
 10
19028.912571804
 20
7574.807793044905
 30
0.0
 11
19028.36283350103
 21
7574.465385677651
 31
0.0
  0
LINE
  5
1C486
  8
01
 10
19028.36283350103
 20
7574.465385677651
 30
0.0
 11
19027.82487114262
 21
7574.104759128672
 31
0.0
  0
LINE
  5
1C487
  8
01
 10
19027.82487114262
 20
7574.104759128672
 30
0.0
 11
19026.86394868281
 21
7573.405447223375
 31
0.0
  0
LINE
  5
1C488
  8
01
 10
19026.86394868281
 20
7573.405447223375
 30
0.0
 11
19025.92182088891
 21
7572.681013420579
 31
0.0
  0
LINE
  5
1C489
  8
01
 10
19025.92182088891
 20
7572.681013420579
 30
0.0
 11
19024.99914435733
 21
7571.931962599383
 31
0.0
  0
LINE
  5
1C48A
  8
01
 10
19024.99914435733
 20
7571.931962599383
 30
0.0
 11
19024.09656212832
 21
7571.158816795198
 31
0.0
  0
LINE
  5
1C48B
  8
01
 10
19024.09656212832
 20
7571.158816795198
 30
0.0
 11
19020.20209556862
 21
7567.661911347024
 31
0.0
  0
LINE
  5
1C48C
  8
01
 10
19045.19733115417
 20
7567.657476171242
 30
0.0
 11
19041.29810018001
 21
7571.158816795198
 31
0.0
  0
LINE
  5
1C48D
  8
01
 10
19041.29810018001
 20
7571.158816795198
 30
0.0
 11
19040.395517951
 21
7571.931962599383
 31
0.0
  0
LINE
  5
1C48E
  8
01
 10
19040.395517951
 20
7571.931962599383
 30
0.0
 11
19039.47284141942
 21
7572.681013420579
 31
0.0
  0
LINE
  5
1C48F
  8
01
 10
19039.47284141942
 20
7572.681013420579
 30
0.0
 11
19038.53071362553
 21
7573.405447223375
 31
0.0
  0
LINE
  5
1C490
  8
01
 10
19038.53071362553
 20
7573.405447223375
 30
0.0
 11
19037.56979116572
 21
7574.104759128672
 31
0.0
  0
LINE
  5
1C491
  8
01
 10
19037.56979116572
 20
7574.104759128672
 30
0.0
 11
19037.30957711253
 21
7574.284930625503
 31
0.0
  0
LINE
  5
1C492
  8
01
 10
19037.30957711253
 20
7574.284930625503
 30
0.0
 11
19037.04552122943
 21
7574.459791956024
 31
0.0
  0
LINE
  5
1C493
  8
01
 10
19037.04552122943
 20
7574.459791956024
 30
0.0
 11
19036.77778724466
 21
7574.62922206248
 31
0.0
  0
LINE
  5
1C494
  8
01
 10
19036.77778724466
 20
7574.62922206248
 30
0.0
 11
19036.50654390139
 21
7574.793106669627
 31
0.0
  0
LINE
  5
1C495
  8
01
 10
19036.50654390139
 20
7574.793106669627
 30
0.0
 11
19036.23196460376
 21
7574.951338540761
 31
0.0
  0
LINE
  5
1C496
  8
01
 10
19036.23196460376
 20
7574.951338540761
 30
0.0
 11
19035.95422704763
 21
7575.103817711408
 31
0.0
  0
LINE
  5
1C497
  8
01
 10
19035.95422704763
 20
7575.103817711408
 30
0.0
 11
19035.67351283743
 21
7575.250451699654
 31
0.0
  0
LINE
  5
1C498
  8
01
 10
19035.67351283743
 20
7575.250451699654
 30
0.0
 11
19035.39000709105
 21
7575.391155692194
 31
0.0
  0
LINE
  5
1C499
  8
01
 10
19035.39000709105
 20
7575.391155692194
 30
0.0
 11
19035.23169450097
 21
7575.463373440723
 31
0.0
  0
LINE
  5
1C49A
  8
01
 10
19035.23169450097
 20
7575.463373440723
 30
0.0
 11
19035.07214542258
 21
7575.532591876536
 31
0.0
  0
LINE
  5
1C49B
  8
01
 10
19035.07214542258
 20
7575.532591876536
 30
0.0
 11
19034.91133968462
 21
7575.598581963417
 31
0.0
  0
LINE
  5
1C49C
  8
01
 10
19034.91133968462
 20
7575.598581963417
 30
0.0
 11
19034.74925711586
 21
7575.661114665154
 31
0.0
  0
LINE
  5
1C49D
  8
01
 10
19034.74925711586
 20
7575.661114665154
 30
0.0
 11
19034.58587754505
 21
7575.719960945529
 31
0.0
  0
LINE
  5
1C49E
  8
01
 10
19034.58587754505
 20
7575.719960945529
 30
0.0
 11
19034.42118080093
 21
7575.774891768333
 31
0.0
  0
LINE
  5
1C49F
  8
01
 10
19034.42118080093
 20
7575.774891768333
 30
0.0
 11
19034.25514671228
 21
7575.825678097348
 31
0.0
  0
LINE
  5
1C4A0
  8
01
 10
19034.25514671228
 20
7575.825678097348
 30
0.0
 11
19034.08775510783
 21
7575.872090896357
 31
0.0
  0
LINE
  5
1C4A1
  8
01
 10
19034.08775510783
 20
7575.872090896357
 30
0.0
 11
19033.91898581634
 21
7575.913901129154
 31
0.0
  0
LINE
  5
1C4A2
  8
01
 10
19033.91898581634
 20
7575.913901129154
 30
0.0
 11
19033.74881866657
 21
7575.950879759514
 31
0.0
  0
LINE
  5
1C4A3
  8
01
 10
19033.74881866657
 20
7575.950879759514
 30
0.0
 11
19033.57723348727
 21
7575.982797751227
 31
0.0
  0
LINE
  5
1C4A4
  8
01
 10
19033.57723348727
 20
7575.982797751227
 30
0.0
 11
19033.40421010719
 21
7576.009426068083
 31
0.0
  0
LINE
  5
1C4A5
  8
01
 10
19033.40421010719
 20
7576.009426068083
 30
0.0
 11
19033.22972835508
 21
7576.030535673859
 31
0.0
  0
LINE
  5
1C4A6
  8
01
 10
19033.22972835508
 20
7576.030535673859
 30
0.0
 11
19033.05376805971
 21
7576.045897532347
 31
0.0
  0
LINE
  5
1C4A7
  8
01
 10
19033.05376805971
 20
7576.045897532347
 30
0.0
 11
19032.87630904982
 21
7576.055282607331
 31
0.0
  0
LINE
  5
1C4A8
  8
01
 10
19032.87630904982
 20
7576.055282607331
 30
0.0
 11
19032.78701122342
 21
7576.057662277193
 31
0.0
  0
LINE
  5
1C4A9
  8
01
 10
19032.78701122342
 20
7576.057662277193
 30
0.0
 11
19032.69733115417
 21
7576.058461862596
 31
0.0
  0
LINE
  5
1C4AA
  8
01
 10
19032.69733115417
 20
7576.058461862596
 30
0.0
 11
19032.60765108492
 21
7576.057662277193
 31
0.0
  0
LINE
  5
1C4AB
  8
01
 10
19032.60765108492
 20
7576.057662277193
 30
0.0
 11
19032.51835325851
 21
7576.055282607331
 31
0.0
  0
LINE
  5
1C4AC
  8
01
 10
19032.51835325851
 20
7576.055282607331
 30
0.0
 11
19032.34089424862
 21
7576.045897532347
 31
0.0
  0
LINE
  5
1C4AD
  8
01
 10
19032.34089424862
 20
7576.045897532347
 30
0.0
 11
19032.16493395325
 21
7576.030535673859
 31
0.0
  0
LINE
  5
1C4AE
  8
01
 10
19032.16493395325
 20
7576.030535673859
 30
0.0
 11
19031.99045220115
 21
7576.009426068083
 31
0.0
  0
LINE
  5
1C4AF
  8
01
 10
19031.99045220115
 20
7576.009426068083
 30
0.0
 11
19031.81742882107
 21
7575.982797751227
 31
0.0
  0
LINE
  5
1C4B0
  8
01
 10
19031.81742882107
 20
7575.982797751227
 30
0.0
 11
19031.64584364176
 21
7575.950879759514
 31
0.0
  0
LINE
  5
1C4B1
  8
01
 10
19031.64584364176
 20
7575.950879759514
 30
0.0
 11
19031.47567649199
 21
7575.913901129154
 31
0.0
  0
LINE
  5
1C4B2
  8
01
 10
19031.47567649199
 20
7575.913901129154
 30
0.0
 11
19031.30690720051
 21
7575.872090896357
 31
0.0
  0
LINE
  5
1C4B3
  8
01
 10
19031.30690720051
 20
7575.872090896357
 30
0.0
 11
19031.13951559606
 21
7575.825678097348
 31
0.0
  0
LINE
  5
1C4B4
  8
01
 10
19031.13951559606
 20
7575.825678097348
 30
0.0
 11
19030.9734815074
 21
7575.774891768333
 31
0.0
  0
LINE
  5
1C4B5
  8
01
 10
19030.9734815074
 20
7575.774891768333
 30
0.0
 11
19030.80878476329
 21
7575.719960945529
 31
0.0
  0
LINE
  5
1C4B6
  8
01
 10
19030.80878476329
 20
7575.719960945529
 30
0.0
 11
19030.64540519247
 21
7575.661114665154
 31
0.0
  0
LINE
  5
1C4B7
  8
01
 10
19030.64540519247
 20
7575.661114665154
 30
0.0
 11
19030.48332262371
 21
7575.598581963417
 31
0.0
  0
LINE
  5
1C4B8
  8
01
 10
19030.48332262371
 20
7575.598581963417
 30
0.0
 11
19030.32251688575
 21
7575.532591876536
 31
0.0
  0
LINE
  5
1C4B9
  8
01
 10
19030.32251688575
 20
7575.532591876536
 30
0.0
 11
19030.16296780736
 21
7575.463373440723
 31
0.0
  0
LINE
  5
1C4BA
  8
01
 10
19030.16296780736
 20
7575.463373440723
 30
0.0
 11
19030.00465521728
 21
7575.391155692194
 31
0.0
  0
LINE
  5
1C4BB
  8
01
 10
19030.00465521728
 20
7575.391155692194
 30
0.0
 11
19029.65998684265
 21
7575.222484439439
 31
0.0
  0
LINE
  5
1C4BC
  8
01
 10
19029.65998684265
 20
7575.222484439439
 30
0.0
 11
19029.32116429897
 21
7575.0423579176
 31
0.0
  0
LINE
  5
1C4BD
  8
01
 10
19020.19733115417
 20
7532.657473717498
 30
0.0
 11
19045.19733115417
 21
7532.657473717498
 31
0.0
  0
ARC
  5
1C4BE
  8
01
 10
19032.69733115417
 20
7540.657473717494
 30
0.0
 40
3.800133805783048
 50
270.0
 51
0.0
  0
ARC
  5
1C4BF
  8
01
 10
19032.69733115417
 20
7540.657473717494
 30
0.0
 40
3.800133805782934
 50
90.0
 51
270.0
  0
ARC
  5
1C4C0
  8
01
 10
19032.69733115417
 20
7540.657473717494
 30
0.0
 40
3.800133805782707
 50
0.0
 51
90.0
  0
LINE
  5
1C4C1
  8
01
 10
19032.07233115417
 20
7540.032473717494
 30
0.0
 11
19032.07233115417
 21
7538.532473717494
 31
0.0
  0
LINE
  5
1C4C2
  8
01
 10
19030.57233115417
 20
7540.032473717494
 30
0.0
 11
19032.07233115417
 21
7540.032473717494
 31
0.0
  0
LINE
  5
1C4C3
  8
01
 10
19030.57233115417
 20
7541.282473717494
 30
0.0
 11
19030.57233115417
 21
7540.032473717494
 31
0.0
  0
LINE
  5
1C4C4
  8
01
 10
19032.07233115417
 20
7541.282473717494
 30
0.0
 11
19030.57233115417
 21
7541.282473717494
 31
0.0
  0
LINE
  5
1C4C5
  8
01
 10
19032.07233115417
 20
7542.782473717494
 30
0.0
 11
19032.07233115417
 21
7541.282473717494
 31
0.0
  0
LINE
  5
1C4C6
  8
01
 10
19032.69733115417
 20
7542.782473717494
 30
0.0
 11
19032.07233115417
 21
7542.782473717494
 31
0.0
  0
LINE
  5
1C4C7
  8
01
 10
19033.32233115417
 20
7542.782473717494
 30
0.0
 11
19032.69733115417
 21
7542.782473717494
 31
0.0
  0
LINE
  5
1C4C8
  8
01
 10
19033.32233115417
 20
7541.282473717494
 30
0.0
 11
19033.32233115417
 21
7542.782473717494
 31
0.0
  0
LINE
  5
1C4C9
  8
01
 10
19034.82233115417
 20
7541.282473717494
 30
0.0
 11
19033.32233115417
 21
7541.282473717494
 31
0.0
  0
LINE
  5
1C4CA
  8
01
 10
19034.82233115417
 20
7540.032473717494
 30
0.0
 11
19034.82233115417
 21
7541.282473717494
 31
0.0
  0
LINE
  5
1C4CB
  8
01
 10
19033.32233115417
 20
7540.032473717494
 30
0.0
 11
19034.82233115417
 21
7540.032473717494
 31
0.0
  0
LINE
  5
1C4CC
  8
01
 10
19033.32233115417
 20
7538.532473717494
 30
0.0
 11
19033.32233115417
 21
7540.032473717494
 31
0.0
  0
LINE
  5
1C4CD
  8
01
 10
19032.07233115417
 20
7538.532473717494
 30
0.0
 11
19033.32233115417
 21
7538.532473717494
 31
0.0
  0
LINE
  5
1C4CE
  8
01
 10
18950.69733115417
 20
7450.791280360159
 30
0.0
 11
19544.69733115417
 21
7450.791280360265
 31
0.0
  0
LINE
  5
1C4CF
  8
01
 10
18950.69733115417
 20
7486.707466058802
 30
0.0
 11
18950.69733115417
 21
7457.607466058804
 31
0.0
  0
LINE
  5
1C4D0
  8
01
 10
18946.69733115417
 20
7486.707466058802
 30
0.0
 11
18946.69733115417
 21
7472.157466058803
 31
0.0
  0
LINE
  5
1C4D1
  8
01
 10
18946.69733115417
 20
7472.157466058803
 30
0.0
 11
18946.69733115417
 21
7457.607466058804
 31
0.0
  0
LINE
  5
1C4D2
  8
01
 10
19548.69733115417
 20
7486.707466058802
 30
0.0
 11
19548.69733115417
 21
7472.157466058803
 31
0.0
  0
LINE
  5
1C4D3
  8
01
 10
19548.69733115417
 20
7472.157466058803
 30
0.0
 11
19548.69733115417
 21
7457.607466058804
 31
0.0
  0
LINE
  5
1C4D4
  8
01
 10
19544.69733115417
 20
7486.707466058802
 30
0.0
 11
19544.69733115417
 21
7472.157466058803
 31
0.0
  0
LINE
  5
1C4D5
  8
01
 10
19544.69733115417
 20
7472.157466058803
 30
0.0
 11
19544.69733115417
 21
7457.607466058804
 31
0.0
  0
LINE
  5
1C4D6
  8
01
 10
19548.69733115417
 20
7566.60748137619
 30
0.0
 11
19548.69733115417
 21
7581.157481376189
 31
0.0
  0
LINE
  5
1C4D7
  8
01
 10
19548.69733115417
 20
7581.157481376189
 30
0.0
 11
19548.69733115417
 21
7595.707481376188
 31
0.0
  0
LINE
  5
1C4D8
  8
01
 10
19544.69733115417
 20
7566.60748137619
 30
0.0
 11
19544.69733115417
 21
7581.157481376189
 31
0.0
  0
LINE
  5
1C4D9
  8
01
 10
19544.69733115417
 20
7581.157481376189
 30
0.0
 11
19544.69733115417
 21
7595.670820580783
 31
0.0
  0
LINE
  5
1C4DA
  8
01
 10
18950.69733115417
 20
7566.60748137619
 30
0.0
 11
18950.69733115417
 21
7581.157481376189
 31
0.0
  0
LINE
  5
1C4DB
  8
01
 10
18950.69733115417
 20
7581.157481376189
 30
0.0
 11
18950.69733115417
 21
7595.670820580783
 31
0.0
  0
LINE
  5
1C4DC
  8
01
 10
18946.69733115417
 20
7566.60748137619
 30
0.0
 11
18946.69733115417
 21
7581.157481376189
 31
0.0
  0
LINE
  5
1C4DD
  8
01
 10
18946.69733115417
 20
7581.157481376189
 30
0.0
 11
18946.69733115417
 21
7595.707481376188
 31
0.0
  0
LINE
  5
1C4DE
  8
01
 10
19045.19733115417
 20
7520.657473717498
 30
0.0
 11
19045.19733115417
 21
7485.65747126375
 31
0.0
  0
LINE
  5
1C4DF
  8
01
 10
19028.912571804
 20
7478.507154390087
 30
0.0
 11
19028.36283350103
 21
7478.849561757341
 31
0.0
  0
LINE
  5
1C4E0
  8
01
 10
19028.36283350103
 20
7478.849561757341
 30
0.0
 11
19027.82487114262
 21
7479.210188306321
 31
0.0
  0
LINE
  5
1C4E1
  8
01
 10
19027.82487114262
 20
7479.210188306321
 30
0.0
 11
19026.86394868281
 21
7479.909500211617
 31
0.0
  0
LINE
  5
1C4E2
  8
01
 10
19026.86394868281
 20
7479.909500211617
 30
0.0
 11
19025.92182088891
 21
7480.633934014413
 31
0.0
  0
LINE
  5
1C4E3
  8
01
 10
19025.92182088891
 20
7480.633934014413
 30
0.0
 11
19024.99914435733
 21
7481.382984835609
 31
0.0
  0
LINE
  5
1C4E4
  8
01
 10
19024.99914435733
 20
7481.382984835609
 30
0.0
 11
19024.09656212832
 21
7482.156130639794
 31
0.0
  0
LINE
  5
1C4E5
  8
01
 10
19024.09656212832
 20
7482.156130639794
 30
0.0
 11
19020.20209556862
 21
7485.653036087968
 31
0.0
  0
LINE
  5
1C4E6
  8
01
 10
19045.19733115417
 20
7485.65747126375
 30
0.0
 11
19041.29810018001
 21
7482.156130639794
 31
0.0
  0
LINE
  5
1C4E7
  8
01
 10
19041.29810018001
 20
7482.156130639794
 30
0.0
 11
19040.395517951
 21
7481.382984835609
 31
0.0
  0
LINE
  5
1C4E8
  8
01
 10
19040.395517951
 20
7481.382984835609
 30
0.0
 11
19039.47284141942
 21
7480.633934014413
 31
0.0
  0
LINE
  5
1C4E9
  8
01
 10
19039.47284141942
 20
7480.633934014413
 30
0.0
 11
19038.53071362553
 21
7479.909500211617
 31
0.0
  0
LINE
  5
1C4EA
  8
01
 10
19038.53071362553
 20
7479.909500211617
 30
0.0
 11
19037.56979116572
 21
7479.210188306321
 31
0.0
  0
LINE
  5
1C4EB
  8
01
 10
19037.56979116572
 20
7479.210188306321
 30
0.0
 11
19037.30957711253
 21
7479.030016809489
 31
0.0
  0
LINE
  5
1C4EC
  8
01
 10
19037.30957711253
 20
7479.030016809489
 30
0.0
 11
19037.04552122943
 21
7478.855155478968
 31
0.0
  0
LINE
  5
1C4ED
  8
01
 10
19037.04552122943
 20
7478.855155478968
 30
0.0
 11
19036.77778724466
 21
7478.685725372512
 31
0.0
  0
LINE
  5
1C4EE
  8
01
 10
19036.77778724466
 20
7478.685725372512
 30
0.0
 11
19036.50654390139
 21
7478.521840765365
 31
0.0
  0
LINE
  5
1C4EF
  8
01
 10
19036.50654390139
 20
7478.521840765365
 30
0.0
 11
19036.23196460376
 21
7478.363608894231
 31
0.0
  0
LINE
  5
1C4F0
  8
01
 10
19036.23196460376
 20
7478.363608894231
 30
0.0
 11
19035.95422704763
 21
7478.211129723588
 31
0.0
  0
LINE
  5
1C4F1
  8
01
 10
19035.95422704763
 20
7478.211129723588
 30
0.0
 11
19035.67351283743
 21
7478.064495735338
 31
0.0
  0
LINE
  5
1C4F2
  8
01
 10
19035.67351283743
 20
7478.064495735338
 30
0.0
 11
19035.39000709105
 21
7477.923791742802
 31
0.0
  0
LINE
  5
1C4F3
  8
01
 10
19035.39000709105
 20
7477.923791742802
 30
0.0
 11
19035.23169450097
 21
7477.851573994272
 31
0.0
  0
LINE
  5
1C4F4
  8
01
 10
19035.23169450097
 20
7477.851573994272
 30
0.0
 11
19035.07214542258
 21
7477.78235555846
 31
0.0
  0
LINE
  5
1C4F5
  8
01
 10
19035.07214542258
 20
7477.78235555846
 30
0.0
 11
19034.91133968462
 21
7477.716365471575
 31
0.0
  0
LINE
  5
1C4F6
  8
01
 10
19034.91133968462
 20
7477.716365471575
 30
0.0
 11
19034.74925711586
 21
7477.653832769838
 31
0.0
  0
LINE
  5
1C4F7
  8
01
 10
19034.74925711586
 20
7477.653832769838
 30
0.0
 11
19034.58587754505
 21
7477.594986489463
 31
0.0
  0
LINE
  5
1C4F8
  8
01
 10
19034.58587754505
 20
7477.594986489463
 30
0.0
 11
19034.42118080093
 21
7477.540055666659
 31
0.0
  0
LINE
  5
1C4F9
  8
01
 10
19034.42118080093
 20
7477.540055666659
 30
0.0
 11
19034.25514671228
 21
7477.489269337644
 31
0.0
  0
LINE
  5
1C4FA
  8
01
 10
19034.25514671228
 20
7477.489269337644
 30
0.0
 11
19034.08775510783
 21
7477.442856538635
 31
0.0
  0
LINE
  5
1C4FB
  8
01
 10
19034.08775510783
 20
7477.442856538635
 30
0.0
 11
19033.91898581634
 21
7477.401046305842
 31
0.0
  0
LINE
  5
1C4FC
  8
01
 10
19033.91898581634
 20
7477.401046305842
 30
0.0
 11
19033.74881866657
 21
7477.364067675479
 31
0.0
  0
LINE
  5
1C4FD
  8
01
 10
19033.74881866657
 20
7477.364067675479
 30
0.0
 11
19033.57723348727
 21
7477.332149683765
 31
0.0
  0
LINE
  5
1C4FE
  8
01
 10
19033.57723348727
 20
7477.332149683765
 30
0.0
 11
19033.40421010719
 21
7477.305521366912
 31
0.0
  0
LINE
  5
1C4FF
  8
01
 10
19033.40421010719
 20
7477.305521366912
 30
0.0
 11
19033.22972835508
 21
7477.284411761133
 31
0.0
  0
LINE
  5
1C500
  8
01
 10
19033.22972835508
 20
7477.284411761133
 30
0.0
 11
19033.05376805971
 21
7477.269049902645
 31
0.0
  0
LINE
  5
1C501
  8
01
 10
19033.05376805971
 20
7477.269049902645
 30
0.0
 11
19032.87630904982
 21
7477.259664827661
 31
0.0
  0
LINE
  5
1C502
  8
01
 10
19032.87630904982
 20
7477.259664827661
 30
0.0
 11
19032.78701122342
 21
7477.257285157802
 31
0.0
  0
LINE
  5
1C503
  8
01
 10
19032.78701122342
 20
7477.257285157802
 30
0.0
 11
19032.69733115417
 21
7477.256485572396
 31
0.0
  0
LINE
  5
1C504
  8
01
 10
19032.69733115417
 20
7477.256485572396
 30
0.0
 11
19032.60765108492
 21
7477.257285157802
 31
0.0
  0
LINE
  5
1C505
  8
01
 10
19032.60765108492
 20
7477.257285157802
 30
0.0
 11
19032.51835325851
 21
7477.259664827661
 31
0.0
  0
LINE
  5
1C506
  8
01
 10
19032.51835325851
 20
7477.259664827661
 30
0.0
 11
19032.34089424862
 21
7477.269049902645
 31
0.0
  0
LINE
  5
1C507
  8
01
 10
19032.34089424862
 20
7477.269049902645
 30
0.0
 11
19032.16493395325
 21
7477.284411761133
 31
0.0
  0
LINE
  5
1C508
  8
01
 10
19032.16493395325
 20
7477.284411761133
 30
0.0
 11
19031.99045220115
 21
7477.305521366912
 31
0.0
  0
LINE
  5
1C509
  8
01
 10
19031.99045220115
 20
7477.305521366912
 30
0.0
 11
19031.81742882107
 21
7477.332149683765
 31
0.0
  0
LINE
  5
1C50A
  8
01
 10
19031.81742882107
 20
7477.332149683765
 30
0.0
 11
19031.64584364176
 21
7477.364067675479
 31
0.0
  0
LINE
  5
1C50B
  8
01
 10
19031.64584364176
 20
7477.364067675479
 30
0.0
 11
19031.47567649199
 21
7477.401046305842
 31
0.0
  0
LINE
  5
1C50C
  8
01
 10
19031.47567649199
 20
7477.401046305842
 30
0.0
 11
19031.30690720051
 21
7477.442856538635
 31
0.0
  0
LINE
  5
1C50D
  8
01
 10
19031.30690720051
 20
7477.442856538635
 30
0.0
 11
19031.13951559606
 21
7477.489269337644
 31
0.0
  0
LINE
  5
1C50E
  8
01
 10
19031.13951559606
 20
7477.489269337644
 30
0.0
 11
19030.9734815074
 21
7477.540055666659
 31
0.0
  0
LINE
  5
1C50F
  8
01
 10
19030.9734815074
 20
7477.540055666659
 30
0.0
 11
19030.80878476329
 21
7477.594986489463
 31
0.0
  0
LINE
  5
1C510
  8
01
 10
19030.80878476329
 20
7477.594986489463
 30
0.0
 11
19030.64540519247
 21
7477.653832769838
 31
0.0
  0
LINE
  5
1C511
  8
01
 10
19030.64540519247
 20
7477.653832769838
 30
0.0
 11
19030.48332262371
 21
7477.716365471575
 31
0.0
  0
LINE
  5
1C512
  8
01
 10
19030.48332262371
 20
7477.716365471575
 30
0.0
 11
19030.32251688575
 21
7477.782355558456
 31
0.0
  0
LINE
  5
1C513
  8
01
 10
19030.32251688575
 20
7477.782355558456
 30
0.0
 11
19030.16296780736
 21
7477.851573994272
 31
0.0
  0
LINE
  5
1C514
  8
01
 10
19030.16296780736
 20
7477.851573994272
 30
0.0
 11
19030.00465521728
 21
7477.923791742798
 31
0.0
  0
LINE
  5
1C515
  8
01
 10
19030.00465521728
 20
7477.923791742798
 30
0.0
 11
19029.71726340569
 21
7478.063385738011
 31
0.0
  0
LINE
  5
1C516
  8
01
 10
19029.71726340569
 20
7478.063385738011
 30
0.0
 11
19029.43396618827
 21
7478.211112592262
 31
0.0
  0
LINE
  5
1C517
  8
01
 10
19020.19733115417
 20
7520.657473717498
 30
0.0
 11
19045.19733115417
 21
7520.657473717498
 31
0.0
  0
LINE
  5
1C518
  8
01
 10
19025.69733115417
 20
7532.657473717498
 30
0.0
 11
19025.69733115417
 21
7520.657473717498
 31
0.0
  0
LINE
  5
1C519
  8
01
 10
19039.69733115417
 20
7532.657473717498
 30
0.0
 11
19039.69733115417
 21
7520.657473717498
 31
0.0
  0
LINE
  5
1C51A
  8
01
 10
19469.69733115417
 20
7532.657473717498
 30
0.0
 11
19469.69733115417
 21
7520.657473717498
 31
0.0
  0
LINE
  5
1C51B
  8
01
 10
19455.69733115417
 20
7532.657473717498
 30
0.0
 11
19455.69733115417
 21
7520.657473717498
 31
0.0
  0
LINE
  5
1C51C
  8
1DIM
 10
19020.19733115417
 20
7520.657473717498
 30
0.0
 11
18944.19898938053
 21
7520.657473717498
 31
0.0
  0
LINE
  5
1C51D
  8
1DIM
 10
19020.19733115417
 20
7532.657473717498
 30
0.0
 11
18944.19898938053
 21
7532.657473717498
 31
0.0
  0
LINE
  5
1C51E
  8
1DIM
 10
19450.19733115417
 20
7520.657473717498
 30
0.0
 11
19045.19733115417
 21
7520.657473717498
 31
0.0
  0
LINE
  5
1C51F
  8
1DIM
 10
19450.19733115417
 20
7532.657473717498
 30
0.0
 11
19045.19733115417
 21
7532.657473717498
 31
0.0
  0
LINE
  5
1C520
  8
1DIM
 10
19475.19733115417
 20
7520.657473717498
 30
0.0
 11
19551.1956729278
 21
7520.657473717498
 31
0.0
  0
LINE
  5
1C521
  8
1DIM
 10
19475.19733115417
 20
7532.657473717498
 30
0.0
 11
19551.1956729278
 21
7532.657473717498
 31
0.0
  0
LINE
  5
1C522
  8
01
 10
18950.69733115417
 20
7457.607466058804
 30
0.0
 11
18950.69733115417
 21
7450.791280360265
 31
0.0
  0
LINE
  5
1C523
  8
01
 10
19544.69733115417
 20
7457.607466058804
 30
0.0
 11
19544.69733115417
 21
7450.791280360265
 31
0.0
  0
LINE
  5
1C524
  8
01
 10
18951.19733115417
 20
7454.291280360159
 30
0.0
 11
18954.19733115417
 21
7454.291280360159
 31
0.0
  0
LINE
  5
1C525
  8
01
 10
18954.7479961863
 20
7454.291280360159
 30
0.0
 11
18957.7479961863
 21
7454.291280360159
 31
0.0
  0
LINE
  5
1C526
  8
01
 10
18958.29866121844
 20
7454.291280360159
 30
0.0
 11
18961.29866121844
 21
7454.291280360159
 31
0.0
  0
LINE
  5
1C527
  8
01
 10
18961.84932625057
 20
7454.291280360159
 30
0.0
 11
18964.84932625057
 21
7454.291280360159
 31
0.0
  0
LINE
  5
1C528
  8
01
 10
18965.39999128271
 20
7454.291280360159
 30
0.0
 11
18968.39999128271
 21
7454.291280360159
 31
0.0
  0
LINE
  5
1C529
  8
01
 10
18968.95065631484
 20
7454.291280360159
 30
0.0
 11
18971.95065631484
 21
7454.291280360159
 31
0.0
  0
LINE
  5
1C52A
  8
01
 10
18972.50132134698
 20
7454.291280360159
 30
0.0
 11
18975.50132134698
 21
7454.291280360159
 31
0.0
  0
LINE
  5
1C52B
  8
01
 10
18976.05198637911
 20
7454.291280360159
 30
0.0
 11
18979.05198637911
 21
7454.291280360159
 31
0.0
  0
LINE
  5
1C52C
  8
01
 10
18979.60265141125
 20
7454.291280360159
 30
0.0
 11
18982.60265141125
 21
7454.291280360159
 31
0.0
  0
LINE
  5
1C52D
  8
01
 10
18983.15331644338
 20
7454.291280360159
 30
0.0
 11
18986.15331644338
 21
7454.291280360159
 31
0.0
  0
LINE
  5
1C52E
  8
01
 10
18986.70398147552
 20
7454.291280360159
 30
0.0
 11
18989.70398147552
 21
7454.291280360159
 31
0.0
  0
LINE
  5
1C52F
  8
01
 10
18990.25464650765
 20
7454.291280360159
 30
0.0
 11
18993.25464650765
 21
7454.291280360159
 31
0.0
  0
LINE
  5
1C530
  8
01
 10
18993.80531153978
 20
7454.291280360159
 30
0.0
 11
18996.80531153978
 21
7454.291280360159
 31
0.0
  0
LINE
  5
1C531
  8
01
 10
18997.35597657192
 20
7454.291280360159
 30
0.0
 11
19000.35597657192
 21
7454.291280360159
 31
0.0
  0
LINE
  5
1C532
  8
01
 10
19000.90664160405
 20
7454.291280360159
 30
0.0
 11
19003.90664160405
 21
7454.291280360159
 31
0.0
  0
LINE
  5
1C533
  8
01
 10
19004.45730663619
 20
7454.291280360159
 30
0.0
 11
19007.45730663619
 21
7454.291280360159
 31
0.0
  0
LINE
  5
1C534
  8
01
 10
19008.00797166832
 20
7454.291280360159
 30
0.0
 11
19011.00797166832
 21
7454.291280360159
 31
0.0
  0
LINE
  5
1C535
  8
01
 10
19011.55863670046
 20
7454.291280360159
 30
0.0
 11
19014.55863670046
 21
7454.291280360159
 31
0.0
  0
LINE
  5
1C536
  8
01
 10
19015.10930173259
 20
7454.291280360159
 30
0.0
 11
19018.10930173259
 21
7454.291280360159
 31
0.0
  0
LINE
  5
1C537
  8
01
 10
19018.65996676472
 20
7454.291280360159
 30
0.0
 11
19021.65996676472
 21
7454.291280360159
 31
0.0
  0
LINE
  5
1C538
  8
01
 10
19022.21063179686
 20
7454.291280360159
 30
0.0
 11
19025.21063179686
 21
7454.291280360159
 31
0.0
  0
LINE
  5
1C539
  8
01
 10
19025.76129682899
 20
7454.291280360159
 30
0.0
 11
19028.76129682899
 21
7454.291280360159
 31
0.0
  0
LINE
  5
1C53A
  8
01
 10
19029.31196186113
 20
7454.291280360159
 30
0.0
 11
19032.31196186113
 21
7454.291280360159
 31
0.0
  0
LINE
  5
1C53B
  8
01
 10
19032.86262689326
 20
7454.291280360159
 30
0.0
 11
19035.86262689326
 21
7454.291280360159
 31
0.0
  0
LINE
  5
1C53C
  8
01
 10
19036.4132919254
 20
7454.291280360159
 30
0.0
 11
19039.4132919254
 21
7454.291280360159
 31
0.0
  0
LINE
  5
1C53D
  8
01
 10
19039.96395695753
 20
7454.291280360159
 30
0.0
 11
19042.96395695753
 21
7454.291280360159
 31
0.0
  0
LINE
  5
1C53E
  8
01
 10
19043.51462198967
 20
7454.291280360159
 30
0.0
 11
19046.51462198967
 21
7454.291280360159
 31
0.0
  0
LINE
  5
1C53F
  8
01
 10
19047.0652870218
 20
7454.291280360159
 30
0.0
 11
19050.0652870218
 21
7454.291280360159
 31
0.0
  0
LINE
  5
1C540
  8
01
 10
19050.61595205394
 20
7454.291280360159
 30
0.0
 11
19053.61595205394
 21
7454.291280360159
 31
0.0
  0
LINE
  5
1C541
  8
01
 10
19054.16661708607
 20
7454.291280360159
 30
0.0
 11
19057.16661708607
 21
7454.291280360159
 31
0.0
  0
LINE
  5
1C542
  8
01
 10
19057.71728211821
 20
7454.291280360159
 30
0.0
 11
19060.71728211821
 21
7454.291280360159
 31
0.0
  0
LINE
  5
1C543
  8
01
 10
19061.26794715034
 20
7454.291280360159
 30
0.0
 11
19064.26794715034
 21
7454.291280360159
 31
0.0
  0
LINE
  5
1C544
  8
01
 10
19064.81861218248
 20
7454.291280360159
 30
0.0
 11
19067.81861218248
 21
7454.291280360159
 31
0.0
  0
LINE
  5
1C545
  8
01
 10
19068.36927721461
 20
7454.291280360159
 30
0.0
 11
19071.36927721461
 21
7454.291280360159
 31
0.0
  0
LINE
  5
1C546
  8
01
 10
19071.91994224675
 20
7454.291280360159
 30
0.0
 11
19074.91994224675
 21
7454.291280360159
 31
0.0
  0
LINE
  5
1C547
  8
01
 10
19075.47060727888
 20
7454.291280360159
 30
0.0
 11
19078.47060727888
 21
7454.291280360159
 31
0.0
  0
LINE
  5
1C548
  8
01
 10
19079.02127231102
 20
7454.291280360159
 30
0.0
 11
19082.02127231102
 21
7454.291280360159
 31
0.0
  0
LINE
  5
1C549
  8
01
 10
19082.57193734315
 20
7454.291280360159
 30
0.0
 11
19085.57193734315
 21
7454.291280360159
 31
0.0
  0
LINE
  5
1C54A
  8
01
 10
19086.12260237529
 20
7454.291280360159
 30
0.0
 11
19089.12260237529
 21
7454.291280360159
 31
0.0
  0
LINE
  5
1C54B
  8
01
 10
19089.67326740742
 20
7454.291280360159
 30
0.0
 11
19092.67326740742
 21
7454.291280360159
 31
0.0
  0
LINE
  5
1C54C
  8
01
 10
19093.22393243956
 20
7454.291280360159
 30
0.0
 11
19096.22393243956
 21
7454.291280360159
 31
0.0
  0
LINE
  5
1C54D
  8
01
 10
19096.77459747169
 20
7454.291280360159
 30
0.0
 11
19099.77459747169
 21
7454.291280360159
 31
0.0
  0
LINE
  5
1C54E
  8
01
 10
19100.32526250383
 20
7454.291280360159
 30
0.0
 11
19103.32526250383
 21
7454.291280360159
 31
0.0
  0
LINE
  5
1C54F
  8
01
 10
19103.87592753596
 20
7454.291280360159
 30
0.0
 11
19106.87592753596
 21
7454.291280360159
 31
0.0
  0
LINE
  5
1C550
  8
01
 10
19107.42659256809
 20
7454.291280360159
 30
0.0
 11
19110.42659256809
 21
7454.291280360159
 31
0.0
  0
LINE
  5
1C551
  8
01
 10
19110.97725760023
 20
7454.291280360159
 30
0.0
 11
19113.97725760023
 21
7454.291280360159
 31
0.0
  0
LINE
  5
1C552
  8
01
 10
19114.52792263236
 20
7454.291280360159
 30
0.0
 11
19117.52792263236
 21
7454.291280360159
 31
0.0
  0
LINE
  5
1C553
  8
01
 10
19118.0785876645
 20
7454.291280360159
 30
0.0
 11
19121.0785876645
 21
7454.291280360159
 31
0.0
  0
LINE
  5
1C554
  8
01
 10
19121.62925269663
 20
7454.291280360159
 30
0.0
 11
19124.62925269663
 21
7454.291280360159
 31
0.0
  0
LINE
  5
1C555
  8
01
 10
19125.17991772877
 20
7454.291280360159
 30
0.0
 11
19128.17991772877
 21
7454.291280360159
 31
0.0
  0
LINE
  5
1C556
  8
01
 10
19128.7305827609
 20
7454.291280360159
 30
0.0
 11
19131.7305827609
 21
7454.291280360159
 31
0.0
  0
LINE
  5
1C557
  8
01
 10
19132.28124779304
 20
7454.291280360159
 30
0.0
 11
19135.28124779304
 21
7454.291280360159
 31
0.0
  0
LINE
  5
1C558
  8
01
 10
19135.83191282517
 20
7454.291280360159
 30
0.0
 11
19138.83191282517
 21
7454.291280360159
 31
0.0
  0
LINE
  5
1C559
  8
01
 10
19139.3825778573
 20
7454.291280360159
 30
0.0
 11
19142.3825778573
 21
7454.291280360159
 31
0.0
  0
LINE
  5
1C55A
  8
01
 10
19142.93324288944
 20
7454.291280360159
 30
0.0
 11
19145.93324288944
 21
7454.291280360159
 31
0.0
  0
LINE
  5
1C55B
  8
01
 10
19146.48390792157
 20
7454.291280360159
 30
0.0
 11
19149.48390792157
 21
7454.291280360159
 31
0.0
  0
LINE
  5
1C55C
  8
01
 10
19150.03457295371
 20
7454.291280360159
 30
0.0
 11
19153.03457295371
 21
7454.291280360159
 31
0.0
  0
LINE
  5
1C55D
  8
01
 10
19153.58523798584
 20
7454.291280360159
 30
0.0
 11
19156.58523798584
 21
7454.291280360159
 31
0.0
  0
LINE
  5
1C55E
  8
01
 10
19157.13590301798
 20
7454.291280360159
 30
0.0
 11
19160.13590301798
 21
7454.291280360159
 31
0.0
  0
LINE
  5
1C55F
  8
01
 10
19160.68656805011
 20
7454.291280360159
 30
0.0
 11
19163.68656805011
 21
7454.291280360159
 31
0.0
  0
LINE
  5
1C560
  8
01
 10
19164.23723308225
 20
7454.291280360159
 30
0.0
 11
19167.23723308225
 21
7454.291280360159
 31
0.0
  0
LINE
  5
1C561
  8
01
 10
19167.78789811438
 20
7454.291280360159
 30
0.0
 11
19170.78789811438
 21
7454.291280360159
 31
0.0
  0
LINE
  5
1C562
  8
01
 10
19171.33856314652
 20
7454.291280360159
 30
0.0
 11
19174.33856314652
 21
7454.291280360159
 31
0.0
  0
LINE
  5
1C563
  8
01
 10
19174.88922817865
 20
7454.291280360159
 30
0.0
 11
19177.88922817865
 21
7454.291280360159
 31
0.0
  0
LINE
  5
1C564
  8
01
 10
19178.43989321079
 20
7454.291280360159
 30
0.0
 11
19181.43989321079
 21
7454.291280360159
 31
0.0
  0
LINE
  5
1C565
  8
01
 10
19181.99055824292
 20
7454.291280360159
 30
0.0
 11
19184.99055824292
 21
7454.291280360159
 31
0.0
  0
LINE
  5
1C566
  8
01
 10
19185.54122327506
 20
7454.291280360159
 30
0.0
 11
19188.54122327506
 21
7454.291280360159
 31
0.0
  0
LINE
  5
1C567
  8
01
 10
19189.09188830719
 20
7454.291280360159
 30
0.0
 11
19192.09188830719
 21
7454.291280360159
 31
0.0
  0
LINE
  5
1C568
  8
01
 10
19192.64255333933
 20
7454.291280360159
 30
0.0
 11
19195.64255333933
 21
7454.291280360159
 31
0.0
  0
LINE
  5
1C569
  8
01
 10
19196.19321837146
 20
7454.291280360159
 30
0.0
 11
19199.19321837146
 21
7454.291280360159
 31
0.0
  0
LINE
  5
1C56A
  8
01
 10
19199.7438834036
 20
7454.291280360159
 30
0.0
 11
19202.7438834036
 21
7454.291280360159
 31
0.0
  0
LINE
  5
1C56B
  8
01
 10
19203.29454843573
 20
7454.291280360159
 30
0.0
 11
19206.29454843573
 21
7454.291280360159
 31
0.0
  0
LINE
  5
1C56C
  8
01
 10
19206.84521346787
 20
7454.291280360159
 30
0.0
 11
19209.84521346787
 21
7454.291280360159
 31
0.0
  0
LINE
  5
1C56D
  8
01
 10
19210.3958785
 20
7454.291280360159
 30
0.0
 11
19213.3958785
 21
7454.291280360159
 31
0.0
  0
LINE
  5
1C56E
  8
01
 10
19213.94654353214
 20
7454.291280360159
 30
0.0
 11
19216.94654353214
 21
7454.291280360159
 31
0.0
  0
LINE
  5
1C56F
  8
01
 10
19217.49720856427
 20
7454.291280360159
 30
0.0
 11
19220.49720856427
 21
7454.291280360159
 31
0.0
  0
LINE
  5
1C570
  8
01
 10
19221.0478735964
 20
7454.291280360159
 30
0.0
 11
19224.0478735964
 21
7454.291280360159
 31
0.0
  0
LINE
  5
1C571
  8
01
 10
19224.59853862854
 20
7454.291280360159
 30
0.0
 11
19227.59853862854
 21
7454.291280360159
 31
0.0
  0
LINE
  5
1C572
  8
01
 10
19228.14920366067
 20
7454.291280360159
 30
0.0
 11
19231.14920366067
 21
7454.291280360159
 31
0.0
  0
LINE
  5
1C573
  8
01
 10
19231.69986869281
 20
7454.291280360159
 30
0.0
 11
19234.69986869281
 21
7454.291280360159
 31
0.0
  0
LINE
  5
1C574
  8
01
 10
19235.25053372494
 20
7454.291280360159
 30
0.0
 11
19238.25053372494
 21
7454.291280360159
 31
0.0
  0
LINE
  5
1C575
  8
01
 10
19238.80119875708
 20
7454.291280360159
 30
0.0
 11
19241.80119875708
 21
7454.291280360159
 31
0.0
  0
LINE
  5
1C576
  8
01
 10
19242.35186378921
 20
7454.291280360159
 30
0.0
 11
19245.35186378921
 21
7454.291280360159
 31
0.0
  0
LINE
  5
1C577
  8
01
 10
19245.90252882135
 20
7454.291280360159
 30
0.0
 11
19248.90252882135
 21
7454.291280360159
 31
0.0
  0
LINE
  5
1C578
  8
01
 10
19249.45319385348
 20
7454.291280360159
 30
0.0
 11
19252.45319385348
 21
7454.291280360159
 31
0.0
  0
LINE
  5
1C579
  8
01
 10
19253.00385888562
 20
7454.291280360159
 30
0.0
 11
19256.00385888562
 21
7454.291280360159
 31
0.0
  0
LINE
  5
1C57A
  8
01
 10
19256.55452391775
 20
7454.291280360159
 30
0.0
 11
19259.55452391775
 21
7454.291280360159
 31
0.0
  0
LINE
  5
1C57B
  8
01
 10
19260.10518894988
 20
7454.291280360159
 30
0.0
 11
19263.10518894988
 21
7454.291280360159
 31
0.0
  0
LINE
  5
1C57C
  8
01
 10
19263.65585398202
 20
7454.291280360159
 30
0.0
 11
19266.65585398202
 21
7454.291280360159
 31
0.0
  0
LINE
  5
1C57D
  8
01
 10
19267.20651901415
 20
7454.291280360159
 30
0.0
 11
19270.20651901415
 21
7454.291280360159
 31
0.0
  0
LINE
  5
1C57E
  8
01
 10
19270.75718404629
 20
7454.291280360159
 30
0.0
 11
19273.75718404629
 21
7454.291280360159
 31
0.0
  0
LINE
  5
1C57F
  8
01
 10
19274.30784907842
 20
7454.291280360159
 30
0.0
 11
19277.30784907842
 21
7454.291280360159
 31
0.0
  0
LINE
  5
1C580
  8
01
 10
19277.85851411056
 20
7454.291280360159
 30
0.0
 11
19280.85851411056
 21
7454.291280360159
 31
0.0
  0
LINE
  5
1C581
  8
01
 10
19281.40917914269
 20
7454.291280360159
 30
0.0
 11
19284.40917914269
 21
7454.291280360159
 31
0.0
  0
LINE
  5
1C582
  8
01
 10
19284.95984417483
 20
7454.291280360159
 30
0.0
 11
19287.95984417483
 21
7454.291280360159
 31
0.0
  0
LINE
  5
1C583
  8
01
 10
19288.51050920696
 20
7454.291280360159
 30
0.0
 11
19291.51050920696
 21
7454.291280360159
 31
0.0
  0
LINE
  5
1C584
  8
01
 10
19292.0611742391
 20
7454.291280360159
 30
0.0
 11
19295.0611742391
 21
7454.291280360159
 31
0.0
  0
LINE
  5
1C585
  8
01
 10
19295.61183927123
 20
7454.291280360159
 30
0.0
 11
19298.61183927123
 21
7454.291280360159
 31
0.0
  0
LINE
  5
1C586
  8
01
 10
19299.16250430337
 20
7454.291280360159
 30
0.0
 11
19302.16250430337
 21
7454.291280360159
 31
0.0
  0
LINE
  5
1C587
  8
01
 10
19302.7131693355
 20
7454.291280360159
 30
0.0
 11
19305.7131693355
 21
7454.291280360159
 31
0.0
  0
LINE
  5
1C588
  8
01
 10
19306.26383436764
 20
7454.291280360159
 30
0.0
 11
19309.26383436764
 21
7454.291280360159
 31
0.0
  0
LINE
  5
1C589
  8
01
 10
19309.81449939977
 20
7454.291280360159
 30
0.0
 11
19312.81449939977
 21
7454.291280360159
 31
0.0
  0
LINE
  5
1C58A
  8
01
 10
19313.36516443191
 20
7454.291280360159
 30
0.0
 11
19316.36516443191
 21
7454.291280360159
 31
0.0
  0
LINE
  5
1C58B
  8
01
 10
19316.91582946404
 20
7454.291280360159
 30
0.0
 11
19319.91582946404
 21
7454.291280360159
 31
0.0
  0
LINE
  5
1C58C
  8
01
 10
19320.46649449618
 20
7454.291280360159
 30
0.0
 11
19323.46649449618
 21
7454.291280360159
 31
0.0
  0
LINE
  5
1C58D
  8
01
 10
19324.01715952831
 20
7454.291280360159
 30
0.0
 11
19327.01715952831
 21
7454.291280360159
 31
0.0
  0
LINE
  5
1C58E
  8
01
 10
19327.56782456045
 20
7454.291280360159
 30
0.0
 11
19330.56782456045
 21
7454.291280360159
 31
0.0
  0
LINE
  5
1C58F
  8
01
 10
19331.11848959258
 20
7454.291280360159
 30
0.0
 11
19334.11848959258
 21
7454.291280360159
 31
0.0
  0
LINE
  5
1C590
  8
01
 10
19334.66915462471
 20
7454.291280360159
 30
0.0
 11
19337.66915462471
 21
7454.291280360159
 31
0.0
  0
LINE
  5
1C591
  8
01
 10
19338.21981965685
 20
7454.291280360159
 30
0.0
 11
19341.21981965685
 21
7454.291280360159
 31
0.0
  0
LINE
  5
1C592
  8
01
 10
19341.77048468898
 20
7454.291280360159
 30
0.0
 11
19344.77048468898
 21
7454.291280360159
 31
0.0
  0
LINE
  5
1C593
  8
01
 10
19345.32114972112
 20
7454.291280360159
 30
0.0
 11
19348.32114972112
 21
7454.291280360159
 31
0.0
  0
LINE
  5
1C594
  8
01
 10
19348.87181475325
 20
7454.291280360159
 30
0.0
 11
19351.87181475325
 21
7454.291280360159
 31
0.0
  0
LINE
  5
1C595
  8
01
 10
19352.42247978539
 20
7454.291280360159
 30
0.0
 11
19355.42247978539
 21
7454.291280360159
 31
0.0
  0
LINE
  5
1C596
  8
01
 10
19355.97314481752
 20
7454.291280360159
 30
0.0
 11
19358.97314481752
 21
7454.291280360159
 31
0.0
  0
LINE
  5
1C597
  8
01
 10
19359.52380984966
 20
7454.291280360159
 30
0.0
 11
19362.52380984966
 21
7454.291280360159
 31
0.0
  0
LINE
  5
1C598
  8
01
 10
19363.07447488179
 20
7454.291280360159
 30
0.0
 11
19366.07447488179
 21
7454.291280360159
 31
0.0
  0
LINE
  5
1C599
  8
01
 10
19366.62513991393
 20
7454.291280360159
 30
0.0
 11
19369.62513991393
 21
7454.291280360159
 31
0.0
  0
LINE
  5
1C59A
  8
01
 10
19370.17580494606
 20
7454.291280360159
 30
0.0
 11
19373.17580494606
 21
7454.291280360159
 31
0.0
  0
LINE
  5
1C59B
  8
01
 10
19373.7264699782
 20
7454.291280360159
 30
0.0
 11
19376.7264699782
 21
7454.291280360159
 31
0.0
  0
LINE
  5
1C59C
  8
01
 10
19377.27713501033
 20
7454.291280360159
 30
0.0
 11
19380.27713501033
 21
7454.291280360159
 31
0.0
  0
LINE
  5
1C59D
  8
01
 10
19380.82780004247
 20
7454.291280360159
 30
0.0
 11
19383.82780004247
 21
7454.291280360159
 31
0.0
  0
LINE
  5
1C59E
  8
01
 10
19384.3784650746
 20
7454.291280360159
 30
0.0
 11
19387.3784650746
 21
7454.291280360159
 31
0.0
  0
LINE
  5
1C59F
  8
01
 10
19387.92913010674
 20
7454.291280360159
 30
0.0
 11
19390.92913010674
 21
7454.291280360159
 31
0.0
  0
LINE
  5
1C5A0
  8
01
 10
19391.47979513887
 20
7454.291280360159
 30
0.0
 11
19394.47979513887
 21
7454.291280360159
 31
0.0
  0
LINE
  5
1C5A1
  8
01
 10
19395.030460171
 20
7454.291280360159
 30
0.0
 11
19398.030460171
 21
7454.291280360159
 31
0.0
  0
LINE
  5
1C5A2
  8
01
 10
19398.58112520314
 20
7454.291280360159
 30
0.0
 11
19401.58112520314
 21
7454.291280360159
 31
0.0
  0
LINE
  5
1C5A3
  8
01
 10
19402.13179023527
 20
7454.291280360159
 30
0.0
 11
19405.13179023527
 21
7454.291280360159
 31
0.0
  0
LINE
  5
1C5A4
  8
01
 10
19405.68245526741
 20
7454.291280360159
 30
0.0
 11
19408.68245526741
 21
7454.291280360159
 31
0.0
  0
LINE
  5
1C5A5
  8
01
 10
19409.23312029954
 20
7454.291280360159
 30
0.0
 11
19412.23312029954
 21
7454.291280360159
 31
0.0
  0
LINE
  5
1C5A6
  8
01
 10
19412.78378533168
 20
7454.291280360159
 30
0.0
 11
19415.78378533168
 21
7454.291280360159
 31
0.0
  0
LINE
  5
1C5A7
  8
01
 10
19416.33445036381
 20
7454.291280360159
 30
0.0
 11
19419.33445036381
 21
7454.291280360159
 31
0.0
  0
LINE
  5
1C5A8
  8
01
 10
19419.88511539595
 20
7454.291280360159
 30
0.0
 11
19422.88511539595
 21
7454.291280360159
 31
0.0
  0
LINE
  5
1C5A9
  8
01
 10
19423.43578042808
 20
7454.291280360159
 30
0.0
 11
19426.43578042808
 21
7454.291280360159
 31
0.0
  0
LINE
  5
1C5AA
  8
01
 10
19426.98644546022
 20
7454.291280360159
 30
0.0
 11
19429.98644546022
 21
7454.291280360159
 31
0.0
  0
LINE
  5
1C5AB
  8
01
 10
19430.53711049235
 20
7454.291280360159
 30
0.0
 11
19433.53711049235
 21
7454.291280360159
 31
0.0
  0
LINE
  5
1C5AC
  8
01
 10
19434.08777552449
 20
7454.291280360159
 30
0.0
 11
19437.08777552449
 21
7454.291280360159
 31
0.0
  0
LINE
  5
1C5AD
  8
01
 10
19437.63844055662
 20
7454.291280360159
 30
0.0
 11
19440.63844055662
 21
7454.291280360159
 31
0.0
  0
LINE
  5
1C5AE
  8
01
 10
19441.18910558876
 20
7454.291280360159
 30
0.0
 11
19444.18910558876
 21
7454.291280360159
 31
0.0
  0
LINE
  5
1C5AF
  8
01
 10
19444.73977062089
 20
7454.291280360159
 30
0.0
 11
19447.73977062089
 21
7454.291280360159
 31
0.0
  0
LINE
  5
1C5B0
  8
01
 10
19448.29043565302
 20
7454.291280360159
 30
0.0
 11
19451.29043565302
 21
7454.291280360159
 31
0.0
  0
LINE
  5
1C5B1
  8
01
 10
19451.84110068516
 20
7454.291280360159
 30
0.0
 11
19454.84110068516
 21
7454.291280360159
 31
0.0
  0
LINE
  5
1C5B2
  8
01
 10
19455.39176571729
 20
7454.291280360159
 30
0.0
 11
19458.39176571729
 21
7454.291280360159
 31
0.0
  0
LINE
  5
1C5B3
  8
01
 10
19458.94243074943
 20
7454.291280360159
 30
0.0
 11
19461.94243074943
 21
7454.291280360159
 31
0.0
  0
LINE
  5
1C5B4
  8
01
 10
19462.49309578156
 20
7454.291280360159
 30
0.0
 11
19465.49309578156
 21
7454.291280360159
 31
0.0
  0
LINE
  5
1C5B5
  8
01
 10
19466.0437608137
 20
7454.291280360159
 30
0.0
 11
19469.0437608137
 21
7454.291280360159
 31
0.0
  0
LINE
  5
1C5B6
  8
01
 10
19469.59442584583
 20
7454.291280360159
 30
0.0
 11
19472.59442584583
 21
7454.291280360159
 31
0.0
  0
LINE
  5
1C5B7
  8
01
 10
19473.14509087797
 20
7454.291280360159
 30
0.0
 11
19476.14509087797
 21
7454.291280360159
 31
0.0
  0
LINE
  5
1C5B8
  8
01
 10
19476.6957559101
 20
7454.291280360159
 30
0.0
 11
19479.6957559101
 21
7454.291280360159
 31
0.0
  0
LINE
  5
1C5B9
  8
01
 10
19480.24642094224
 20
7454.291280360159
 30
0.0
 11
19483.24642094224
 21
7454.291280360159
 31
0.0
  0
LINE
  5
1C5BA
  8
01
 10
19483.79708597437
 20
7454.291280360159
 30
0.0
 11
19486.79708597437
 21
7454.291280360159
 31
0.0
  0
LINE
  5
1C5BB
  8
01
 10
19487.34775100651
 20
7454.291280360159
 30
0.0
 11
19490.34775100651
 21
7454.291280360159
 31
0.0
  0
LINE
  5
1C5BC
  8
01
 10
19490.89841603864
 20
7454.291280360159
 30
0.0
 11
19493.89841603864
 21
7454.291280360159
 31
0.0
  0
LINE
  5
1C5BD
  8
01
 10
19494.44908107078
 20
7454.291280360159
 30
0.0
 11
19497.44908107078
 21
7454.291280360159
 31
0.0
  0
LINE
  5
1C5BE
  8
01
 10
19497.99974610291
 20
7454.291280360159
 30
0.0
 11
19500.99974610291
 21
7454.291280360159
 31
0.0
  0
LINE
  5
1C5BF
  8
01
 10
19501.55041113505
 20
7454.291280360159
 30
0.0
 11
19504.55041113505
 21
7454.291280360159
 31
0.0
  0
LINE
  5
1C5C0
  8
01
 10
19505.10107616718
 20
7454.291280360159
 30
0.0
 11
19508.10107616718
 21
7454.291280360159
 31
0.0
  0
LINE
  5
1C5C1
  8
01
 10
19508.65174119932
 20
7454.291280360159
 30
0.0
 11
19511.65174119932
 21
7454.291280360159
 31
0.0
  0
LINE
  5
1C5C2
  8
01
 10
19512.20240623145
 20
7454.291280360159
 30
0.0
 11
19515.20240623145
 21
7454.291280360159
 31
0.0
  0
LINE
  5
1C5C3
  8
01
 10
19515.75307126359
 20
7454.291280360159
 30
0.0
 11
19518.75307126359
 21
7454.291280360159
 31
0.0
  0
LINE
  5
1C5C4
  8
01
 10
19519.30373629572
 20
7454.291280360159
 30
0.0
 11
19522.30373629572
 21
7454.291280360159
 31
0.0
  0
LINE
  5
1C5C5
  8
01
 10
19522.85440132786
 20
7454.291280360159
 30
0.0
 11
19525.85440132786
 21
7454.291280360159
 31
0.0
  0
LINE
  5
1C5C6
  8
01
 10
19526.40506635999
 20
7454.291280360159
 30
0.0
 11
19529.40506635999
 21
7454.291280360159
 31
0.0
  0
LINE
  5
1C5C7
  8
01
 10
19529.95573139213
 20
7454.291280360159
 30
0.0
 11
19532.95573139213
 21
7454.291280360159
 31
0.0
  0
LINE
  5
1C5C8
  8
01
 10
19533.50639642426
 20
7454.291280360159
 30
0.0
 11
19536.50639642426
 21
7454.291280360159
 31
0.0
  0
LINE
  5
1C5C9
  8
01
 10
19537.05706145639
 20
7454.291280360159
 30
0.0
 11
19540.05706145639
 21
7454.291280360159
 31
0.0
  0
LINE
  5
1C5CA
  8
01
 10
19540.60772648853
 20
7454.291280360159
 30
0.0
 11
19543.60772648853
 21
7454.291280360159
 31
0.0
  0
LINE
  5
1C5CB
  8
1DIM
 10
18950.69733115417
 20
7457.157466058796
 30
0.0
 11
19544.69733115417
 21
7457.157466058796
 31
0.0
  0
LINE
  5
1C5CC
  8
01
 10
18950.69733115417
 20
7595.707481376192
 30
0.0
 11
18946.69733115417
 21
7595.707481376192
 31
0.0
  0
LINE
  5
1C5CD
  8
01
 10
19544.69733115417
 20
7595.707481376192
 30
0.0
 11
19548.69733115417
 21
7595.707481376192
 31
0.0
  0
LINE
  5
1C5CE
  8
1DIM
 10
18950.69733115417
 20
7594.1574813762
 30
0.0
 11
19544.69733115417
 21
7594.157481376098
 31
0.0
  0
LINE
  5
1C5CF
  8
01
 10
18950.69733115417
 20
7602.523667074836
 30
0.0
 11
19544.69733115417
 21
7602.523667074731
 31
0.0
  0
LINE
  5
1C5D0
  8
01
 10
18950.69733115417
 20
7595.707481376192
 30
0.0
 11
18950.69733115417
 21
7602.523667074731
 31
0.0
  0
LINE
  5
1C5D1
  8
01
 10
19544.69733115417
 20
7595.707481376192
 30
0.0
 11
19544.69733115417
 21
7602.523667074731
 31
0.0
  0
LINE
  5
1C5D2
  8
01
 10
18951.19733115417
 20
7599.023667074836
 30
0.0
 11
18954.19733115417
 21
7599.023667074836
 31
0.0
  0
LINE
  5
1C5D3
  8
01
 10
18954.7479961863
 20
7599.023667074836
 30
0.0
 11
18957.7479961863
 21
7599.023667074836
 31
0.0
  0
LINE
  5
1C5D4
  8
01
 10
18958.29866121844
 20
7599.023667074836
 30
0.0
 11
18961.29866121844
 21
7599.023667074836
 31
0.0
  0
LINE
  5
1C5D5
  8
01
 10
18961.84932625057
 20
7599.023667074836
 30
0.0
 11
18964.84932625057
 21
7599.023667074836
 31
0.0
  0
LINE
  5
1C5D6
  8
01
 10
18965.39999128271
 20
7599.023667074836
 30
0.0
 11
18968.39999128271
 21
7599.023667074836
 31
0.0
  0
LINE
  5
1C5D7
  8
01
 10
18968.95065631484
 20
7599.023667074836
 30
0.0
 11
18971.95065631484
 21
7599.023667074836
 31
0.0
  0
LINE
  5
1C5D8
  8
01
 10
18972.50132134698
 20
7599.023667074836
 30
0.0
 11
18975.50132134698
 21
7599.023667074836
 31
0.0
  0
LINE
  5
1C5D9
  8
01
 10
18976.05198637911
 20
7599.023667074836
 30
0.0
 11
18979.05198637911
 21
7599.023667074836
 31
0.0
  0
LINE
  5
1C5DA
  8
01
 10
18979.60265141125
 20
7599.023667074836
 30
0.0
 11
18982.60265141125
 21
7599.023667074836
 31
0.0
  0
LINE
  5
1C5DB
  8
01
 10
18983.15331644338
 20
7599.023667074836
 30
0.0
 11
18986.15331644338
 21
7599.023667074836
 31
0.0
  0
LINE
  5
1C5DC
  8
01
 10
18986.70398147552
 20
7599.023667074836
 30
0.0
 11
18989.70398147552
 21
7599.023667074836
 31
0.0
  0
LINE
  5
1C5DD
  8
01
 10
18990.25464650765
 20
7599.023667074836
 30
0.0
 11
18993.25464650765
 21
7599.023667074836
 31
0.0
  0
LINE
  5
1C5DE
  8
01
 10
18993.80531153978
 20
7599.023667074836
 30
0.0
 11
18996.80531153978
 21
7599.023667074836
 31
0.0
  0
LINE
  5
1C5DF
  8
01
 10
18997.35597657192
 20
7599.023667074836
 30
0.0
 11
19000.35597657192
 21
7599.023667074836
 31
0.0
  0
LINE
  5
1C5E0
  8
01
 10
19000.90664160405
 20
7599.023667074836
 30
0.0
 11
19003.90664160405
 21
7599.023667074836
 31
0.0
  0
LINE
  5
1C5E1
  8
01
 10
19004.45730663619
 20
7599.023667074836
 30
0.0
 11
19007.45730663619
 21
7599.023667074836
 31
0.0
  0
LINE
  5
1C5E2
  8
01
 10
19008.00797166832
 20
7599.023667074836
 30
0.0
 11
19011.00797166832
 21
7599.023667074836
 31
0.0
  0
LINE
  5
1C5E3
  8
01
 10
19011.55863670046
 20
7599.023667074836
 30
0.0
 11
19014.55863670046
 21
7599.023667074836
 31
0.0
  0
LINE
  5
1C5E4
  8
01
 10
19015.10930173259
 20
7599.023667074836
 30
0.0
 11
19018.10930173259
 21
7599.023667074836
 31
0.0
  0
LINE
  5
1C5E5
  8
01
 10
19018.65996676472
 20
7599.023667074836
 30
0.0
 11
19021.65996676472
 21
7599.023667074836
 31
0.0
  0
LINE
  5
1C5E6
  8
01
 10
19022.21063179686
 20
7599.023667074836
 30
0.0
 11
19025.21063179686
 21
7599.023667074836
 31
0.0
  0
LINE
  5
1C5E7
  8
01
 10
19025.76129682899
 20
7599.023667074836
 30
0.0
 11
19028.76129682899
 21
7599.023667074836
 31
0.0
  0
LINE
  5
1C5E8
  8
01
 10
19029.31196186113
 20
7599.023667074836
 30
0.0
 11
19032.31196186113
 21
7599.023667074836
 31
0.0
  0
LINE
  5
1C5E9
  8
01
 10
19032.86262689326
 20
7599.023667074836
 30
0.0
 11
19035.86262689326
 21
7599.023667074836
 31
0.0
  0
LINE
  5
1C5EA
  8
01
 10
19036.4132919254
 20
7599.023667074836
 30
0.0
 11
19039.4132919254
 21
7599.023667074836
 31
0.0
  0
LINE
  5
1C5EB
  8
01
 10
19039.96395695753
 20
7599.023667074836
 30
0.0
 11
19042.96395695753
 21
7599.023667074836
 31
0.0
  0
LINE
  5
1C5EC
  8
01
 10
19043.51462198967
 20
7599.023667074836
 30
0.0
 11
19046.51462198967
 21
7599.023667074836
 31
0.0
  0
LINE
  5
1C5ED
  8
01
 10
19047.0652870218
 20
7599.023667074836
 30
0.0
 11
19050.0652870218
 21
7599.023667074836
 31
0.0
  0
LINE
  5
1C5EE
  8
01
 10
19050.61595205394
 20
7599.023667074836
 30
0.0
 11
19053.61595205394
 21
7599.023667074836
 31
0.0
  0
LINE
  5
1C5EF
  8
01
 10
19054.16661708607
 20
7599.023667074836
 30
0.0
 11
19057.16661708607
 21
7599.023667074836
 31
0.0
  0
LINE
  5
1C5F0
  8
01
 10
19057.71728211821
 20
7599.023667074836
 30
0.0
 11
19060.71728211821
 21
7599.023667074836
 31
0.0
  0
LINE
  5
1C5F1
  8
01
 10
19061.26794715034
 20
7599.023667074836
 30
0.0
 11
19064.26794715034
 21
7599.023667074836
 31
0.0
  0
LINE
  5
1C5F2
  8
01
 10
19064.81861218248
 20
7599.023667074836
 30
0.0
 11
19067.81861218248
 21
7599.023667074836
 31
0.0
  0
LINE
  5
1C5F3
  8
01
 10
19068.36927721461
 20
7599.023667074836
 30
0.0
 11
19071.36927721461
 21
7599.023667074836
 31
0.0
  0
LINE
  5
1C5F4
  8
01
 10
19071.91994224675
 20
7599.023667074836
 30
0.0
 11
19074.91994224675
 21
7599.023667074836
 31
0.0
  0
LINE
  5
1C5F5
  8
01
 10
19075.47060727888
 20
7599.023667074836
 30
0.0
 11
19078.47060727888
 21
7599.023667074836
 31
0.0
  0
LINE
  5
1C5F6
  8
01
 10
19079.02127231102
 20
7599.023667074836
 30
0.0
 11
19082.02127231102
 21
7599.023667074836
 31
0.0
  0
LINE
  5
1C5F7
  8
01
 10
19082.57193734315
 20
7599.023667074836
 30
0.0
 11
19085.57193734315
 21
7599.023667074836
 31
0.0
  0
LINE
  5
1C5F8
  8
01
 10
19086.12260237529
 20
7599.023667074836
 30
0.0
 11
19089.12260237529
 21
7599.023667074836
 31
0.0
  0
LINE
  5
1C5F9
  8
01
 10
19089.67326740742
 20
7599.023667074836
 30
0.0
 11
19092.67326740742
 21
7599.023667074836
 31
0.0
  0
LINE
  5
1C5FA
  8
01
 10
19093.22393243956
 20
7599.023667074836
 30
0.0
 11
19096.22393243956
 21
7599.023667074836
 31
0.0
  0
LINE
  5
1C5FB
  8
01
 10
19096.77459747169
 20
7599.023667074836
 30
0.0
 11
19099.77459747169
 21
7599.023667074836
 31
0.0
  0
LINE
  5
1C5FC
  8
01
 10
19100.32526250383
 20
7599.023667074836
 30
0.0
 11
19103.32526250383
 21
7599.023667074836
 31
0.0
  0
LINE
  5
1C5FD
  8
01
 10
19103.87592753596
 20
7599.023667074836
 30
0.0
 11
19106.87592753596
 21
7599.023667074836
 31
0.0
  0
LINE
  5
1C5FE
  8
01
 10
19107.42659256809
 20
7599.023667074836
 30
0.0
 11
19110.42659256809
 21
7599.023667074836
 31
0.0
  0
LINE
  5
1C5FF
  8
01
 10
19110.97725760023
 20
7599.023667074836
 30
0.0
 11
19113.97725760023
 21
7599.023667074836
 31
0.0
  0
LINE
  5
1C600
  8
01
 10
19114.52792263236
 20
7599.023667074836
 30
0.0
 11
19117.52792263236
 21
7599.023667074836
 31
0.0
  0
LINE
  5
1C601
  8
01
 10
19118.0785876645
 20
7599.023667074836
 30
0.0
 11
19121.0785876645
 21
7599.023667074836
 31
0.0
  0
LINE
  5
1C602
  8
01
 10
19121.62925269663
 20
7599.023667074836
 30
0.0
 11
19124.62925269663
 21
7599.023667074836
 31
0.0
  0
LINE
  5
1C603
  8
01
 10
19125.17991772877
 20
7599.023667074836
 30
0.0
 11
19128.17991772877
 21
7599.023667074836
 31
0.0
  0
LINE
  5
1C604
  8
01
 10
19128.7305827609
 20
7599.023667074836
 30
0.0
 11
19131.7305827609
 21
7599.023667074836
 31
0.0
  0
LINE
  5
1C605
  8
01
 10
19132.28124779304
 20
7599.023667074836
 30
0.0
 11
19135.28124779304
 21
7599.023667074836
 31
0.0
  0
LINE
  5
1C606
  8
01
 10
19135.83191282517
 20
7599.023667074836
 30
0.0
 11
19138.83191282517
 21
7599.023667074836
 31
0.0
  0
LINE
  5
1C607
  8
01
 10
19139.3825778573
 20
7599.023667074836
 30
0.0
 11
19142.3825778573
 21
7599.023667074836
 31
0.0
  0
LINE
  5
1C608
  8
01
 10
19142.93324288944
 20
7599.023667074836
 30
0.0
 11
19145.93324288944
 21
7599.023667074836
 31
0.0
  0
LINE
  5
1C609
  8
01
 10
19146.48390792157
 20
7599.023667074836
 30
0.0
 11
19149.48390792157
 21
7599.023667074836
 31
0.0
  0
LINE
  5
1C60A
  8
01
 10
19150.03457295371
 20
7599.023667074836
 30
0.0
 11
19153.03457295371
 21
7599.023667074836
 31
0.0
  0
LINE
  5
1C60B
  8
01
 10
19153.58523798584
 20
7599.023667074836
 30
0.0
 11
19156.58523798584
 21
7599.023667074836
 31
0.0
  0
LINE
  5
1C60C
  8
01
 10
19157.13590301798
 20
7599.023667074836
 30
0.0
 11
19160.13590301798
 21
7599.023667074836
 31
0.0
  0
LINE
  5
1C60D
  8
01
 10
19160.68656805011
 20
7599.023667074836
 30
0.0
 11
19163.68656805011
 21
7599.023667074836
 31
0.0
  0
LINE
  5
1C60E
  8
01
 10
19164.23723308225
 20
7599.023667074836
 30
0.0
 11
19167.23723308225
 21
7599.023667074836
 31
0.0
  0
LINE
  5
1C60F
  8
01
 10
19167.78789811438
 20
7599.023667074836
 30
0.0
 11
19170.78789811438
 21
7599.023667074836
 31
0.0
  0
LINE
  5
1C610
  8
01
 10
19171.33856314652
 20
7599.023667074836
 30
0.0
 11
19174.33856314652
 21
7599.023667074836
 31
0.0
  0
LINE
  5
1C611
  8
01
 10
19174.88922817865
 20
7599.023667074836
 30
0.0
 11
19177.88922817865
 21
7599.023667074836
 31
0.0
  0
LINE
  5
1C612
  8
01
 10
19178.43989321079
 20
7599.023667074836
 30
0.0
 11
19181.43989321079
 21
7599.023667074836
 31
0.0
  0
LINE
  5
1C613
  8
01
 10
19181.99055824292
 20
7599.023667074836
 30
0.0
 11
19184.99055824292
 21
7599.023667074836
 31
0.0
  0
LINE
  5
1C614
  8
01
 10
19185.54122327506
 20
7599.023667074836
 30
0.0
 11
19188.54122327506
 21
7599.023667074836
 31
0.0
  0
LINE
  5
1C615
  8
01
 10
19189.09188830719
 20
7599.023667074836
 30
0.0
 11
19192.09188830719
 21
7599.023667074836
 31
0.0
  0
LINE
  5
1C616
  8
01
 10
19192.64255333933
 20
7599.023667074836
 30
0.0
 11
19195.64255333933
 21
7599.023667074836
 31
0.0
  0
LINE
  5
1C617
  8
01
 10
19196.19321837146
 20
7599.023667074836
 30
0.0
 11
19199.19321837146
 21
7599.023667074836
 31
0.0
  0
LINE
  5
1C618
  8
01
 10
19199.7438834036
 20
7599.023667074836
 30
0.0
 11
19202.7438834036
 21
7599.023667074836
 31
0.0
  0
LINE
  5
1C619
  8
01
 10
19203.29454843573
 20
7599.023667074836
 30
0.0
 11
19206.29454843573
 21
7599.023667074836
 31
0.0
  0
LINE
  5
1C61A
  8
01
 10
19206.84521346787
 20
7599.023667074836
 30
0.0
 11
19209.84521346787
 21
7599.023667074836
 31
0.0
  0
LINE
  5
1C61B
  8
01
 10
19210.3958785
 20
7599.023667074836
 30
0.0
 11
19213.3958785
 21
7599.023667074836
 31
0.0
  0
LINE
  5
1C61C
  8
01
 10
19213.94654353214
 20
7599.023667074836
 30
0.0
 11
19216.94654353214
 21
7599.023667074836
 31
0.0
  0
LINE
  5
1C61D
  8
01
 10
19217.49720856427
 20
7599.023667074836
 30
0.0
 11
19220.49720856427
 21
7599.023667074836
 31
0.0
  0
LINE
  5
1C61E
  8
01
 10
19221.0478735964
 20
7599.023667074836
 30
0.0
 11
19224.0478735964
 21
7599.023667074836
 31
0.0
  0
LINE
  5
1C61F
  8
01
 10
19224.59853862854
 20
7599.023667074836
 30
0.0
 11
19227.59853862854
 21
7599.023667074836
 31
0.0
  0
LINE
  5
1C620
  8
01
 10
19228.14920366067
 20
7599.023667074836
 30
0.0
 11
19231.14920366067
 21
7599.023667074836
 31
0.0
  0
LINE
  5
1C621
  8
01
 10
19231.69986869281
 20
7599.023667074836
 30
0.0
 11
19234.69986869281
 21
7599.023667074836
 31
0.0
  0
LINE
  5
1C622
  8
01
 10
19235.25053372494
 20
7599.023667074836
 30
0.0
 11
19238.25053372494
 21
7599.023667074836
 31
0.0
  0
LINE
  5
1C623
  8
01
 10
19238.80119875708
 20
7599.023667074836
 30
0.0
 11
19241.80119875708
 21
7599.023667074836
 31
0.0
  0
LINE
  5
1C624
  8
01
 10
19242.35186378921
 20
7599.023667074836
 30
0.0
 11
19245.35186378921
 21
7599.023667074836
 31
0.0
  0
LINE
  5
1C625
  8
01
 10
19245.90252882135
 20
7599.023667074836
 30
0.0
 11
19248.90252882135
 21
7599.023667074836
 31
0.0
  0
LINE
  5
1C626
  8
01
 10
19249.45319385348
 20
7599.023667074836
 30
0.0
 11
19252.45319385348
 21
7599.023667074836
 31
0.0
  0
LINE
  5
1C627
  8
01
 10
19253.00385888562
 20
7599.023667074836
 30
0.0
 11
19256.00385888562
 21
7599.023667074836
 31
0.0
  0
LINE
  5
1C628
  8
01
 10
19256.55452391775
 20
7599.023667074836
 30
0.0
 11
19259.55452391775
 21
7599.023667074836
 31
0.0
  0
LINE
  5
1C629
  8
01
 10
19260.10518894988
 20
7599.023667074836
 30
0.0
 11
19263.10518894988
 21
7599.023667074836
 31
0.0
  0
LINE
  5
1C62A
  8
01
 10
19263.65585398202
 20
7599.023667074836
 30
0.0
 11
19266.65585398202
 21
7599.023667074836
 31
0.0
  0
LINE
  5
1C62B
  8
01
 10
19267.20651901415
 20
7599.023667074836
 30
0.0
 11
19270.20651901415
 21
7599.023667074836
 31
0.0
  0
LINE
  5
1C62C
  8
01
 10
19270.75718404629
 20
7599.023667074836
 30
0.0
 11
19273.75718404629
 21
7599.023667074836
 31
0.0
  0
LINE
  5
1C62D
  8
01
 10
19274.30784907842
 20
7599.023667074836
 30
0.0
 11
19277.30784907842
 21
7599.023667074836
 31
0.0
  0
LINE
  5
1C62E
  8
01
 10
19277.85851411056
 20
7599.023667074836
 30
0.0
 11
19280.85851411056
 21
7599.023667074836
 31
0.0
  0
LINE
  5
1C62F
  8
01
 10
19281.40917914269
 20
7599.023667074836
 30
0.0
 11
19284.40917914269
 21
7599.023667074836
 31
0.0
  0
LINE
  5
1C630
  8
01
 10
19284.95984417483
 20
7599.023667074836
 30
0.0
 11
19287.95984417483
 21
7599.023667074836
 31
0.0
  0
LINE
  5
1C631
  8
01
 10
19288.51050920696
 20
7599.023667074836
 30
0.0
 11
19291.51050920696
 21
7599.023667074836
 31
0.0
  0
LINE
  5
1C632
  8
01
 10
19292.0611742391
 20
7599.023667074836
 30
0.0
 11
19295.0611742391
 21
7599.023667074836
 31
0.0
  0
LINE
  5
1C633
  8
01
 10
19295.61183927123
 20
7599.023667074836
 30
0.0
 11
19298.61183927123
 21
7599.023667074836
 31
0.0
  0
LINE
  5
1C634
  8
01
 10
19299.16250430337
 20
7599.023667074836
 30
0.0
 11
19302.16250430337
 21
7599.023667074836
 31
0.0
  0
LINE
  5
1C635
  8
01
 10
19302.7131693355
 20
7599.023667074836
 30
0.0
 11
19305.7131693355
 21
7599.023667074836
 31
0.0
  0
LINE
  5
1C636
  8
01
 10
19306.26383436764
 20
7599.023667074836
 30
0.0
 11
19309.26383436764
 21
7599.023667074836
 31
0.0
  0
LINE
  5
1C637
  8
01
 10
19309.81449939977
 20
7599.023667074836
 30
0.0
 11
19312.81449939977
 21
7599.023667074836
 31
0.0
  0
LINE
  5
1C638
  8
01
 10
19313.36516443191
 20
7599.023667074836
 30
0.0
 11
19316.36516443191
 21
7599.023667074836
 31
0.0
  0
LINE
  5
1C639
  8
01
 10
19316.91582946404
 20
7599.023667074836
 30
0.0
 11
19319.91582946404
 21
7599.023667074836
 31
0.0
  0
LINE
  5
1C63A
  8
01
 10
19320.46649449618
 20
7599.023667074836
 30
0.0
 11
19323.46649449618
 21
7599.023667074836
 31
0.0
  0
LINE
  5
1C63B
  8
01
 10
19324.01715952831
 20
7599.023667074836
 30
0.0
 11
19327.01715952831
 21
7599.023667074836
 31
0.0
  0
LINE
  5
1C63C
  8
01
 10
19327.56782456045
 20
7599.023667074836
 30
0.0
 11
19330.56782456045
 21
7599.023667074836
 31
0.0
  0
LINE
  5
1C63D
  8
01
 10
19331.11848959258
 20
7599.023667074836
 30
0.0
 11
19334.11848959258
 21
7599.023667074836
 31
0.0
  0
LINE
  5
1C63E
  8
01
 10
19334.66915462471
 20
7599.023667074836
 30
0.0
 11
19337.66915462471
 21
7599.023667074836
 31
0.0
  0
LINE
  5
1C63F
  8
01
 10
19338.21981965685
 20
7599.023667074836
 30
0.0
 11
19341.21981965685
 21
7599.023667074836
 31
0.0
  0
LINE
  5
1C640
  8
01
 10
19341.77048468898
 20
7599.023667074836
 30
0.0
 11
19344.77048468898
 21
7599.023667074836
 31
0.0
  0
LINE
  5
1C641
  8
01
 10
19345.32114972112
 20
7599.023667074836
 30
0.0
 11
19348.32114972112
 21
7599.023667074836
 31
0.0
  0
LINE
  5
1C642
  8
01
 10
19348.87181475325
 20
7599.023667074836
 30
0.0
 11
19351.87181475325
 21
7599.023667074836
 31
0.0
  0
LINE
  5
1C643
  8
01
 10
19352.42247978539
 20
7599.023667074836
 30
0.0
 11
19355.42247978539
 21
7599.023667074836
 31
0.0
  0
LINE
  5
1C644
  8
01
 10
19355.97314481752
 20
7599.023667074836
 30
0.0
 11
19358.97314481752
 21
7599.023667074836
 31
0.0
  0
LINE
  5
1C645
  8
01
 10
19359.52380984966
 20
7599.023667074836
 30
0.0
 11
19362.52380984966
 21
7599.023667074836
 31
0.0
  0
LINE
  5
1C646
  8
01
 10
19363.07447488179
 20
7599.023667074836
 30
0.0
 11
19366.07447488179
 21
7599.023667074836
 31
0.0
  0
LINE
  5
1C647
  8
01
 10
19366.62513991393
 20
7599.023667074836
 30
0.0
 11
19369.62513991393
 21
7599.023667074836
 31
0.0
  0
LINE
  5
1C648
  8
01
 10
19370.17580494606
 20
7599.023667074836
 30
0.0
 11
19373.17580494606
 21
7599.023667074836
 31
0.0
  0
LINE
  5
1C649
  8
01
 10
19373.7264699782
 20
7599.023667074836
 30
0.0
 11
19376.7264699782
 21
7599.023667074836
 31
0.0
  0
LINE
  5
1C64A
  8
01
 10
19377.27713501033
 20
7599.023667074836
 30
0.0
 11
19380.27713501033
 21
7599.023667074836
 31
0.0
  0
LINE
  5
1C64B
  8
01
 10
19380.82780004247
 20
7599.023667074836
 30
0.0
 11
19383.82780004247
 21
7599.023667074836
 31
0.0
  0
LINE
  5
1C64C
  8
01
 10
19384.3784650746
 20
7599.023667074836
 30
0.0
 11
19387.3784650746
 21
7599.023667074836
 31
0.0
  0
LINE
  5
1C64D
  8
01
 10
19387.92913010674
 20
7599.023667074836
 30
0.0
 11
19390.92913010674
 21
7599.023667074836
 31
0.0
  0
LINE
  5
1C64E
  8
01
 10
19391.47979513887
 20
7599.023667074836
 30
0.0
 11
19394.47979513887
 21
7599.023667074836
 31
0.0
  0
LINE
  5
1C64F
  8
01
 10
19395.030460171
 20
7599.023667074836
 30
0.0
 11
19398.030460171
 21
7599.023667074836
 31
0.0
  0
LINE
  5
1C650
  8
01
 10
19398.58112520314
 20
7599.023667074836
 30
0.0
 11
19401.58112520314
 21
7599.023667074836
 31
0.0
  0
LINE
  5
1C651
  8
01
 10
19402.13179023527
 20
7599.023667074836
 30
0.0
 11
19405.13179023527
 21
7599.023667074836
 31
0.0
  0
LINE
  5
1C652
  8
01
 10
19405.68245526741
 20
7599.023667074836
 30
0.0
 11
19408.68245526741
 21
7599.023667074836
 31
0.0
  0
LINE
  5
1C653
  8
01
 10
19409.23312029954
 20
7599.023667074836
 30
0.0
 11
19412.23312029954
 21
7599.023667074836
 31
0.0
  0
LINE
  5
1C654
  8
01
 10
19412.78378533168
 20
7599.023667074836
 30
0.0
 11
19415.78378533168
 21
7599.023667074836
 31
0.0
  0
LINE
  5
1C655
  8
01
 10
19416.33445036381
 20
7599.023667074836
 30
0.0
 11
19419.33445036381
 21
7599.023667074836
 31
0.0
  0
LINE
  5
1C656
  8
01
 10
19419.88511539595
 20
7599.023667074836
 30
0.0
 11
19422.88511539595
 21
7599.023667074836
 31
0.0
  0
LINE
  5
1C657
  8
01
 10
19423.43578042808
 20
7599.023667074836
 30
0.0
 11
19426.43578042808
 21
7599.023667074836
 31
0.0
  0
LINE
  5
1C658
  8
01
 10
19426.98644546022
 20
7599.023667074836
 30
0.0
 11
19429.98644546022
 21
7599.023667074836
 31
0.0
  0
LINE
  5
1C659
  8
01
 10
19430.53711049235
 20
7599.023667074836
 30
0.0
 11
19433.53711049235
 21
7599.023667074836
 31
0.0
  0
LINE
  5
1C65A
  8
01
 10
19434.08777552449
 20
7599.023667074836
 30
0.0
 11
19437.08777552449
 21
7599.023667074836
 31
0.0
  0
LINE
  5
1C65B
  8
01
 10
19437.63844055662
 20
7599.023667074836
 30
0.0
 11
19440.63844055662
 21
7599.023667074836
 31
0.0
  0
LINE
  5
1C65C
  8
01
 10
19441.18910558876
 20
7599.023667074836
 30
0.0
 11
19444.18910558876
 21
7599.023667074836
 31
0.0
  0
LINE
  5
1C65D
  8
01
 10
19444.73977062089
 20
7599.023667074836
 30
0.0
 11
19447.73977062089
 21
7599.023667074836
 31
0.0
  0
LINE
  5
1C65E
  8
01
 10
19448.29043565302
 20
7599.023667074836
 30
0.0
 11
19451.29043565302
 21
7599.023667074836
 31
0.0
  0
LINE
  5
1C65F
  8
01
 10
19451.84110068516
 20
7599.023667074836
 30
0.0
 11
19454.84110068516
 21
7599.023667074836
 31
0.0
  0
LINE
  5
1C660
  8
01
 10
19455.39176571729
 20
7599.023667074836
 30
0.0
 11
19458.39176571729
 21
7599.023667074836
 31
0.0
  0
LINE
  5
1C661
  8
01
 10
19458.94243074943
 20
7599.023667074836
 30
0.0
 11
19461.94243074943
 21
7599.023667074836
 31
0.0
  0
LINE
  5
1C662
  8
01
 10
19462.49309578156
 20
7599.023667074836
 30
0.0
 11
19465.49309578156
 21
7599.023667074836
 31
0.0
  0
LINE
  5
1C663
  8
01
 10
19466.0437608137
 20
7599.023667074836
 30
0.0
 11
19469.0437608137
 21
7599.023667074836
 31
0.0
  0
LINE
  5
1C664
  8
01
 10
19469.59442584583
 20
7599.023667074836
 30
0.0
 11
19472.59442584583
 21
7599.023667074836
 31
0.0
  0
LINE
  5
1C665
  8
01
 10
19473.14509087797
 20
7599.023667074836
 30
0.0
 11
19476.14509087797
 21
7599.023667074836
 31
0.0
  0
LINE
  5
1C666
  8
01
 10
19476.6957559101
 20
7599.023667074836
 30
0.0
 11
19479.6957559101
 21
7599.023667074836
 31
0.0
  0
LINE
  5
1C667
  8
01
 10
19480.24642094224
 20
7599.023667074836
 30
0.0
 11
19483.24642094224
 21
7599.023667074836
 31
0.0
  0
LINE
  5
1C668
  8
01
 10
19483.79708597437
 20
7599.023667074836
 30
0.0
 11
19486.79708597437
 21
7599.023667074836
 31
0.0
  0
LINE
  5
1C669
  8
01
 10
19487.34775100651
 20
7599.023667074836
 30
0.0
 11
19490.34775100651
 21
7599.023667074836
 31
0.0
  0
LINE
  5
1C66A
  8
01
 10
19490.89841603864
 20
7599.023667074836
 30
0.0
 11
19493.89841603864
 21
7599.023667074836
 31
0.0
  0
LINE
  5
1C66B
  8
01
 10
19494.44908107078
 20
7599.023667074836
 30
0.0
 11
19497.44908107078
 21
7599.023667074836
 31
0.0
  0
LINE
  5
1C66C
  8
01
 10
19497.99974610291
 20
7599.023667074836
 30
0.0
 11
19500.99974610291
 21
7599.023667074836
 31
0.0
  0
LINE
  5
1C66D
  8
01
 10
19501.55041113505
 20
7599.023667074836
 30
0.0
 11
19504.55041113505
 21
7599.023667074836
 31
0.0
  0
LINE
  5
1C66E
  8
01
 10
19505.10107616718
 20
7599.023667074836
 30
0.0
 11
19508.10107616718
 21
7599.023667074836
 31
0.0
  0
LINE
  5
1C66F
  8
01
 10
19508.65174119932
 20
7599.023667074836
 30
0.0
 11
19511.65174119932
 21
7599.023667074836
 31
0.0
  0
LINE
  5
1C670
  8
01
 10
19512.20240623145
 20
7599.023667074836
 30
0.0
 11
19515.20240623145
 21
7599.023667074836
 31
0.0
  0
LINE
  5
1C671
  8
01
 10
19515.75307126359
 20
7599.023667074836
 30
0.0
 11
19518.75307126359
 21
7599.023667074836
 31
0.0
  0
LINE
  5
1C672
  8
01
 10
19519.30373629572
 20
7599.023667074836
 30
0.0
 11
19522.30373629572
 21
7599.023667074836
 31
0.0
  0
LINE
  5
1C673
  8
01
 10
19522.85440132786
 20
7599.023667074836
 30
0.0
 11
19525.85440132786
 21
7599.023667074836
 31
0.0
  0
LINE
  5
1C674
  8
01
 10
19526.40506635999
 20
7599.023667074836
 30
0.0
 11
19529.40506635999
 21
7599.023667074836
 31
0.0
  0
LINE
  5
1C675
  8
01
 10
19529.95573139213
 20
7599.023667074836
 30
0.0
 11
19532.95573139213
 21
7599.023667074836
 31
0.0
  0
LINE
  5
1C676
  8
01
 10
19533.50639642426
 20
7599.023667074836
 30
0.0
 11
19536.50639642426
 21
7599.023667074836
 31
0.0
  0
LINE
  5
1C677
  8
01
 10
19537.05706145639
 20
7599.023667074836
 30
0.0
 11
19540.05706145639
 21
7599.023667074836
 31
0.0
  0
LINE
  5
1C678
  8
01
 10
19540.60772648853
 20
7599.023667074836
 30
0.0
 11
19543.60772648853
 21
7599.023667074836
 31
0.0
  0
LINE
  5
1C679
  8
1DIM
 10
18950.69733115417
 20
7596.1574813762
 30
0.0
 11
19544.69733115417
 21
7596.1574813762
 31
0.0
  0
LINE
  5
1C682
  8
1CENTER
 10
19027.71503701437
 20
7540.657473717494
 30
0.0
 11
19037.67962529396
 21
7540.657473717494
 31
0.0
  0
LINE
  5
1C683
  8
1CENTER
 10
19032.69733115417
 20
7535.6751795777
 30
0.0
 11
19032.69733115417
 21
7545.639767857288
 31
0.0
  0
LINE
  5
1C684
  8
1CENTER
 10
19467.67962529396
 20
7540.657473717494
 30
0.0
 11
19457.71503701437
 21
7540.657473717494
 31
0.0
  0
LINE
  5
1C685
  8
1CENTER
 10
19462.69733115417
 20
7535.6751795777
 30
0.0
 11
19462.69733115417
 21
7545.639767857288
 31
0.0
  0
LINE
  5
1C6D0
  8
01
 10
17003.50165822636
 20
7205.014160227726
 30
0.0
 11
16409.50165822636
 21
7205.014160227726
 31
0.0
  0
LINE
  5
1C6D1
  8
01
 10
16409.50165822636
 20
7232.014160135202
 30
0.0
 11
17003.50165822636
 21
7232.014160135202
 31
0.0
  0
LINE
  5
1C6D2
  8
01
 10
16409.50165822636
 20
7203.964160135253
 30
0.0
 11
16405.50165822636
 21
7203.964160135253
 31
0.0
  0
LINE
  5
1C6D3
  8
01
 10
17003.50165822636
 20
7203.964160135253
 30
0.0
 11
17007.50165822636
 21
7203.964160135253
 31
0.0
  0
LINE
  5
1C6D4
  8
1DIM
 10
16409.50165822636
 20
7221.376229100771
 30
0.0
 11
17003.50165822636
 21
7221.376229100803
 31
0.0
  0
LINE
  5
1C6D5
  8
1DIM
 10
16409.50165822636
 20
7215.652091169731
 30
0.0
 11
17003.50165822636
 21
7215.652091169742
 31
0.0
  0
LINE
  5
1C6D6
  8
01
 10
17003.50165822636
 20
7217.514160135289
 30
0.0
 11
17003.50165822636
 21
7219.514160135289
 31
0.0
  0
LINE
  5
1C6D7
  8
01
 10
16409.50165822636
 20
7220.514160135252
 30
0.0
 11
17003.50165822636
 21
7220.514160135289
 31
0.0
  0
LINE
  5
1C6D8
  8
01
 10
16409.50165822636
 20
7217.514160135252
 30
0.0
 11
16409.50165822636
 21
7219.514160135252
 31
0.0
  0
LINE
  5
1C6D9
  8
01
 10
16409.50165822636
 20
7216.514160135252
 30
0.0
 11
17003.50165822636
 21
7216.514160135289
 31
0.0
  0
LINE
  5
1C6DA
  8
01
 10
16409.50165822636
 20
7217.514160160526
 30
0.0
 11
16409.50165822636
 21
7203.964160135253
 31
0.0
  0
LINE
  5
1C6DB
  8
01
 10
16409.50165822636
 20
7233.064160135252
 30
0.0
 11
16409.50165822636
 21
7219.514160109979
 31
0.0
  0
LINE
  5
1C6DC
  8
01
 10
16405.50165822636
 20
7233.064160135252
 30
0.0
 11
16405.50165822636
 21
7203.964160135253
 31
0.0
  0
LINE
  5
1C6DD
  8
01
 10
16409.50165822636
 20
7233.064160135252
 30
0.0
 11
16405.50165822636
 21
7233.064160135252
 31
0.0
  0
LINE
  5
1C6DE
  8
01
 10
17007.50165822636
 20
7233.064160135252
 30
0.0
 11
17007.50165822636
 21
7203.964160135253
 31
0.0
  0
LINE
  5
1C6DF
  8
01
 10
17003.50165822636
 20
7233.064160135252
 30
0.0
 11
17007.50165822636
 21
7233.064160135252
 31
0.0
  0
LINE
  5
1C6E0
  8
01
 10
17003.50165822636
 20
7217.514160160562
 30
0.0
 11
17003.50165822636
 21
7203.964160135253
 31
0.0
  0
LINE
  5
1C6E1
  8
01
 10
17003.50165822636
 20
7233.064160135252
 30
0.0
 11
17003.50165822636
 21
7219.514160110016
 31
0.0
  0
TEXT
  5
1C6E3
  8
1TEXT
 10
17058.66204430088
 20
7356.355973896963
 30
0.0
 40
8.0
  1
DA-176-XX-0602
 41
0.8
  0
LINE
  5
1C6E4
  8
1DIM
 10
17058.66204430088
 20
7351.355973896963
 30
0.0
 11
17233.66204430088
 21
7351.355973896963
 31
0.0
  0
LINE
  5
1C6E5
  8
1DIM
 10
17058.66204430088
 20
7337.355973896963
 30
0.0
 11
17233.66204430088
 21
7337.355973896963
 31
0.0
  0
LINE
  5
1C6E6
  8
1DIM
 10
17058.66204430088
 20
7344.355973896963
 30
0.0
 11
17233.66204430088
 21
7344.355973896963
 31
0.0
  0
LINE
  5
1C6E7
  8
1DIM
 10
17233.66204430088
 20
7351.355973896963
 30
0.0
 11
17233.66204430088
 21
7330.355973896963
 31
0.0
  0
TEXT
  5
1C6E8
  8
1TEXT
 10
17208.72871096754
 20
7345.855973896963
 30
0.0
 40
4.0
  1
Code
 72
     1
 11
17216.06204430087
 21
7345.855973896963
 31
0.0
  0
TEXT
  5
1C6E9
  8
1TEXT
 10
17075.8132925503
 20
7345.855973896963
 30
0.0
 40
4.0
  1
Finish：Grip
 72
     1
 11
17092.59424493125
 21
7345.855973896963
 31
0.0
  0
LINE
  5
1C6EA
  8
1DIM
 10
17058.66204430088
 20
7330.355973896963
 30
0.0
 11
17058.66204430088
 21
7351.355973896963
 31
0.0
  0
TEXT
  5
1C6EB
  8
1TEXT
 10
17076.54668748425
 20
7339.020685237439
 30
0.0
 40
4.0
  1
Beige Leather
 41
0.8
 72
     1
 11
17093.61335415091
 21
7339.020685237439
 31
0.0
  0
TEXT
  5
1C6EC
  8
1TEXT
 10
17201.8715681104
 20
7338.641616913314
 30
0.0
 40
4.0
  1
DA-176-Z9-0602
 41
0.5
 72
     1
 11
17216.06204430087
 21
7338.641616913314
 31
0.0
  0
LINE
  5
1C6ED
  8
1DIM
 10
17198.66204430088
 20
7351.355973896963
 30
0.0
 11
17198.66204430088
 21
7330.355973896963
 31
0.0
  0
LINE
  5
1C6EE
  8
1DIM
 10
17128.66204430088
 20
7351.355973896963
 30
0.0
 11
17128.66204430088
 21
7330.355973896963
 31
0.0
  0
TEXT
  5
1C6EF
  8
1TEXT
 10
17146.57519731221
 20
7345.855973896963
 30
0.0
 40
4.0
  1
Finish：Leg
 72
     1
 11
17162.59424493125
 21
7345.855973896963
 31
0.0
  0
TEXT
  5
1C6F1
  8
1TEXT
 10
17068.85144938901
 20
7332.020685237439
 30
0.0
 40
4.0
  1
Dark Brown Leather
 41
0.8
 72
     1
 11
17093.61335415091
 21
7332.020685237439
 31
0.0
  0
TEXT
  5
1C6F2
  8
1TEXT
 10
17201.82394906278
 20
7331.641616913314
 30
0.0
 40
4.0
  1
DA-176-K8-0602
 41
0.5
 72
     1
 11
17216.06204430087
 21
7331.641616913314
 31
0.0
  0
TEXT
  5
1C6FC
  8
1TEXT
 10
17138.54668748425
 20
7339.020685237439
 30
0.0
 40
4.0
  1
Nickel Color Hairline
 41
0.8
 72
     1
 11
17163.61335415091
 21
7339.020685237439
 31
0.0
  0
TEXT
  5
1C6FD
  8
1TEXT
 10
17146.85144938901
 20
7332.020685237439
 30
0.0
 40
4.0
  1
Blasted Black
 41
0.8
 72
     1
 11
17163.61335415091
 21
7332.020685237439
 31
0.0
  0
LINE
  5
1C746
  8
1CENTER
 10
17057.19543943828
 20
7290.262930941208
 30
0.0
 11
17232.23502320733
 21
7290.262930941208
 31
0.0
  0
LINE
  5
1C74E
  8
1DIM
 10
17058.66204430088
 20
7330.355973896963
 30
0.0
 11
17233.66204430088
 21
7330.355973896963
 31
0.0
  0
LINE
  5
1C74F
  8
01
 10
19544.69733115417
 20
7379.126108743418
 30
0.0
 11
18950.69733115417
 21
7379.126108743418
 31
0.0
  0
LINE
  5
1C750
  8
01
 10
18950.69733115417
 20
7406.126108650893
 30
0.0
 11
19544.69733115417
 21
7406.126108650893
 31
0.0
  0
LINE
  5
1C751
  8
01
 10
18950.69733115417
 20
7378.076108650945
 30
0.0
 11
18946.69733115417
 21
7378.076108650945
 31
0.0
  0
LINE
  5
1C752
  8
01
 10
19544.69733115417
 20
7378.076108650945
 30
0.0
 11
19548.69733115417
 21
7378.076108650945
 31
0.0
  0
LINE
  5
1C753
  8
1DIM
 10
18950.69733115417
 20
7395.488177616462
 30
0.0
 11
19544.69733115417
 21
7395.488177616495
 31
0.0
  0
LINE
  5
1C754
  8
1DIM
 10
18950.69733115417
 20
7389.764039685422
 30
0.0
 11
19544.69733115417
 21
7389.764039685433
 31
0.0
  0
LINE
  5
1C755
  8
01
 10
19544.69733115417
 20
7391.62610865098
 30
0.0
 11
19544.69733115417
 21
7393.62610865098
 31
0.0
  0
LINE
  5
1C756
  8
01
 10
18950.69733115417
 20
7394.626108650944
 30
0.0
 11
19544.69733115417
 21
7394.62610865098
 31
0.0
  0
LINE
  5
1C757
  8
01
 10
18950.69733115417
 20
7391.626108650944
 30
0.0
 11
18950.69733115417
 21
7393.626108650944
 31
0.0
  0
LINE
  5
1C758
  8
01
 10
18950.69733115417
 20
7390.626108650944
 30
0.0
 11
19544.69733115417
 21
7390.62610865098
 31
0.0
  0
LINE
  5
1C759
  8
01
 10
18950.69733115417
 20
7391.626108676217
 30
0.0
 11
18950.69733115417
 21
7378.076108650945
 31
0.0
  0
LINE
  5
1C75A
  8
01
 10
18950.69733115417
 20
7407.176108650943
 30
0.0
 11
18950.69733115417
 21
7393.626108625671
 31
0.0
  0
LINE
  5
1C75B
  8
01
 10
18946.69733115417
 20
7407.176108650943
 30
0.0
 11
18946.69733115417
 21
7378.076108650945
 31
0.0
  0
LINE
  5
1C75C
  8
01
 10
18950.69733115417
 20
7407.176108650943
 30
0.0
 11
18946.69733115417
 21
7407.176108650943
 31
0.0
  0
LINE
  5
1C75D
  8
01
 10
19548.69733115417
 20
7407.176108650943
 30
0.0
 11
19548.69733115417
 21
7378.076108650945
 31
0.0
  0
LINE
  5
1C75E
  8
01
 10
19544.69733115417
 20
7407.176108650943
 30
0.0
 11
19548.69733115417
 21
7407.176108650943
 31
0.0
  0
LINE
  5
1C75F
  8
01
 10
19544.69733115417
 20
7391.626108676253
 30
0.0
 11
19544.69733115417
 21
7378.076108650945
 31
0.0
  0
LINE
  5
1C760
  8
01
 10
19544.69733115417
 20
7407.176108650943
 30
0.0
 11
19544.69733115417
 21
7393.626108625707
 31
0.0
  0
LINE
  5
1C762
  8
1CENTER
 10
19571.71521437583
 20
7392.626107838436
 30
0.0
 11
18921.67947280164
 21
7392.626107838436
 31
0.0
  0
LINE
  5
1C763
  8
1CENTER
 10
19571.71521437583
 20
7472.157465246295
 30
0.0
 11
18921.67947280164
 21
7472.157465246295
 31
0.0
  0
LINE
  5
1C764
  8
1CENTER
 10
19571.71521437583
 20
7581.157480563681
 30
0.0
 11
18921.67947280164
 21
7581.157480563681
 31
0.0
  0
LINE
  5
1C765
  8
1CENTER
 10
19032.69733333475
 20
7615.245194729118
 30
0.0
 11
19032.69733333475
 21
7436.779771873615
 31
0.0
  0
LINE
  5
1C766
  8
1CENTER
 10
19462.69733333475
 20
7615.245194729118
 30
0.0
 11
19462.69733333475
 21
7436.779771873615
 31
0.0
  0
LINE
  5
1C767
  8
1CENTER
 10
19032.69733333475
 20
7400.858819266188
 30
0.0
 11
19032.69733333475
 21
7384.393396410685
 31
0.0
  0
LINE
  5
1C769
  8
1CENTER
 10
19462.69732897358
 20
7400.858819266188
 30
0.0
 11
19462.69732897358
 21
7384.393396410685
 31
0.0
  0
LINE
  5
1C78A
  8
1CENTER
 10
17024.51952901345
 20
7399.262945446086
 30
0.0
 11
16388.48378743927
 21
7399.262945446086
 31
0.0
  0
LINE
  5
1C78B
  8
1CENTER
 10
16491.50166040695
 20
7433.350659611523
 30
0.0
 11
16491.50166040695
 21
7254.885236756019
 31
0.0
  0
LINE
  5
1C78C
  8
1CENTER
 10
16921.50166040695
 20
7433.350659611523
 30
0.0
 11
16921.50166040695
 21
7254.885236756019
 31
0.0
  0
LINE
  5
1C78E
  8
1CENTER
 10
17024.51952901345
 20
7290.2629301287
 30
0.0
 11
16388.48378743927
 21
7290.2629301287
 31
0.0
  0
LINE
  5
1C78F
  8
1CENTER
 10
17024.51952901345
 20
7218.514159322744
 30
0.0
 11
16388.48378743927
 21
7218.514159322744
 31
0.0
  0
LINE
  5
1C840
  8
1DIM
 10
17010.0
 20
7338.762938599903
 30
0.0
 11
17033.56696164938
 21
7338.762938599903
 31
0.0
1001
ACAD
1000
DSTYLE
1002
{
1070
    45
1040
0.5
1002
}
  0
LINE
  5
1C841
  8
1DIM
 10
17003.50323531077
 20
7268.898246995092
 30
0.0
 11
17033.56696164938
 21
7268.898246995092
 31
0.0
1001
ACAD
1000
DSTYLE
1002
{
1070
    45
1040
0.5
1002
}
  0
LINE
  5
1C842
  8
1DIM
 10
17032.56696164938
 20
7336.762938599903
 30
0.0
 11
17032.56696164938
 21
7270.898246995092
 31
0.0
1001
ACAD
1000
DSTYLE
1002
{
1070
    45
1040
0.5
1002
}
  0
LINE
  5
1C846
  8
1DIM
  6
CONTINUOUS
 10
16933.80013765
 20
7323.145311549874
 30
0.0
 11
16951.35976392816
 21
7323.145311549874
 31
0.0
1001
ACAD
1000
DSTYLE
1002
{
1070
   340
1005
10
1070
    70
1070
     0
1070
    69
1070
     0
1070
   271
1070
     0
1070
     3
1000
\U+0192\U+00D3<>
1070
    75
1070
     1
1070
    76
1070
     1
1070
    50
1040
1.570796326794897
1070
   345
1005
C
1070
   346
1005
C
1070
   347
1005
C
1002
}
  0
LINE
  5
1C847
  8
1DIM
  6
CONTINUOUS
 10
16911.00165822636
 20
7323.145311549874
 30
0.0
 11
16931.80013765
 21
7323.145311549874
 31
0.0
1001
ACAD
1000
DSTYLE
1002
{
1070
   340
1005
10
1070
    70
1070
     0
1070
    69
1070
     0
1070
   271
1070
     0
1070
     3
1000
\U+0192\U+00D3<>
1070
    75
1070
     1
1070
    76
1070
     1
1070
    50
1040
1.570796326794897
1070
   345
1005
C
1070
   346
1005
C
1070
   347
1005
C
1002
}
  0
LINE
  5
1C84B
  8
1DIM
  6
CONTINUOUS
 10
17003.50165822636
 20
7205.014160227726
 30
0.0
 11
17033.56696164938
 21
7205.014160227726
 31
0.0
1001
ACAD
1000
DSTYLE
1002
{
1070
   271
1070
     0
1070
    50
1040
1.570796326794897
1070
   345
1005
C
1070
   346
1005
C
1070
   347
1005
C
1002
}
  0
LINE
  5
1C84C
  8
1DIM
  6
CONTINUOUS
 10
17003.50165822636
 20
7232.014160135202
 30
0.0
 11
17033.56696164938
 21
7232.014160135202
 31
0.0
1001
ACAD
1000
DSTYLE
1002
{
1070
   271
1070
     0
1070
    50
1040
1.570796326794897
1070
   345
1005
C
1070
   346
1005
C
1070
   347
1005
C
1002
}
  0
LINE
  5
1C84D
  8
1DIM
  6
CONTINUOUS
 10
17032.56696164938
 20
7207.014160227726
 30
0.0
 11
17032.56696164938
 21
7230.014160135202
 31
0.0
1001
ACAD
1000
DSTYLE
1002
{
1070
   271
1070
     0
1070
    50
1040
1.570796326794897
1070
   345
1005
C
1070
   346
1005
C
1070
   347
1005
C
1002
}
  0
LINE
  5
1C851
  8
1DIM1
 10
18946.69733115417
 20
7378.076108650945
 30
0.0
 11
18946.69733115417
 21
7269.854227277416
 31
0.0
1001
ACAD
1000
DSTYLE
1002
{
1070
    40
1040
7.0
1070
    45
1040
0.5
1002
}
  0
LINE
  5
1C852
  8
1DIM1
 10
19548.69733115417
 20
7378.076108650945
 30
0.0
 11
19548.69733115417
 21
7269.854227277416
 31
0.0
1001
ACAD
1000
DSTYLE
1002
{
1070
    40
1040
7.0
1070
    45
1040
0.5
1002
}
  0
LINE
  5
1C853
  8
1DIM1
 10
18960.69733115417
 20
7276.854227277416
 30
0.0
 11
19534.69733115417
 21
7276.854227277416
 31
0.0
1001
ACAD
1000
DSTYLE
1002
{
1070
    40
1040
7.0
1070
    45
1040
0.5
1002
}
  0
LINE
  5
1C857
  8
1DIM1
 10
19032.69733333475
 20
7384.393396410685
 30
0.0
 11
19032.69733333475
 21
7322.369431603922
 31
0.0
1001
ACAD
1000
DSTYLE
1002
{
1070
    40
1040
7.0
1070
    45
1040
0.5
1002
}
  0
LINE
  5
1C858
  8
1DIM1
 10
19462.69732897358
 20
7384.393396410685
 30
0.0
 11
19462.69732897358
 21
7322.369431603922
 31
0.0
1001
ACAD
1000
DSTYLE
1002
{
1070
    40
1040
7.0
1070
    45
1040
0.5
1002
}
  0
LINE
  5
1C859
  8
1DIM1
 10
19046.69733333475
 20
7329.369431603922
 30
0.0
 11
19448.69732897358
 21
7329.369431603922
 31
0.0
1001
ACAD
1000
DSTYLE
1002
{
1070
    40
1040
7.0
1070
    45
1040
0.5
1002
}
  0
TEXT
  5
1C85D
  8
1DIM
  6
CONTINUOUS
 10
17030.64721317198
 20
7261.073957807899
 30
0.0
 40
3.5
  1
Wooden Door t40～50mm Hole Size φ10
  0
TEXT
  5
1C85E
  8
1DIM
  6
CONTINUOUS
 10
17039.98054650531
 20
7255.240624474566
 30
0.0
 40
3.5
  1
Glass Door t8～12mm Hole Size φ16
  0
LINE
  5
1C860
  8
1DIM
 10
17145.2102958506
 20
7263.394651203911
 30
0.0
 11
17142.08054650532
 21
7254.540624474566
 31
0.0
  0
TEXT
  5
1C861
  8
1DIM
  6
CONTINUOUS
 10
17155.74300077652
 20
7322.514628294628
 30
0.0
 40
3.5
  1
Material：Gum
  0
TEXT
  5
1C862
  8
1DIM
  6
CONTINUOUS
 10
17155.74300077652
 20
7316.681294961295
 30
0.0
 40
3.5
  1
Finish：Black
  0
LINE
  5
1C864
  8
1DIM
 10
17145.72815115199
 20
7298.987457954523
 30
0.0
 11
17155.70966744319
 21
7315.981294961295
 31
0.0
  0
LINE
  5
1C865
  8
0
  6
BYBLOCK
 10
17032.03106364938
 20
7336.762938599903
 30
0.0
 11
17032.56696164938
 21
7338.762938599903
 31
0.0
  0
LINE
  5
1C866
  8
0
  6
BYBLOCK
 10
17032.56696164938
 20
7338.762938599903
 30
0.0
 11
17033.10285964938
 21
7336.762938599903
 31
0.0
  0
LINE
  5
1C867
  8
0
  6
BYBLOCK
 10
17032.56696164938
 20
7338.762938599903
 30
0.0
 11
17032.56696164938
 21
7336.762938599903
 31
0.0
  0
LINE
  5
1C868
  8
0
  6
BYBLOCK
 10
17033.10285964938
 20
7270.898246995092
 30
0.0
 11
17032.56696164938
 21
7268.898246995092
 31
0.0
  0
LINE
  5
1C869
  8
0
  6
BYBLOCK
 10
17032.56696164938
 20
7268.898246995092
 30
0.0
 11
17032.03106364938
 21
7270.898246995092
 31
0.0
  0
LINE
  5
1C86A
  8
0
  6
BYBLOCK
 10
17032.56696164938
 20
7268.898246995092
 30
0.0
 11
17032.56696164938
 21
7270.898246995092
 31
0.0
  0
TEXT
  5
1C86B
  8
1DIM
  6
CONTINUOUS
 10
17031.86696164938
 20
7300.497259464166
 30
0.0
 40
3.5
  1
70
 50
90.0
1001
ACAD
1000
DSTYLE
1002
{
1070
    45
1040
0.5
1002
}
  0
LINE
  5
1C86C
  8
0
  6
BYBLOCK
 10
16911.00165822636
 20
7322.609413549874
 30
0.0
 11
16909.00165822636
 21
7323.145311549874
 31
0.0
  0
LINE
  5
1C86D
  8
0
  6
BYBLOCK
 10
16909.00165822636
 20
7323.145311549874
 30
0.0
 11
16911.00165822636
 21
7323.681209549874
 31
0.0
  0
LINE
  5
1C86E
  8
0
  6
BYBLOCK
 10
16909.00165822636
 20
7323.145311549874
 30
0.0
 11
16911.00165822636
 21
7323.145311549874
 31
0.0
  0
LINE
  5
1C86F
  8
0
  6
BYBLOCK
 10
16931.80013765
 20
7323.681209549874
 30
0.0
 11
16933.80013765
 21
7323.145311549874
 31
0.0
  0
LINE
  5
1C870
  8
0
  6
BYBLOCK
 10
16933.80013765
 20
7323.145311549874
 30
0.0
 11
16931.80013765
 21
7322.609413549874
 31
0.0
  0
LINE
  5
1C871
  8
0
  6
BYBLOCK
 10
16933.80013765
 20
7323.145311549874
 30
0.0
 11
16931.80013765
 21
7323.145311549874
 31
0.0
  0
TEXT
  5
1C872
  8
1DIM
  6
CONTINUOUS
 10
16941.32643059483
 20
7323.845311549874
 30
0.0
 40
3.5
  1
\U+220525
1001
ACAD
1000
DSTYLE
1002
{
1070
   340
1005
10
1070
    70
1070
     0
1070
    69
1070
     0
1070
   271
1070
     0
1070
     3
1000
\U+0192\U+00D3<>
1070
    75
1070
     1
1070
    76
1070
     1
1070
    50
1040
1.570796326794897
1070
   345
1005
C
1070
   346
1005
C
1070
   347
1005
C
1002
}
  0
LINE
  5
1C873
  8
0
  6
BYBLOCK
 10
17033.10285964938
 20
7207.014160227726
 30
0.0
 11
17032.56696164938
 21
7205.014160227726
 31
0.0
  0
LINE
  5
1C874
  8
0
  6
BYBLOCK
 10
17032.56696164938
 20
7205.014160227726
 30
0.0
 11
17032.03106364938
 21
7207.014160227726
 31
0.0
  0
LINE
  5
1C875
  8
0
  6
BYBLOCK
 10
17032.56696164938
 20
7205.014160227726
 30
0.0
 11
17032.56696164938
 21
7207.014160227726
 31
0.0
  0
LINE
  5
1C876
  8
0
  6
BYBLOCK
 10
17032.03106364938
 20
7230.014160135202
 30
0.0
 11
17032.56696164938
 21
7232.014160135202
 31
0.0
  0
LINE
  5
1C877
  8
0
  6
BYBLOCK
 10
17032.56696164938
 20
7232.014160135202
 30
0.0
 11
17033.10285964938
 21
7230.014160135202
 31
0.0
  0
LINE
  5
1C878
  8
0
  6
BYBLOCK
 10
17032.56696164938
 20
7232.014160135202
 30
0.0
 11
17032.56696164938
 21
7230.014160135202
 31
0.0
  0
TEXT
  5
1C879
  8
1DIM
  6
CONTINUOUS
 10
17031.86696164938
 20
7213.597493514797
 30
0.0
 40
3.5
  1
\U+220527
 50
90.0
1001
ACAD
1000
DSTYLE
1002
{
1070
   271
1070
     0
1070
    50
1040
1.570796326794897
1070
   345
1005
C
1070
   346
1005
C
1070
   347
1005
C
1002
}
  0
LINE
  5
1C87A
  8
0
  6
BYBLOCK
 10
18960.69733115417
 20
7273.102941277416
 30
0.0
 11
18946.69733115417
 21
7276.854227277416
 31
0.0
  0
LINE
  5
1C87B
  8
0
  6
BYBLOCK
 10
18946.69733115417
 20
7276.854227277416
 30
0.0
 11
18960.69733115417
 21
7280.605513277415
 31
0.0
  0
LINE
  5
1C87C
  8
0
  6
BYBLOCK
 10
18946.69733115417
 20
7276.854227277416
 30
0.0
 11
18960.69733115417
 21
7276.854227277416
 31
0.0
  0
LINE
  5
1C87D
  8
0
  6
BYBLOCK
 10
19534.69733115417
 20
7280.605513277415
 30
0.0
 11
19548.69733115417
 21
7276.854227277416
 31
0.0
  0
LINE
  5
1C87E
  8
0
  6
BYBLOCK
 10
19548.69733115417
 20
7276.854227277416
 30
0.0
 11
19534.69733115417
 21
7273.102941277416
 31
0.0
  0
LINE
  5
1C87F
  8
0
  6
BYBLOCK
 10
19548.69733115417
 20
7276.854227277416
 30
0.0
 11
19534.69733115417
 21
7276.854227277416
 31
0.0
  0
TEXT
  5
1C880
  8
1DIM1
  6
CONTINUOUS
 10
19212.11399782083
 20
7281.754227277415
 30
0.0
 40
24.5
  1
602
1001
ACAD
1000
DSTYLE
1002
{
1070
    40
1040
7.0
1070
    45
1040
0.5
1002
}
  0
LINE
  5
1C881
  8
0
  6
BYBLOCK
 10
19046.69733333475
 20
7325.618145603922
 30
0.0
 11
19032.69733333475
 21
7329.369431603922
 31
0.0
  0
LINE
  5
1C882
  8
0
  6
BYBLOCK
 10
19032.69733333475
 20
7329.369431603922
 30
0.0
 11
19046.69733333475
 21
7333.120717603922
 31
0.0
  0
LINE
  5
1C883
  8
0
  6
BYBLOCK
 10
19032.69733333475
 20
7329.369431603922
 30
0.0
 11
19046.69733333475
 21
7329.369431603922
 31
0.0
  0
LINE
  5
1C884
  8
0
  6
BYBLOCK
 10
19448.69732897358
 20
7333.120717603922
 30
0.0
 11
19462.69732897358
 21
7329.369431603922
 31
0.0
  0
LINE
  5
1C885
  8
0
  6
BYBLOCK
 10
19462.69732897358
 20
7329.369431603922
 30
0.0
 11
19448.69732897358
 21
7325.618145603922
 31
0.0
  0
LINE
  5
1C886
  8
0
  6
BYBLOCK
 10
19462.69732897358
 20
7329.369431603922
 30
0.0
 11
19448.69732897358
 21
7329.369431603922
 31
0.0
  0
TEXT
  5
1C887
  8
1DIM1
  6
CONTINUOUS
 10
19199.86399782083
 20
7334.269431603921
 30
0.0
 40
24.5
  1
P430
1001
ACAD
1000
DSTYLE
1002
{
1070
    40
1040
7.0
1070
    45
1040
0.5
1002
}
  0
LINE
  5
1C888
  8
0
  6
BYBLOCK
 10
17144.70503522
 20
7263.573252328139
 30
0.0
 11
17145.87684479919
 21
7265.280310902564
 31
0.0
  0
LINE
  5
1C889
  8
0
  6
BYBLOCK
 10
17145.87684479919
 20
7265.280310902564
 30
0.0
 11
17145.71555648119
 21
7263.216050079684
 31
0.0
  0
LINE
  5
1C88A
  8
0
  6
BYBLOCK
 10
17145.87684479919
 20
7265.280310902564
 30
0.0
 11
17145.2102958506
 21
7263.394651203911
 31
0.0
  0
LINE
  5
1C88B
  8
0
  6
BYBLOCK
 10
17146.19023644068
 20
7298.716047099214
 30
0.0
 11
17144.71523132281
 21
7297.262930941208
 31
0.0
  0
LINE
  5
1C88C
  8
0
  6
BYBLOCK
 10
17144.71523132281
 20
7297.262930941208
 30
0.0
 11
17145.2660658633
 21
7299.258868809832
 31
0.0
  0
LINE
  5
1C88D
  8
0
  6
BYBLOCK
 10
17144.71523132281
 20
7297.262930941208
 30
0.0
 11
17145.72815115199
 21
7298.987457954523
 31
0.0
  0
VIEWPORT
  5
F74B
 67
     1
  8
0
 10
0.0
 20
0.0
 30
0.0
 40
626.2484174311927
 41
292.026
 68
     1
 69
     1
1001
ACAD
1000
MVIEW
1002
{
1070
    16
1010
0.0
1020
0.0
1030
0.0
1010
0.0
1020
0.0
1030
1.0
1040
0.0
1040
292.026
1040
-9.050000000000079
1040
7.4499999999999
1040
50.0
1040
0.0
1040
0.0
1070
    16
1070
   100
1070
     0
1070
     3
1070
     0
1070
     0
1070
     0
1070
     0
1040
0.0
1040
0.0
1040
0.0
1040
10.0
1040
10.0
1040
10.0
1040
10.0
1070
     0
1002
{
1002
}
1002
}
  0
ENDSEC
  0
EOF
