  0
SECTION
  2
HEADER
  9
$ACADVER
  1
AC1009
  9
$DWGCODEPAGE
  3
ansi_1252
  9
$INSBASE
 10
0.0
 20
0.0
 30
0.0
  9
$EXTMIN
 10
2465.0
 20
-706.2729044899086
 30
0.0
  9
$EXTMAX
 10
2961.340272973842
 20
-466.12692265934
 30
0.0
  9
$LIMMIN
 10
0.0
 20
0.0
  9
$LIMMAX
 10
420.0
 20
297.0
  9
$ORTHOMODE
 70
     0
  9
$REGENMODE
 70
     1
  9
$FILLMODE
 70
     1
  9
$QTEXTMODE
 70
     0
  9
$MIRRTEXT
 70
     0
  9
$DRAGMODE
 70
     2
  9
$LTSCALE
 40
0.5
  9
$OSMODE
 70
   951
  9
$ATTMODE
 70
     1
  9
$TEXTSIZE
 40
4.0
  9
$TRACEWID
 40
1.0
  9
$TEXTSTYLE
  7
STANDARD
  9
$CLAYER
  8
1TEXT
  9
$CELTYPE
  6
BYLAYER
  9
$CECOLOR
 62
   256
  9
$DIMSCALE
 40
1.0
  9
$DIMASZ
 40
2.0
  9
$DIMEXO
 40
0.0
  9
$DIMDLI
 40
7.0
  9
$DIMRND
 40
0.0
  9
$DIMDLE
 40
0.0
  9
$DIMEXE
 40
1.0
  9
$DIMTP
 40
0.0
  9
$DIMTM
 40
0.0
  9
$DIMTXT
 40
3.5
  9
$DIMCEN
 40
0.0
  9
$DIMTSZ
 40
0.0
  9
$DIMTOL
 70
     0
  9
$DIMLIM
 70
     0
  9
$DIMTIH
 70
     0
  9
$DIMTOH
 70
     0
  9
$DIMSE1
 70
     0
  9
$DIMSE2
 70
     0
  9
$DIMTAD
 70
     1
  9
$DIMZIN
 70
     8
  9
$DIMBLK
  1

  9
$DIMASO
 70
     1
  9
$DIMSHO
 70
     1
  9
$DIMPOST
  1
 
  9
$DIMAPOST
  1

  9
$DIMALT
 70
     0
  9
$DIMALTD
 70
     2
  9
$DIMALTF
 40
25.4
  9
$DIMLFAC
 40
1.0
  9
$DIMTOFL
 70
     1
  9
$DIMTVP
 40
0.0
  9
$DIMTIX
 70
     0
  9
$DIMSOXD
 70
     0
  9
$DIMSAH
 70
     1
  9
$DIMBLK1
  1
OPEN30
  9
$DIMBLK2
  1
OPEN30
  9
$DIMSTYLE
  2
NEWX10
  9
$DIMCLRD
 70
   256
  9
$DIMCLRE
 70
   256
  9
$DIMCLRT
 70
   201
  9
$DIMTFAC
 40
0.7
  9
$DIMGAP
 40
0.7
  9
$LUNITS
 70
     2
  9
$LUPREC
 70
     4
  9
$SKETCHINC
 40
1.0
  9
$FILLETRAD
 40
0.0
  9
$AUNITS
 70
     0
  9
$AUPREC
 70
     2
  9
$MENU
  1
acad
  9
$ELEVATION
 40
0.0
  9
$PELEVATION
 40
0.0
  9
$THICKNESS
 40
0.0
  9
$LIMCHECK
 70
     0
  9
$CHAMFERA
 40
1.0
  9
$CHAMFERB
 40
1.0
  9
$SKPOLY
 70
     0
  9
$TDCREATE
 40
2453033.690996817
  9
$TDUPDATE
 40
2460297.685848785
  9
$TDINDWG
 40
2.974050787
  9
$TDUSRTIMER
 40
2.9740507986
  9
$USRTIMER
 70
     1
  9
$ANGBASE
 50
0.0
  9
$ANGDIR
 70
     0
  9
$PDMODE
 70
     0
  9
$PDSIZE
 40
0.0
  9
$PLINEWID
 40
0.0
  9
$COORDS
 70
     1
  9
$SPLFRAME
 70
     0
  9
$SPLINETYPE
 70
     6
  9
$SPLINESEGS
 70
     8
  9
$ATTDIA
 70
     0
  9
$ATTREQ
 70
     1
  9
$HANDLING
 70
     1
  9
$HANDSEED
  5
23979
  9
$SURFTAB1
 70
     6
  9
$SURFTAB2
 70
     6
  9
$SURFTYPE
 70
     6
  9
$SURFU
 70
     6
  9
$SURFV
 70
     6
  9
$UCSNAME
  2

  9
$UCSORG
 10
0.0
 20
0.0
 30
0.0
  9
$UCSXDIR
 10
1.0
 20
0.0
 30
0.0
  9
$UCSYDIR
 10
0.0
 20
1.0
 30
0.0
  9
$PUCSNAME
  2

  9
$PUCSORG
 10
0.0
 20
0.0
 30
0.0
  9
$PUCSXDIR
 10
1.0
 20
0.0
 30
0.0
  9
$PUCSYDIR
 10
0.0
 20
1.0
 30
0.0
  9
$USERI1
 70
     0
  9
$USERI2
 70
     0
  9
$USERI3
 70
     0
  9
$USERI4
 70
     0
  9
$USERI5
 70
     0
  9
$USERR1
 40
0.0
  9
$USERR2
 40
0.0
  9
$USERR3
 40
0.0
  9
$USERR4
 40
0.0
  9
$USERR5
 40
0.0
  9
$WORLDVIEW
 70
     1
  9
$SHADEDGE
 70
     3
  9
$SHADEDIF
 70
    70
  9
$TILEMODE
 70
     1
  9
$MAXACTVP
 70
    48
  9
$PLIMCHECK
 70
     0
  9
$PEXTMIN
 10
1.000000000000000E+20
 20
1.000000000000000E+20
 30
1.000000000000000E+20
  9
$PEXTMAX
 10
-1.000000000000000E+20
 20
-1.000000000000000E+20
 30
-1.000000000000000E+20
  9
$PLIMMIN
 10
0.0
 20
0.0
  9
$PLIMMAX
 10
420.0
 20
297.0
  9
$UNITMODE
 70
     0
  9
$VISRETAIN
 70
     1
  9
$PLINEGEN
 70
     0
  9
$PSLTSCALE
 70
     1
  0
ENDSEC
  0
SECTION
  2
TABLES
  0
TABLE
  2
VPORT
 70
     1
  0
VPORT
  2
*ACTIVE
 70
     0
 10
0.0
 20
0.0
 11
1.0
 21
1.0
 12
2713.170136486921
 22
-586.1999135746244
 13
0.0
 23
0.0
 14
10.0
 24
10.0
 15
10.0
 25
10.0
 16
0.0
 26
0.0
 36
1.0
 17
0.0
 27
0.0
 37
0.0
 40
257.840948912821
 41
2.11044776119403
 42
50.0
 43
0.0
 44
0.0
 50
0.0
 51
0.0
 71
    16
 72
   100
 73
     1
 74
     1
 75
     0
 76
     0
 77
     0
 78
     0
  0
ENDTAB
  0
TABLE
  2
LTYPE
 70
    18
  0
LTYPE
  2
CONTINUOUS
 70
     0
  3
Solid line
 72
    65
 73
     0
 40
0.0
  0
LTYPE
  2
CENTER2
 70
     0
  3
Center (.5x) ___ _ ___ _ ___ _ ___ _ ___ _ ___
 72
    65
 73
     4
 40
28.575
 49
19.05
 49
-3.175
 49
3.175
 49
-3.175
  0
ENDTAB
  0
TABLE
  2
LAYER
 70
    39
  0
LAYER
  2
0
 70
     0
 62
     7
  6
CONTINUOUS
  0
LAYER
  2
1CENTER
 70
     0
 62
     7
  6
CENTER2
  0
LAYER
  2
1TEXT
 70
     0
 62
     7
  6
CONTINUOUS
  0
LAYER
  2
1DIM
 70
     0
 62
     7
  6
CONTINUOUS
  0
LAYER
  2
01
 70
     0
 62
     1
  6
CONTINUOUS
  0
ENDTAB
  0
TABLE
  2
STYLE
 70
    25
  0
STYLE
  2
STANDARD
 70
     0
 40
0.0
 41
1.0
 50
0.0
 71
     0
 42
4.0
  3
txt.shx
  4
extfont.shx
  0
ENDTAB
  0
TABLE
  2
VIEW
 70
     0
  0
ENDTAB
  0
TABLE
  2
UCS
 70
     0
  0
ENDTAB
  0
TABLE
  2
APPID
 70
    28
  0
APPID
  2
ACAD
 70
     0
  0
APPID
  2
DRAWINGVARIABLESXDATA
 70
     0
  0
APPID
  2
CONTENTTABDATA
 70
     0
  0
APPID
  2
CONTENTCURRENTTAB
 70
     0
  0
APPID
  2
CONTENTBLOCKDESCRIPTION
 70
     0
  0
APPID
  2
CONTENTBLOCKICON
 70
     0
  0
APPID
  2
CONTENTLONGBLOCKNAME
 70
     0
  0
APPID
  2
ACAD_PSEXT
 70
     0
  0
APPID
  2
ACAD_DSTYLE_DIMTEXT_FILL
 70
     0
  0
APPID
  2
ACAD_MLEADERVER
 70
     0
  0
APPID
  2
ACAD_DSTYLE_DIMRADIAL_EXTE
 70
     0
  0
APPID
  2
ACADANNOTATIVE
 70
     0
  0
APPID
  2
ACAD_EXEMPT_FROM_CAD_STAND
 70
     0
  0
APPID
  2
ACDBBLOCKREPETAG
 70
     0
  0
APPID
  2
ACAD_OBJECT_CHANGE_GUID
 70
     0
  0
APPID
  2
ACLAYERTOOLS
 70
     0
  0
APPID
  2
ACAD_NAV_VCDISPLAY
 70
     0
  0
APPID
  2
ACADSTRINGINFO
 70
     0
  0
APPID
  2
GRADIENTCOLOR1ACI
 70
     0
  0
APPID
  2
GRADIENTCOLOR2ACI
 70
     0
  0
APPID
  2
ACADANNOMONITORALERTICONDI
 70
     0
  0
APPID
  2
ACAD_DSTYLE_DIMJOGGED_JOGA
 70
     0
  0
APPID
  2
ACAD_DSTYLE_DIM_LINETYPE
 70
     0
  0
APPID
  2
ACAD_DSTYLE_DIM_EXT1_LINET
 70
     0
  0
APPID
  2
ACAD_DSTYLE_DIM_EXT2_LINET
 70
     0
  0
APPID
  2
AECBASE
 70
     0
  0
APPID
  2
AEC_2DSECTION_XDATA
 70
     0
  0
APPID
  2
AEC_MASSGROUP_XDADA
 70
     0
  0
ENDTAB
  0
TABLE
  2
DIMSTYLE
 70
     3
  0
DIMSTYLE
  2
NEWX10
 70
     0
  3
 
  4

  5

  6
OPEN30
  7
OPEN30
 40
1.0
 41
2.0
 42
0.0
 43
7.0
 44
1.0
 45
0.0
 46
0.0
 47
0.0
 48
0.0
140
3.5
141
0.0
142
0.0
143
25.4
144
1.0
145
0.0
146
0.7
147
0.7
 71
     0
 72
     0
 73
     0
 74
     0
 75
     0
 76
     0
 77
     1
 78
     8
170
     0
171
     2
172
     1
173
     1
174
     0
175
     0
176
   256
177
   256
178
   201
  0
DIMSTYLE
  2
ISO-25
 70
     0
  3

  4

  5

  6

  7

 40
1.0
 41
20.0
 42
3.0
 43
3.75
 44
2.0
 45
0.0
 46
0.0
 47
0.0
 48
0.0
140
30.0
141
5.0
142
0.0
143
0.03937
144
1.0
145
0.0
146
1.0
147
8.0
 71
     0
 72
     0
 73
     0
 74
     0
 75
     0
 76
     0
 77
     1
 78
     8
170
     0
171
     3
172
     1
173
     0
174
     0
175
     0
176
     1
177
     1
178
     1
  0
ENDTAB
  0
ENDSEC
  0
SECTION
  2
BLOCKS
  0
BLOCK
  8
0
  2
$MODEL_SPACE
 70
     0
 10
0.0
 20
0.0
 30
0.0
  3
$MODEL_SPACE
  1

  0
ENDBLK
  5
1A
  8
0
  0
BLOCK
 67
     1
  8
0
  2
$PAPER_SPACE
 70
     0
 10
0.0
 20
0.0
 30
0.0
  3
$PAPER_SPACE
  1

  0
ENDBLK
  5
17
 67
     1
  8
0
  0
BLOCK
  8
0
  2
_OPEN30
 70
     0
 10
0.0
 20
0.0
 30
0.0
  3
_OPEN30
  1

  0
LINE
  5
44
  8
0
  6
BYBLOCK
 62
     0
 10
-1.0
 20
0.26794919
 30
0.0
 11
0.0
 21
0.0
 31
0.0
  0
LINE
  5
45
  8
0
  6
BYBLOCK
 62
     0
 10
0.0
 20
0.0
 30
0.0
 11
-1.0
 21
-0.26794919
 31
0.0
  0
LINE
  5
46
  8
0
  6
BYBLOCK
 62
     0
 10
0.0
 20
0.0
 30
0.0
 11
-1.0
 21
0.0
 31
0.0
  0
ENDBLK
  5
47
  8
0
  0
BLOCK
  8
0
  2
A3WAKUKAWAJUN2017_HYOUDAI_
 70
     0
 10
0.0
 20
0.0
 30
0.0
  3
A3WAKUKAWAJUN2017_HYOUDAI_
  1

  0
LINE
  5
1FC48
  8
0
 10
13.26299999998673
 20
-0.0001000000000317
 30
0.0
 11
9.236999999990758
 21
8.999899999990987
 31
0.0
1001
ACAD
1000
ASC_BOUNDS
1002
{
1070
    19
1005
1FC89
1002
}
  0
LINE
  5
1FC49
  8
0
 10
5.657999999994331
 20
0.9999999999989768
 30
0.0
 11
9.236999999990758
 21
8.999999999991019
 31
0.0
1001
ACAD
1000
ASC_BOUNDS
1002
{
1070
    19
1005
1FC89
1002
}
  0
LINE
  5
1FC4A
  8
0
 10
18.59199999998134
 20
-0.2368999999997641
 30
0.0
 11
16.46099999998353
 21
5.432899999994561
 31
0.0
1001
ACAD
1000
ASC_BOUNDS
1002
{
1070
    19
1005
1FC8A
1002
}
  0
LINE
  5
1FC4B
  8
0
 10
18.59199999998134
 20
-0.2368999999997641
 30
0.0
 11
22.38199999997767
 21
8.763099999991255
 31
0.0
1001
ACAD
1000
ASC_BOUNDS
1002
{
1070
    19
1005
1FC8A
1002
}
  0
LINE
  5
1FC4C
  8
0
 10
14.32899999998563
 20
-0.2368999999997641
 30
0.0
 11
16.46099999998353
 21
5.432899999994561
 31
0.0
1001
ACAD
1000
ASC_BOUNDS
1002
{
1070
    19
1005
1FC8A
1002
}
  0
LINE
  5
1FC4D
  8
0
 10
14.32899999998563
 20
-0.2368999999997641
 30
0.0
 11
10.53899999998941
 21
8.763099999991255
 31
0.0
1001
ACAD
1000
ASC_BOUNDS
1002
{
1070
    19
1005
1FC8A
1002
}
  0
LINE
  5
1FC4E
  8
0
 10
19.53899999998043
 20
-0.0001000000000317
 30
0.0
 11
23.56599999997638
 21
8.999899999990987
 31
0.0
1001
ACAD
1000
ASC_BOUNDS
1002
{
1070
    19
1005
1FC8B
1002
}
  0
LINE
  5
1FC4F
  8
0
 10
26.97358892824991
 20
1.383099999991202
 30
0.0
 11
23.56599999997638
 21
8.999899999990987
 31
0.0
1001
ACAD
1000
ASC_BOUNDS
1002
{
1070
    19
1005
1FC8B
1002
}
  0
LINE
  5
1FC50
  8
0
 10
5.657999999994331
 20
0.9999999999989768
 30
0.0
 11
3.181999999996833
 21
4.668599999995308
 31
0.0
1001
ACAD
1000
ASC_BOUNDS
1002
{
1070
    19
1005
1FC89
1002
}
  0
LINE
  5
1FC51
  8
0
 10
4.617999999995391
 20
-0.0001000000000317
 30
0.0
 11
1.420999999998571
 21
4.736799999995242
 31
0.0
1001
ACAD
1000
ASC_BOUNDS
1002
{
1070
    19
1005
1FC89
1002
}
  0
LINE
  5
1FC52
  8
0
 10
1.420999999998571
 20
8.763099999991255
 30
0.0
 11
1.420999999998571
 21
0.0
 31
0.0
1001
ACAD
1000
ASC_BOUNDS
1002
{
1070
    19
1005
1FC8E
1002
}
  0
LINE
  5
1FC53
  8
0
 10
0.0
 20
8.763099999991255
 30
0.0
 11
0.0
 21
0.0
 31
0.0
1001
ACAD
1000
ASC_BOUNDS
1002
{
1070
    19
1005
1FC8E
1002
}
  0
LINE
  5
1FC54
  8
0
 10
6.766999999993232
 20
-0.0001000000000317
 30
0.0
 11
7.826999999992154
 21
2.368399999997621
 31
0.0
1001
ACAD
1000
ASC_BOUNDS
1002
{
1070
    19
1005
1FC89
1002
}
  0
LINE
  5
1FC55
  8
0
 10
0.0
 20
0.0
 30
0.0
 11
1.420999999998571
 21
0.0
 31
0.0
1001
ACAD
1000
ASC_BOUNDS
1002
{
1070
    19
1005
1FC8E
1002
}
  0
LINE
  5
1FC56
  8
0
 10
4.617999999995391
 20
0.0
 30
0.0
 11
6.766999999993232
 21
0.0
 31
0.0
1001
ACAD
1000
ASC_BOUNDS
1002
{
1070
    19
1005
1FC89
1002
}
  0
LINE
  5
1FC57
  8
0
 10
11.70599999998831
 20
-0.0001000000000317
 30
0.0
 11
10.64699999998936
 21
2.368399999997621
 31
0.0
1001
ACAD
1000
ASC_BOUNDS
1002
{
1070
    19
1005
1FC89
1002
}
  0
LINE
  5
1FC58
  8
0
 10
7.826999999992154
 20
2.368399999997621
 30
0.0
 11
10.64699999998936
 21
2.368399999997621
 31
0.0
1001
ACAD
1000
ASC_BOUNDS
1002
{
1070
    19
1005
1FC89
1002
}
  0
LINE
  5
1FC59
  8
0
 10
11.70599999998831
 20
0.0
 30
0.0
 11
13.26299999998673
 21
0.0
 31
0.0
1001
ACAD
1000
ASC_BOUNDS
1002
{
1070
    19
1005
1FC89
1002
}
  0
LINE
  5
1FC5A
  8
0
 10
22.15599999997789
 20
2.368399999997621
 30
0.0
 11
24.97599999997499
 21
2.368399999997621
 31
0.0
1001
ACAD
1000
ASC_BOUNDS
1002
{
1070
    19
1005
1FC8B
1002
}
  0
LINE
  5
1FC5B
  8
0
 10
19.53899999998043
 20
0.0
 30
0.0
 11
21.09599999997886
 21
0.0
 31
0.0
1001
ACAD
1000
ASC_BOUNDS
1002
{
1070
    19
1005
1FC8B
1002
}
  0
LINE
  5
1FC5C
  8
0
 10
21.09599999997886
 20
-0.0001000000000317
 30
0.0
 11
22.15599999997789
 21
2.368399999997621
 31
0.0
1001
ACAD
1000
ASC_BOUNDS
1002
{
1070
    19
1005
1FC8B
1002
}
  0
LINE
  5
1FC5D
  8
0
 10
26.02015566812236
 20
0.0330999999912365
 30
0.0
 11
24.97599999997499
 21
2.368399999997621
 31
0.0
1001
ACAD
1000
ASC_BOUNDS
1002
{
1070
    19
1005
1FC8B
1002
}
  0
LINE
  5
1FC5E
  8
0
 10
14.32399999998563
 20
3.315799999996671
 30
0.0
 11
16.46099999998353
 21
8.999899999990987
 31
0.0
1001
ACAD
1000
ASC_BOUNDS
1002
{
1070
    19
1005
1FC8A
1002
}
  0
LINE
  5
1FC5F
  8
0
 10
6.432999999993513
 20
8.763099999991255
 30
0.0
 11
3.181999999996833
 21
4.668599999995308
 31
0.0
1001
ACAD
1000
ASC_BOUNDS
1002
{
1070
    19
1005
1FC89
1002
}
  0
LINE
  5
1FC60
  8
0
 10
4.617999999995391
 20
8.763099999991255
 30
0.0
 11
1.420999999998571
 21
4.736799999995242
 31
0.0
1001
ACAD
1000
ASC_BOUNDS
1002
{
1070
    19
1005
1FC89
1002
}
  0
LINE
  5
1FC61
  8
0
 10
0.0
 20
8.763099999991255
 30
0.0
 11
1.420999999998571
 21
8.763099999991255
 31
0.0
1001
ACAD
1000
ASC_BOUNDS
1002
{
1070
    19
1005
1FC8E
1002
}
  0
LINE
  5
1FC62
  8
0
 10
4.617999999995391
 20
8.763099999991255
 30
0.0
 11
6.432999999993513
 21
8.763099999991255
 31
0.0
1001
ACAD
1000
ASC_BOUNDS
1002
{
1070
    19
1005
1FC89
1002
}
  0
LINE
  5
1FC63
  8
0
 10
14.32399999998563
 20
3.315799999996671
 30
0.0
 11
12.02999999998792
 21
8.763099999991255
 31
0.0
1001
ACAD
1000
ASC_BOUNDS
1002
{
1070
    19
1005
1FC8A
1002
}
  0
LINE
  5
1FC64
  8
0
 10
10.06399999998996
 20
3.670999999996297
 30
0.0
 11
9.236999999990758
 21
5.5200999999945
 31
0.0
1001
ACAD
1000
ASC_BOUNDS
1002
{
1070
    19
1005
1FC89
1002
}
  0
LINE
  5
1FC65
  8
0
 10
8.409999999991555
 20
3.670999999996297
 30
0.0
 11
9.236999999990758
 21
5.5200999999945
 31
0.0
1001
ACAD
1000
ASC_BOUNDS
1002
{
1070
    19
1005
1FC89
1002
}
  0
LINE
  5
1FC66
  8
0
 10
8.409999999991555
 20
3.670999999996297
 30
0.0
 11
10.06399999998996
 21
3.670999999996297
 31
0.0
1001
ACAD
1000
ASC_BOUNDS
1002
{
1070
    19
1005
1FC89
1002
}
  0
LINE
  5
1FC67
  8
0
 10
10.53899999998941
 20
8.763099999991255
 30
0.0
 11
12.02999999998792
 21
8.763099999991255
 31
0.0
1001
ACAD
1000
ASC_BOUNDS
1002
{
1070
    19
1005
1FC8A
1002
}
  0
LINE
  5
1FC68
  8
0
 10
22.7389999999773
 20
3.670999999996297
 30
0.0
 11
23.56599999997638
 21
5.5200999999945
 31
0.0
1001
ACAD
1000
ASC_BOUNDS
1002
{
1070
    19
1005
1FC8B
1002
}
  0
LINE
  5
1FC69
  8
0
 10
22.7389999999773
 20
3.670999999996297
 30
0.0
 11
24.39299999997559
 21
3.670999999996297
 31
0.0
1001
ACAD
1000
ASC_BOUNDS
1002
{
1070
    19
1005
1FC8B
1002
}
  0
LINE
  5
1FC6A
  8
0
 10
18.59799999998143
 20
3.315799999996671
 30
0.0
 11
20.89099999997916
 21
8.763099999991255
 31
0.0
1001
ACAD
1000
ASC_BOUNDS
1002
{
1070
    19
1005
1FC8A
1002
}
  0
LINE
  5
1FC6B
  8
0
 10
18.59799999998143
 20
3.315799999996671
 30
0.0
 11
16.46099999998353
 21
8.999899999990987
 31
0.0
1001
ACAD
1000
ASC_BOUNDS
1002
{
1070
    19
1005
1FC8A
1002
}
  0
LINE
  5
1FC6C
  8
0
 10
20.89099999997916
 20
8.763099999991255
 30
0.0
 11
22.38199999997767
 21
8.763099999991255
 31
0.0
1001
ACAD
1000
ASC_BOUNDS
1002
{
1070
    19
1005
1FC8A
1002
}
  0
LINE
  5
1FC6D
  8
0
 10
24.39299999997559
 20
3.670999999996297
 30
0.0
 11
23.56599999997638
 21
5.5200999999945
 31
0.0
1001
ACAD
1000
ASC_BOUNDS
1002
{
1070
    19
1005
1FC8B
1002
}
  0
LINE
  5
1FC6E
  8
0
 10
44.99999999995498
 20
-0.2368999999997641
 30
0.0
 11
40.02599999995994
 21
5.341799999994635
 31
0.0
1001
ACAD
1000
ASC_BOUNDS
1002
{
1070
    19
1005
1FC8D
1002
}
  0
LINE
  5
1FC6F
  8
0
 10
40.02599999995994
 20
5.341799999994635
 30
0.0
 11
40.02599999995994
 21
0.0
 31
0.0
1001
ACAD
1000
ASC_BOUNDS
1002
{
1070
    19
1005
1FC8D
1002
}
  0
LINE
  5
1FC70
  8
0
 10
38.60499999996136
 20
8.999999999991019
 30
0.0
 11
38.60499999996136
 21
0.0
 31
0.0
1001
ACAD
1000
ASC_BOUNDS
1002
{
1070
    19
1005
1FC8D
1002
}
  0
LINE
  5
1FC71
  8
0
 10
44.99999999995498
 20
8.763099999991255
 30
0.0
 11
44.99999999995498
 21
-0.2368999999997641
 31
0.0
1001
ACAD
1000
ASC_BOUNDS
1002
{
1070
    19
1005
1FC8D
1002
}
  0
LINE
  5
1FC72
  8
0
 10
38.60499999996136
 20
0.0
 30
0.0
 11
40.02599999995994
 21
0.0
 31
0.0
1001
ACAD
1000
ASC_BOUNDS
1002
{
1070
    19
1005
1FC8D
1002
}
  0
LINE
  5
1FC73
  8
0
 10
43.57899999995641
 20
3.421199999996588
 30
0.0
 11
38.60499999996136
 21
8.999899999990987
 31
0.0
1001
ACAD
1000
ASC_BOUNDS
1002
{
1070
    19
1005
1FC8D
1002
}
  0
LINE
  5
1FC74
  8
0
 10
43.57899999995641
 20
8.763099999991255
 30
0.0
 11
43.57899999995641
 21
3.421199999996588
 31
0.0
1001
ACAD
1000
ASC_BOUNDS
1002
{
1070
    19
1005
1FC8D
1002
}
  0
LINE
  5
1FC75
  8
0
 10
43.57899999995641
 20
8.763099999991255
 30
0.0
 11
44.99999999995498
 21
8.763099999991255
 31
0.0
1001
ACAD
1000
ASC_BOUNDS
1002
{
1070
    19
1005
1FC8D
1002
}
  0
LINE
  5
1FC76
  8
0
 10
37.67199999996831
 20
8.763099999991255
 30
0.0
 11
36.23199999996837
 21
8.763099999991255
 31
0.0
  0
LINE
  5
1FC77
  8
0
 10
31.64199999996833
 20
8.763099999991255
 30
0.0
 11
31.64199999996833
 21
2.481619422925121
 31
0.0
  0
LINE
  5
1FC78
  8
0
 10
37.67199999996831
 20
8.763099999991255
 30
0.0
 11
37.67199999996831
 21
2.481619422925121
 31
0.0
  0
LINE
  5
1FC79
  8
0
 10
36.23199999996837
 20
8.763099999991255
 30
0.0
 11
36.23199999996837
 21
2.481619422925064
 31
0.0
  0
LINE
  5
1FC7A
  8
0
 10
33.08199999996839
 20
8.763099999991255
 30
0.0
 11
33.08199999996839
 21
2.481619422925121
 31
0.0
  0
ARC
  5
1FC7B
  8
0
 10
34.65699999996832
 20
3.183099999991214
 30
0.0
 40
3.420000000000007
 50
240.0000000000255
 51
299.9999999999766
  0
ARC
  5
1FC7C
  8
0
 10
34.65699999996832
 20
3.183099999991214
 30
0.0
 40
1.97999999999999
 50
240.000000000026
 51
299.9999999999703
  0
LINE
  5
1FC7D
  8
0
 10
33.08199999996828
 20
8.763099999991255
 30
0.0
 11
31.64199999996833
 21
8.763099999991255
 31
0.0
  0
ARC
  5
1FC7E
  8
0
 10
35.06199999996829
 20
2.481619422925064
 30
0.0
 40
1.17
 50
299.9999999999699
 51
0.0
  0
ARC
  5
1FC7F
  8
0
 10
34.25199999996835
 20
2.481619422925121
 30
0.0
 40
1.17
 50
180.0
 51
240.0000000000238
  0
ARC
  5
1FC80
  8
0
 10
35.06199999996841
 20
2.481619422925121
 30
0.0
 40
2.61
 50
299.9999999999756
 51
0.0
  0
ARC
  5
1FC81
  8
0
 10
34.25199999996835
 20
2.481619422925121
 30
0.0
 40
2.61
 50
180.0
 51
240.0000000000244
  0
LINE
  5
1FC82
  8
0
 10
29.30199999996933
 20
8.763099999991255
 30
0.0
 11
30.74199999996927
 21
8.763099999991255
 31
0.0
1001
ACAD
1000
ASC_BOUNDS
1002
{
1070
    19
1005
1FC8B
1002
}
  0
LINE
  5
1FC83
  8
0
 10
30.74199999996927
 20
8.763099999991255
 30
0.0
 11
30.74199999996927
 21
2.373099999991211
 31
0.0
1001
ACAD
1000
ASC_BOUNDS
1002
{
1070
    19
1005
1FC8B
1002
}
  0
LINE
  5
1FC84
  8
0
 10
26.02015566812236
 20
0.0330999999912365
 30
0.0
 11
28.40199999996923
 21
0.0330999999912365
 31
0.0
1001
ACAD
1000
ASC_BOUNDS
1002
{
1070
    19
1005
1FC8B
1002
}
  0
LINE
  5
1FC85
  8
0
 10
29.30199999996933
 20
8.763099999991255
 30
0.0
 11
29.30199999996933
 21
2.283099999991236
 31
0.0
1001
ACAD
1000
ASC_BOUNDS
1002
{
1070
    19
1005
1FC8B
1002
}
  0
LINE
  5
1FC86
  8
0
 10
26.97358892824991
 20
1.383099999991202
 30
0.0
 11
28.40199999996923
 21
1.383099999991202
 31
0.0
1001
ACAD
1000
ASC_BOUNDS
1002
{
1070
    19
1005
1FC8B
1002
}
  0
ARC
  5
1FC87
  8
0
 10
28.40199999996923
 20
2.283099999991236
 30
0.0
 40
0.9
 50
270.0
 51
0.0
1001
ACAD
1000
ASC_BOUNDS
1002
{
1070
    19
1005
1FC8B
1002
}
  0
ARC
  5
1FC88
  8
0
 10
28.40199999996923
 20
2.373099999991211
 30
0.0
 40
2.34
 50
270.0
 51
0.0
1001
ACAD
1000
ASC_BOUNDS
1002
{
1070
    19
1005
1FC8B
1002
}
  0
INSERT
  5
1FC89
  8
0
  2
*X111
 10
0.0
 20
0.0
 30
0.0
1001
ACAD
1000
HATCH
1002
{
1070
    19
1000
ANSI37
1040
0.15
1040
0.0
1000
ASC_BOUNDS
1070
     2
1070
     2
1070
    12
1005
1FC48
1005
1FC49
1005
1FC50
1005
1FC5F
1005
1FC62
1005
1FC60
1005
1FC51
1005
1FC56
1005
1FC54
1005
1FC58
1005
1FC57
1005
1FC59
1070
     2
1070
     3
1005
1FC64
1005
1FC66
1005
1FC65
1000
ASC_SEEDPOINT
1011
3.614004224891801
1021
2.996669441146025
1031
0.0
1021
2.996669441146025
1031
0.0
1000
R14_HATCH_DATA
1000
1FC89
1011
1.0
1021
0.0
1031
0.0
1021
0.0
1031
0.0
1011
0.0
1021
1.0
1031
0.0
1021
1.0
1031
0.0
1011
0.0
1021
0.0
1031
1.0
1021
0.0
1031
1.0
1040
0.0
1010
0.0
1020
0.0
1030
1.0
1000
ANSI37
1070
     0
1070
     1
1071
        2
1071
        7
1070
     0
1070
     1
1071
       17
1040
13.26299999998673
1040
-0.0001000000000317
1040
9.236999999990758
1040
8.999899999990987
1040
9.236999999990758
1040
8.999999999991019
1040
5.657999999994331
1040
0.9999999999989768
1040
3.181999999996833
1040
4.668599999995308
1040
6.432999999993513
1040
8.763099999991255
1040
4.617999999995391
1040
8.763099999991255
1040
1.420999999998571
1040
4.736799999995242
1040
4.617999999995391
1040
-0.0001000000000317
1040
4.617999999995391
1040
0.0
1040
6.766999999993232
1040
0.0
1040
6.766999999993232
1040
-0.0001000000000317
1040
7.826999999992154
1040
2.368399999997621
1040
10.64699999998936
1040
2.368399999997621
1040
11.70599999998831
1040
-0.0001000000000317
1040
11.70599999998831
1040
0.0
1040
13.26299999998673
1040
0.0
1071
       12
1005
1FC48
1005
1FC49
1005
1FC50
1005
1FC5F
1005
1FC62
1005
1FC60
1005
1FC51
1005
1FC56
1005
1FC54
1005
1FC58
1005
1FC57
1005
1FC59
1071
       22
1070
     0
1070
     1
1071
        3
1040
9.236999999990758
1040
5.5200999999945
1040
10.06399999998996
1040
3.670999999996297
1040
8.409999999991555
1040
3.670999999996297
1071
        3
1005
1FC64
1005
1FC66
1005
1FC65
1070
     0
1070
     1
1040
0.0
1040
0.15
1070
     0
1070
     2
1040
0.7853981633974483
1040
49.29960901727088
1040
-10.17736998311392
1040
-0.3367596045400932
1040
0.3367596045400932
1070
     0
1040
2.356194490192345
1040
49.29960901727088
1040
-10.17736998311392
1040
-0.3367596045400932
1040
-0.3367596045400932
1070
     0
1040
0.0110235143455945
1071
        2
1040
3.614004224891801
1040
2.996669441146025
1040
0.0
1040
3.614004224891801
1040
2.996669441146025
1040
0.0
1002
}
  0
INSERT
  5
1FC8A
  8
0
  2
*X112
 10
0.0
 20
0.0
 30
0.0
1001
ACAD
1000
HATCH
1002
{
1070
    19
1000
ANSI37
1040
0.15
1040
0.0
1000
ASC_BOUNDS
1070
     1
1070
     2
1070
    10
1005
1FC4A
1005
1FC4B
1005
1FC6C
1005
1FC6A
1005
1FC6B
1005
1FC5E
1005
1FC63
1005
1FC67
1005
1FC4D
1005
1FC4C
1000
ASC_SEEDPOINT
1011
14.73245321214324
1021
2.798246178283421
1031
0.0
1021
2.798246178283421
1031
0.0
1000
R14_HATCH_DATA
1000
1FC8A
1011
1.0
1021
0.0
1031
0.0
1021
0.0
1031
0.0
1011
0.0
1021
1.0
1031
0.0
1021
1.0
1031
0.0
1011
0.0
1021
0.0
1031
1.0
1021
0.0
1031
1.0
1040
0.0
1010
0.0
1020
0.0
1030
1.0
1000
ANSI37
1070
     0
1070
     1
1071
        1
1071
        7
1070
     0
1070
     1
1071
       10
1040
16.46099999998353
1040
5.432899999994561
1040
18.59199999998134
1040
-0.2368999999997641
1040
22.38199999997767
1040
8.763099999991255
1040
20.89099999997916
1040
8.763099999991255
1040
18.59799999998143
1040
3.315799999996671
1040
16.46099999998353
1040
8.999899999990987
1040
14.32399999998563
1040
3.315799999996671
1040
12.02999999998792
1040
8.763099999991255
1040
10.53899999998941
1040
8.763099999991255
1040
14.32899999998563
1040
-0.2368999999997641
1071
       10
1005
1FC4A
1005
1FC4B
1005
1FC6C
1005
1FC6A
1005
1FC6B
1005
1FC5E
1005
1FC63
1005
1FC67
1005
1FC4D
1005
1FC4C
1070
     0
1070
     1
1040
0.0
1040
0.15
1070
     0
1070
     2
1040
0.7853981633974483
1040
49.29960901727088
1040
-10.17736998311392
1040
-0.3367596045400932
1040
0.3367596045400932
1070
     0
1040
2.356194490192345
1040
49.29960901727088
1040
-10.17736998311392
1040
-0.3367596045400932
1040
-0.3367596045400932
1070
     0
1040
0.0110235143455945
1071
        1
1040
14.73245321214324
1040
2.798246178283421
1040
0.0
1002
}
  0
INSERT
  5
1FC8B
  8
0
  2
*X113
 10
0.0
 20
0.0
 30
0.0
1001
ACAD
1000
HATCH
1002
{
1070
    19
1000
ANSI37
1040
0.15
1040
0.0
1000
ASC_BOUNDS
1070
     2
1070
     2
1070
    13
1005
1FC4E
1005
1FC5B
1005
1FC5C
1005
1FC5A
1005
1FC5D
1005
1FC84
1005
1FC88
1005
1FC83
1005
1FC82
1005
1FC85
1005
1FC87
1005
1FC86
1005
1FC4F
1070
     2
1070
     3
1005
1FC68
1005
1FC6D
1005
1FC69
1000
ASC_SEEDPOINT
1011
21.97929957367762
1021
3.294304244259308
1031
0.0
1021
3.294304244259308
1031
0.0
1000
R14_HATCH_DATA
1000
1FC8B
1011
1.0
1021
0.0
1031
0.0
1021
0.0
1031
0.0
1011
0.0
1021
1.0
1031
0.0
1021
1.0
1031
0.0
1011
0.0
1021
0.0
1031
1.0
1021
0.0
1031
1.0
1040
0.0
1010
0.0
1020
0.0
1030
1.0
1000
ANSI37
1070
     0
1070
     1
1071
        2
1071
        7
1070
     1
1070
     1
1071
       15
1040
23.56599999997638
1040
8.999899999990987
1040
0.0
1040
19.53899999998043
1040
-0.0001000000000317
1040
0.0
1040
19.53899999998043
1040
0.0
1040
0.0
1040
21.09599999997886
1040
0.0
1040
0.0
1040
21.09599999997886
1040
-0.0001000000000317
1040
0.0
1040
22.15599999997789
1040
2.368399999997621
1040
0.0
1040
24.97599999997499
1040
2.368399999997621
1040
0.0
1040
26.02015566812236
1040
0.0330999999912365
1040
0.0
1040
28.40199999996923
1040
0.0330999999912365
1040
0.414213562373095
1040
30.74199999996923
1040
2.373099999991211
1040
0.0
1040
30.74199999996927
1040
8.763099999991255
1040
0.0
1040
29.30199999996933
1040
8.763099999991255
1040
0.0
1040
29.30199999996933
1040
2.283099999991236
1040
-0.414213562373095
1040
28.40199999996923
1040
1.383099999991237
1040
0.0
1040
26.97358892824991
1040
1.383099999991202
1040
0.0
1071
       13
1005
1FC4E
1005
1FC5B
1005
1FC5C
1005
1FC5A
1005
1FC5D
1005
1FC84
1005
1FC88
1005
1FC83
1005
1FC82
1005
1FC85
1005
1FC87
1005
1FC86
1005
1FC4F
1071
       22
1070
     0
1070
     1
1071
        3
1040
22.7389999999773
1040
3.670999999996297
1040
23.56599999997638
1040
5.5200999999945
1040
24.39299999997559
1040
3.670999999996297
1071
        3
1005
1FC68
1005
1FC6D
1005
1FC69
1070
     0
1070
     1
1040
0.0
1040
0.15
1070
     0
1070
     2
1040
0.7853981633974483
1040
49.29960901727088
1040
-10.17736998311392
1040
-0.3367596045400932
1040
0.3367596045400932
1070
     0
1040
2.356194490192345
1040
49.29960901727088
1040
-10.17736998311392
1040
-0.3367596045400932
1040
-0.3367596045400932
1070
     0
1040
0.0110235143455945
1071
        2
1040
21.97929957367762
1040
3.294304244259308
1040
0.0
1040
21.97929957367762
1040
3.294304244259308
1040
0.0
1002
}
  0
INSERT
  5
1FC8C
  8
0
  2
*X114
 10
0.0
 20
0.0
 30
0.0
1001
ACAD
1000
HATCH
1002
{
1070
    19
1000
ANSI37
1040
0.15
1040
0.0
1000
R14_HATCH_DATA
1000
1FC8C
1011
1.0
1021
0.0
1031
0.0
1021
0.0
1031
0.0
1011
0.0
1021
1.0
1031
0.0
1021
1.0
1031
0.0
1011
0.0
1021
0.0
1031
1.0
1021
0.0
1031
1.0
1040
0.0
1010
0.0
1020
0.0
1030
1.0
1000
ANSI37
1070
     0
1070
     1
1071
        1
1071
        7
1070
     1
1070
     1
1071
       12
1040
31.64199999996833
1040
2.481619422925121
1040
0.2679491924310942
1040
32.94699999997067
1040
0.2212931190493919
1040
0.2679491924301353
1040
36.36699999995983
1040
0.2212931190459813
1040
0.2679491924321411
1040
37.67199999996831
1040
2.481619422928361
1040
0.0
1040
37.67199999996831
1040
8.763099999991255
1040
0.0
1040
36.23199999996837
1040
8.763099999991255
1040
0.0
1040
36.23199999996837
1040
2.481619422925064
1040
-0.2679491924310291
1040
35.64699999996708
1040
1.468369700498386
1040
-0.267949192430519
1040
33.66699999997093
1040
1.468369700497703
1040
-0.267949192431809
1040
33.08199999996839
1040
2.481619422926997
1040
0.0
1040
33.08199999996839
1040
8.763099999991255
1040
0.0
1040
31.64199999996833
1040
8.763099999991255
1040
0.0
1071
        0
1070
     0
1070
     1
1040
0.0
1040
0.15
1070
     0
1070
     2
1040
0.7853981633974483
1040
49.29960901727088
1040
-10.17736998311392
1040
-0.3367596045400932
1040
0.3367596045400932
1070
     0
1040
2.356194490192345
1040
49.29960901727088
1040
-10.17736998311392
1040
-0.3367596045400932
1040
-0.3367596045400932
1070
     0
1040
0.0110235143455945
1071
        1
1040
32.30357378967278
1040
3.988785755459219
1040
0.0
1002
}
  0
INSERT
  5
1FC8D
  8
0
  2
*X115
 10
0.0
 20
0.0
 30
0.0
1001
ACAD
1000
HATCH
1002
{
1070
    19
1000
ANSI37
1040
0.15
1040
0.0
1000
ASC_BOUNDS
1070
     1
1070
     2
1070
     8
1005
1FC6E
1005
1FC71
1005
1FC75
1005
1FC74
1005
1FC73
1005
1FC70
1005
1FC72
1005
1FC6F
1000
ASC_SEEDPOINT
1011
39.74896370716704
1021
4.484843821435049
1031
0.0
1021
4.484843821435049
1031
0.0
1000
R14_HATCH_DATA
1000
1FC8D
1011
1.0
1021
0.0
1031
0.0
1021
0.0
1031
0.0
1011
0.0
1021
1.0
1031
0.0
1021
1.0
1031
0.0
1011
0.0
1021
0.0
1031
1.0
1021
0.0
1031
1.0
1040
0.0
1010
0.0
1020
0.0
1030
1.0
1000
ANSI37
1070
     0
1070
     1
1071
        1
1071
        7
1070
     0
1070
     1
1071
        9
1040
40.02599999995994
1040
5.341799999994635
1040
44.99999999995498
1040
-0.2368999999997641
1040
44.99999999995498
1040
8.763099999991255
1040
43.57899999995641
1040
8.763099999991255
1040
43.57899999995641
1040
3.421199999996588
1040
38.60499999996136
1040
8.999899999990987
1040
38.60499999996136
1040
8.999999999991019
1040
38.60499999996136
1040
0.0
1040
40.02599999995994
1040
0.0
1071
        8
1005
1FC6E
1005
1FC71
1005
1FC75
1005
1FC74
1005
1FC73
1005
1FC70
1005
1FC72
1005
1FC6F
1070
     0
1070
     1
1040
0.0
1040
0.15
1070
     0
1070
     2
1040
0.7853981633974483
1040
49.29960901727088
1040
-10.17736998311392
1040
-0.3367596045400932
1040
0.3367596045400932
1070
     0
1040
2.356194490192345
1040
49.29960901727088
1040
-10.17736998311392
1040
-0.3367596045400932
1040
-0.3367596045400932
1070
     0
1040
0.0110235143455945
1071
        1
1040
39.74896370716704
1040
4.484843821435049
1040
0.0
1002
}
  0
INSERT
  5
1FC8E
  8
0
  2
*X116
 10
0.0
 20
0.0
 30
0.0
1001
ACAD
1000
HATCH
1002
{
1070
    19
1000
ANSI37
1040
0.15
1040
0.0
1000
ASC_BOUNDS
1070
     1
1070
     2
1070
     4
1005
1FC52
1005
1FC61
1005
1FC53
1005
1FC55
1000
ASC_SEEDPOINT
1011
1.079051535452663
1021
4.148538732891836
1031
0.0
1021
4.148538732891836
1031
0.0
1000
R14_HATCH_DATA
1000
1FC8E
1011
1.0
1021
0.0
1031
0.0
1021
0.0
1031
0.0
1011
0.0
1021
1.0
1031
0.0
1021
1.0
1031
0.0
1011
0.0
1021
0.0
1031
1.0
1021
0.0
1031
1.0
1040
0.0
1010
0.0
1020
0.0
1030
1.0
1000
ANSI37
1070
     0
1070
     1
1071
        1
1071
        7
1070
     0
1070
     1
1071
        4
1040
1.420999999998571
1040
0.0
1040
1.420999999998571
1040
8.763099999991255
1040
0.0
1040
8.763099999991255
1040
0.0
1040
0.0
1071
        4
1005
1FC52
1005
1FC61
1005
1FC53
1005
1FC55
1070
     0
1070
     1
1040
0.0
1040
0.15
1070
     0
1070
     2
1040
0.7853981633974483
1040
49.29960901727088
1040
-10.17736998311392
1040
-0.3367596045400932
1040
0.3367596045400932
1070
     0
1040
2.356194490192345
1040
49.29960901727088
1040
-10.17736998311392
1040
-0.3367596045400932
1040
-0.3367596045400932
1070
     0
1040
0.0053004257112761
1071
        1
1040
1.079051535452663
1040
4.148538732891836
1040
0.0
1002
}
  0
ENDBLK
  5
20346
  8
0
  0
BLOCK
  8
0
  2
*X111
 70
     1
 10
0.0
 20
0.0
 30
0.0
  3
*X111
  1

  0
LINE
  5
237E1
  8
0
  6
CONTINUOUS
 10
3.418023043697893
 20
7.251849696850613
 30
0.0
 11
4.929273346838536
 21
8.763099999991255
 31
0.0
  0
LINE
  5
237E2
  8
0
  6
CONTINUOUS
 10
1.483656411257782
 20
4.643963855330318
 30
0.0
 11
5.60279255591872
 21
8.763099999991255
 31
0.0
  0
LINE
  5
237E3
  8
0
  6
CONTINUOUS
 10
1.755053947328235
 20
4.241842182320584
 30
0.0
 11
6.276311764998907
 21
8.763099999991255
 31
0.0
  0
LINE
  5
237E4
  8
0
  6
CONTINUOUS
 10
2.026451483398688
 20
3.839720509310849
 30
0.0
 11
4.441040904851878
 21
6.254309930764039
 31
0.0
  0
LINE
  5
237E5
  8
0
  6
CONTINUOUS
 10
2.297849019469139
 20
3.437598836301114
 30
0.0
 11
3.321765168359338
 21
4.461514985191313
 31
0.0
  0
LINE
  5
237E6
  8
0
  6
CONTINUOUS
 10
2.569246555539591
 20
3.03547716329138
 30
0.0
 11
3.593163397972743
 21
4.059394005724531
 31
0.0
  0
LINE
  5
237E7
  8
0
  6
CONTINUOUS
 10
2.840644091610043
 20
2.633355490281646
 30
0.0
 11
3.864561627586149
 21
3.657273026257751
 31
0.0
  0
LINE
  5
237E8
  8
0
  6
CONTINUOUS
 10
3.112041627680496
 20
2.231233817271911
 30
0.0
 11
4.135959857199554
 21
3.25515204679097
 31
0.0
  0
LINE
  5
237E9
  8
0
  6
CONTINUOUS
 10
3.383439163750948
 20
1.829112144262177
 30
0.0
 11
4.40735808681296
 21
2.853031067324189
 31
0.0
  0
LINE
  5
237EA
  8
0
  6
CONTINUOUS
 10
3.654836699821399
 20
1.426990471252442
 30
0.0
 11
4.678756316426365
 21
2.450910087857407
 31
0.0
  0
LINE
  5
237EB
  8
0
  6
CONTINUOUS
 10
3.926234235891853
 20
1.024868798242709
 30
0.0
 11
4.95015454603977
 21
2.048789108390626
 31
0.0
  0
LINE
  5
237EC
  8
0
  6
CONTINUOUS
 10
4.197631771962304
 20
0.6227471252329737
 30
0.0
 11
5.221552775653176
 21
1.646668128923846
 31
0.0
  0
LINE
  5
237ED
  8
0
  6
CONTINUOUS
 10
8.715877546767851
 20
7.835069736359266
 30
0.0
 11
9.435953450375058
 21
8.555145639966472
 31
0.0
  0
LINE
  5
237EE
  8
0
  6
CONTINUOUS
 10
8.170620868422267
 20
6.616293848933497
 30
0.0
 11
9.644120833743461
 21
8.08979381425469
 31
0.0
  0
LINE
  5
237EF
  8
0
  6
CONTINUOUS
 10
7.625364190076684
 20
5.397517961507727
 30
0.0
 11
9.852288217111864
 21
7.624441988542907
 31
0.0
  0
LINE
  5
237F0
  8
0
  6
CONTINUOUS
 10
7.080107511731101
 20
4.178742074081957
 30
0.0
 11
10.06045560048027
 21
7.159090162831124
 31
0.0
  0
LINE
  5
237F1
  8
0
  6
CONTINUOUS
 10
6.534850833385518
 20
2.959966186656187
 30
0.0
 11
10.26862298384867
 21
6.693738337119342
 31
0.0
  0
LINE
  5
237F2
  8
0
  6
CONTINUOUS
 10
4.469029308032756
 20
0.2206254522232385
 30
0.0
 11
5.492951005266582
 21
1.244547149457064
 31
0.0
  0
LINE
  5
237F3
  8
0
  6
CONTINUOUS
 10
5.989594155039935
 20
1.741190299230417
 30
0.0
 11
8.806950407233131
 21
4.558546551423613
 31
0.0
  0
LINE
  5
237F4
  8
0
  6
CONTINUOUS
 10
9.401251593263643
 20
5.152847737454126
 30
0.0
 11
10.47679036721708
 21
6.228386511407559
 31
0.0
  0
LINE
  5
237F5
  8
0
  6
CONTINUOUS
 10
4.921837203428691
 20
-0.0000858614610131
 30
0.0
 11
8.592923064886001
 21
3.670999999996297
 31
0.0
  0
LINE
  5
237F6
  8
0
  6
CONTINUOUS
 10
9.609390446785305
 20
4.6874673818956
 30
0.0
 11
10.68495775058548
 21
5.763034685695775
 31
0.0
  0
LINE
  5
237F7
  8
0
  6
CONTINUOUS
 10
5.595387755019432
 20
-0.0000545189504582
 30
0.0
 11
7.716137258923768
 21
2.120694984953879
 31
0.0
  0
LINE
  5
237F8
  8
0
  6
CONTINUOUS
 10
6.268938306610172
 20
-0.000023176439905
 30
0.0
 11
7.170485805526503
 21
0.9015243224764267
 31
0.0
  0
LINE
  5
237F9
  8
0
  6
CONTINUOUS
 10
7.963842273967511
 20
2.368399999997621
 30
0.0
 11
9.266442273966188
 21
3.670999999996297
 31
0.0
  0
LINE
  5
237FA
  8
0
  6
CONTINUOUS
 10
8.637361483047696
 20
2.368399999997621
 30
0.0
 11
9.939961483046375
 21
3.670999999996297
 31
0.0
  0
LINE
  5
237FB
  8
0
  6
CONTINUOUS
 10
9.817529300306965
 20
4.222087026337075
 30
0.0
 11
10.89312513395388
 21
5.297682859983993
 31
0.0
  0
LINE
  5
237FC
  8
0
  6
CONTINUOUS
 10
10.02566815382863
 20
3.756706670778549
 30
0.0
 11
11.10129251732229
 21
4.832331034272211
 31
0.0
  0
LINE
  5
237FD
  8
0
  6
CONTINUOUS
 10
9.310880692127883
 20
2.368399999997621
 30
0.0
 11
11.30945990069069
 21
4.366979208560428
 31
0.0
  0
LINE
  5
237FE
  8
0
  6
CONTINUOUS
 10
9.98439990120807
 20
2.36839999999762
 30
0.0
 11
11.5176272840591
 21
3.901627382848645
 31
0.0
  0
LINE
  5
237FF
  8
0
  6
CONTINUOUS
 10
10.65037369446246
 20
2.36085458417182
 30
0.0
 11
11.7257946674275
 21
3.436275557136862
 31
0.0
  0
LINE
  5
23800
  8
0
  6
CONTINUOUS
 10
10.85847197087848
 20
1.895433651507656
 30
0.0
 11
11.9339620507959
 21
2.97092373142508
 31
0.0
  0
LINE
  5
23801
  8
0
  6
CONTINUOUS
 10
11.0665702472945
 20
1.430012718843491
 30
0.0
 11
12.14212943416431
 21
2.505571905713296
 31
0.0
  0
LINE
  5
23802
  8
0
  6
CONTINUOUS
 10
11.27466852371052
 20
0.9645917861793256
 30
0.0
 11
12.35029681753271
 21
2.040220080001513
 31
0.0
  0
LINE
  5
23803
  8
0
  6
CONTINUOUS
 10
11.48276680012654
 20
0.4991708535151611
 30
0.0
 11
12.55846420090111
 21
1.57486825428973
 31
0.0
  0
LINE
  5
23804
  8
0
  6
CONTINUOUS
 10
11.69086507654257
 20
0.0337499208509957
 30
0.0
 11
12.76663158426952
 21
1.109516428577947
 31
0.0
  0
LINE
  5
23805
  8
0
  6
CONTINUOUS
 10
12.33057447873954
 20
-0.0000598860322123
 30
0.0
 11
12.97479896763792
 21
0.6441646028661663
 31
0.0
  0
LINE
  5
23806
  8
0
  6
CONTINUOUS
 10
13.00413694809395
 20
-0.0000166257579952
 30
0.0
 11
13.18296635100632
 21
0.1788127771543824
 31
0.0
  0
LINE
  5
23807
  8
0
  6
CONTINUOUS
 10
4.772852165289667
 20
-0.000092794222212
 30
0.0
 11
4.296495091028902
 21
0.4762642800385528
 31
0.0
  0
LINE
  5
23808
  8
0
  6
CONTINUOUS
 10
5.446340034776103
 20
-0.0000614546284616
 30
0.0
 11
2.898195908335625
 21
2.548082671812017
 31
0.0
  0
LINE
  5
23809
  8
0
  6
CONTINUOUS
 10
6.119827904262539
 20
-0.0000301150347113
 30
0.0
 11
1.499896725642348
 21
4.61990106358548
 31
0.0
  0
LINE
  5
2380A
  8
0
  6
CONTINUOUS
 10
6.775136745476159
 20
0.0181802528318542
 30
0.0
 11
5.699826040202669
 21
1.093490958105344
 31
0.0
  0
LINE
  5
2380B
  8
0
  6
CONTINUOUS
 10
6.983376846288489
 20
0.4834593610997118
 30
0.0
 11
5.908008617934405
 21
1.558827589453796
 31
0.0
  0
LINE
  5
2380C
  8
0
  6
CONTINUOUS
 10
5.377063484962296
 20
1.416253513345719
 30
0.0
 11
1.702276957014131
 21
5.091040041293883
 31
0.0
  0
LINE
  5
2380D
  8
0
  6
CONTINUOUS
 10
3.978745891735324
 20
3.488090315652877
 30
0.0
 11
2.000373521109399
 21
5.466462686278803
 31
0.0
  0
LINE
  5
2380E
  8
0
  6
CONTINUOUS
 10
7.191616947100819
 20
0.948738469367568
 30
0.0
 11
6.11619119566614
 21
2.024164220802247
 31
0.0
  0
LINE
  5
2380F
  8
0
  6
CONTINUOUS
 10
7.399857047913149
 20
1.414017577635424
 30
0.0
 11
6.324373773397875
 21
2.489500852150698
 31
0.0
  0
LINE
  5
23810
  8
0
  6
CONTINUOUS
 10
7.608097148725479
 20
1.879296685903281
 30
0.0
 11
6.53255635112961
 21
2.95483748349915
 31
0.0
  0
LINE
  5
23811
  8
0
  6
CONTINUOUS
 10
7.816337249537808
 20
2.344575794171138
 30
0.0
 11
6.740738928861345
 21
3.420174114847601
 31
0.0
  0
LINE
  5
23812
  8
0
  6
CONTINUOUS
 10
3.310241080789734
 20
4.830114335678653
 30
0.0
 11
2.298470085204666
 21
5.84188533126372
 31
0.0
  0
LINE
  5
23813
  8
0
  6
CONTINUOUS
 10
3.60832983563551
 20
5.205544789913063
 30
0.0
 11
2.596566649299935
 21
6.217307976248638
 31
0.0
  0
LINE
  5
23814
  8
0
  6
CONTINUOUS
 10
3.906418590481286
 20
5.580975244147473
 30
0.0
 11
2.894663213395203
 21
6.592730621233557
 31
0.0
  0
LINE
  5
23815
  8
0
  6
CONTINUOUS
 10
4.204507345327062
 20
5.956405698381884
 30
0.0
 11
3.192759777490472
 21
6.968153266218474
 31
0.0
  0
LINE
  5
23816
  8
0
  6
CONTINUOUS
 10
8.466032252791512
 20
2.368399999997621
 30
0.0
 11
6.948921506593081
 21
3.885510746196053
 31
0.0
  0
LINE
  5
23817
  8
0
  6
CONTINUOUS
 10
9.139551461871699
 20
2.36839999999762
 30
0.0
 11
7.157104084324816
 21
4.350847377544504
 31
0.0
  0
LINE
  5
23818
  8
0
  6
CONTINUOUS
 10
4.502596100172839
 20
6.331836152616295
 30
0.0
 11
3.49085634158574
 21
7.343575911203393
 31
0.0
  0
LINE
  5
23819
  8
0
  6
CONTINUOUS
 10
4.800684855018615
 20
6.707266606850705
 30
0.0
 11
3.788952905681008
 21
7.718998556188312
 31
0.0
  0
LINE
  5
2381A
  8
0
  6
CONTINUOUS
 10
12.18154012887317
 20
-0.0000694579236642
 30
0.0
 11
11.32140332908496
 21
0.8600673418645499
 31
0.0
  0
LINE
  5
2381B
  8
0
  6
CONTINUOUS
 10
12.85501608323566
 20
-0.0000262032059659
 30
0.0
 11
10.77672456435345
 21
2.078265315676246
 31
0.0
  0
LINE
  5
2381C
  8
0
  6
CONTINUOUS
 10
9.813070670951886
 20
2.36839999999762
 30
0.0
 11
8.51047067095321
 21
3.670999999996297
 31
0.0
  0
LINE
  5
2381D
  8
0
  6
CONTINUOUS
 10
10.48658988003207
 20
2.36839999999762
 30
0.0
 11
9.183989880033396
 21
3.670999999996297
 31
0.0
  0
LINE
  5
2381E
  8
0
  6
CONTINUOUS
 10
8.441048632286794
 20
3.740422038662712
 30
0.0
 11
7.365286662056551
 21
4.816184008892956
 31
0.0
  0
LINE
  5
2381F
  8
0
  6
CONTINUOUS
 10
8.649187485808454
 20
4.205802394221237
 30
0.0
 11
7.573469239788285
 21
5.281520640241407
 31
0.0
  0
LINE
  5
23820
  8
0
  6
CONTINUOUS
 10
5.098773609864391
 20
7.082697061085115
 30
0.0
 11
4.087049469776277
 21
8.09442120117323
 31
0.0
  0
LINE
  5
23821
  8
0
  6
CONTINUOUS
 10
5.396862364710167
 20
7.458127515319526
 30
0.0
 11
4.385146033871544
 21
8.469843846158149
 31
0.0
  0
LINE
  5
23822
  8
0
  6
CONTINUOUS
 10
13.04801363231285
 20
0.4804954567970334
 30
0.0
 11
9.85750908911358
 21
3.670999999996297
 31
0.0
  0
LINE
  5
23823
  8
0
  6
CONTINUOUS
 10
8.857326339330116
 20
4.671182749779763
 30
0.0
 11
7.781651817520021
 21
5.746857271589858
 31
0.0
  0
LINE
  5
23824
  8
0
  6
CONTINUOUS
 10
5.694951119555943
 20
7.833557969553937
 30
0.0
 11
4.765409089118624
 21
8.763099999991255
 31
0.0
  0
LINE
  5
23825
  8
0
  6
CONTINUOUS
 10
12.50286117236978
 20
1.699167125820288
 30
0.0
 11
9.68611877250287
 21
4.515909525687196
 31
0.0
  0
LINE
  5
23826
  8
0
  6
CONTINUOUS
 10
9.065465192851777
 20
5.136563105338288
 30
0.0
 11
7.989834395251757
 21
6.21219390293831
 31
0.0
  0
LINE
  5
23827
  8
0
  6
CONTINUOUS
 10
5.993039874401719
 20
8.208988423788346
 30
0.0
 11
5.43892829819881
 21
8.763099999991255
 31
0.0
  0
LINE
  5
23828
  8
0
  6
CONTINUOUS
 10
11.95770871242671
 20
2.917838794843543
 30
0.0
 11
8.19801697298349
 21
6.677530534286761
 31
0.0
  0
LINE
  5
23829
  8
0
  6
CONTINUOUS
 10
6.291128629247495
 20
8.584418878022756
 30
0.0
 11
6.112447507278997
 21
8.763099999991255
 31
0.0
  0
LINE
  5
2382A
  8
0
  6
CONTINUOUS
 10
11.41255625248364
 20
4.136510463866797
 30
0.0
 11
8.406199550715227
 21
7.142867165635211
 31
0.0
  0
LINE
  5
2382B
  8
0
  6
CONTINUOUS
 10
10.86740379254057
 20
5.355182132890051
 30
0.0
 11
8.614382128446962
 21
7.608203796983664
 31
0.0
  0
LINE
  5
2382C
  8
0
  6
CONTINUOUS
 10
10.3222513325975
 20
6.573853801913305
 30
0.0
 11
8.822564706178696
 21
8.073540428332114
 31
0.0
  0
LINE
  5
2382D
  8
0
  6
CONTINUOUS
 10
9.777098872654436
 20
7.792525470936562
 30
0.0
 11
9.030747283910433
 21
8.538877059680566
 31
0.0
  0
ENDBLK
  5
2396E
  8
0
  0
BLOCK
  8
0
  2
*X112
 70
     1
 10
0.0
 20
0.0
 30
0.0
  3
*X112
  1

  0
LINE
  5
2382F
  8
0
  6
CONTINUOUS
 10
10.67292308101235
 20
8.445076852443387
 30
0.0
 11
10.99094622856022
 21
8.763099999991255
 31
0.0
  0
LINE
  5
23830
  8
0
  6
CONTINUOUS
 10
10.87250383178748
 20
7.971138394138331
 30
0.0
 11
11.6644654376404
 21
8.763099999991255
 31
0.0
  0
LINE
  5
23831
  8
0
  6
CONTINUOUS
 10
11.07208458256261
 20
7.497199935833273
 30
0.0
 11
12.12126590876355
 21
8.546381262034211
 31
0.0
  0
LINE
  5
23832
  8
0
  6
CONTINUOUS
 10
11.27166533333774
 20
7.023261477528216
 30
0.0
 11
12.32085164573666
 21
8.072447789927136
 31
0.0
  0
LINE
  5
23833
  8
0
  6
CONTINUOUS
 10
11.47124608411287
 20
6.549323019223158
 30
0.0
 11
12.52043738270977
 21
7.59851431782006
 31
0.0
  0
LINE
  5
23834
  8
0
  6
CONTINUOUS
 10
11.670826834888
 20
6.075384560918101
 30
0.0
 11
12.72002311968288
 21
7.124580845712984
 31
0.0
  0
LINE
  5
23835
  8
0
  6
CONTINUOUS
 10
11.87040758566313
 20
5.601446102613043
 30
0.0
 11
12.91960885665599
 21
6.650647373605907
 31
0.0
  0
LINE
  5
23836
  8
0
  6
CONTINUOUS
 10
12.06998833643825
 20
5.127507644307986
 30
0.0
 11
13.1191945936291
 21
6.176713901498832
 31
0.0
  0
LINE
  5
23837
  8
0
  6
CONTINUOUS
 10
12.26956908721338
 20
4.65356918600293
 30
0.0
 11
13.31878033060221
 21
5.702780429391757
 31
0.0
  0
LINE
  5
23838
  8
0
  6
CONTINUOUS
 10
12.46914983798851
 20
4.179630727697873
 30
0.0
 11
13.51836606757532
 21
5.228846957284683
 31
0.0
  0
LINE
  5
23839
  8
0
  6
CONTINUOUS
 10
12.66873058876364
 20
3.705692269392816
 30
0.0
 11
13.71795180454843
 21
4.754913485177607
 31
0.0
  0
LINE
  5
2383A
  8
0
  6
CONTINUOUS
 10
12.86831133953877
 20
3.231753811087759
 30
0.0
 11
13.91753754152154
 21
4.280980013070531
 31
0.0
  0
LINE
  5
2383B
  8
0
  6
CONTINUOUS
 10
13.0678920903139
 20
2.757815352782702
 30
0.0
 11
14.11712327849465
 21
3.807046540963456
 31
0.0
  0
LINE
  5
2383C
  8
0
  6
CONTINUOUS
 10
13.26747284108903
 20
2.283876894477644
 30
0.0
 11
14.31670901546777
 21
3.333113068856379
 31
0.0
  0
LINE
  5
2383D
  8
0
  6
CONTINUOUS
 10
16.36767838827179
 20
8.751678487061342
 30
0.0
 11
16.50332410898388
 21
8.887324207773432
 31
0.0
  0
LINE
  5
2383E
  8
0
  6
CONTINUOUS
 10
15.96190732182191
 20
7.67238821153127
 30
0.0
 11
16.68735328004734
 21
8.397834169756699
 31
0.0
  0
LINE
  5
2383F
  8
0
  6
CONTINUOUS
 10
15.55613625537202
 20
6.593097936001196
 30
0.0
 11
16.87138245111079
 21
7.908344131739965
 31
0.0
  0
LINE
  5
23840
  8
0
  6
CONTINUOUS
 10
15.15036518892213
 20
5.513807660471122
 30
0.0
 11
17.05541162217424
 21
7.418854093723231
 31
0.0
  0
LINE
  5
23841
  8
0
  6
CONTINUOUS
 10
14.74459412247225
 20
4.434517384941048
 30
0.0
 11
17.2394407932377
 21
6.929364055706499
 31
0.0
  0
LINE
  5
23842
  8
0
  6
CONTINUOUS
 10
14.33882305602236
 20
3.355227109410975
 30
0.0
 11
17.42346996430115
 21
6.439874017689766
 31
0.0
  0
LINE
  5
23843
  8
0
  6
CONTINUOUS
 10
13.46705359186416
 20
1.809938436172586
 30
0.0
 11
16.0819338255367
 21
4.424818669845129
 31
0.0
  0
LINE
  5
23844
  8
0
  6
CONTINUOUS
 10
16.63283254238972
 20
4.975717386698149
 30
0.0
 11
17.60749913536461
 21
5.950383979673033
 31
0.0
  0
LINE
  5
23845
  8
0
  6
CONTINUOUS
 10
13.66663434263929
 20
1.335999977867529
 30
0.0
 11
15.67604797733754
 21
3.345413612565779
 31
0.0
  0
LINE
  5
23846
  8
0
  6
CONTINUOUS
 10
13.86621509341442
 20
0.8620615195624723
 30
0.0
 11
15.27016212913838
 21
2.26600855528643
 31
0.0
  0
LINE
  5
23847
  8
0
  6
CONTINUOUS
 10
16.81682257348267
 20
4.486188208710908
 30
0.0
 11
17.79152830642806
 21
5.460893941656299
 31
0.0
  0
LINE
  5
23848
  8
0
  6
CONTINUOUS
 10
17.00081260457561
 20
3.996659030723667
 30
0.0
 11
17.97555747749151
 21
4.971403903639565
 31
0.0
  0
LINE
  5
23849
  8
0
  6
CONTINUOUS
 10
20.74362343514722
 20
8.412989070375462
 30
0.0
 11
21.09373436476302
 21
8.763099999991256
 31
0.0
  0
LINE
  5
2384A
  8
0
  6
CONTINUOUS
 10
20.25401257174777
 20
7.249858997895826
 30
0.0
 11
21.7672535738432
 21
8.763099999991255
 31
0.0
  0
LINE
  5
2384B
  8
0
  6
CONTINUOUS
 10
14.06579584418955
 20
0.3881230612574149
 30
0.0
 11
14.86427628093921
 21
1.186603498007082
 31
0.0
  0
LINE
  5
2384C
  8
0
  6
CONTINUOUS
 10
14.26537659496467
 20
-0.0858153970476412
 30
0.0
 11
14.45839043274005
 21
0.1071984407277329
 31
0.0
  0
LINE
  5
2384D
  8
0
  6
CONTINUOUS
 10
17.18480263566856
 20
3.507129852736426
 30
0.0
 11
18.15958664855496
 21
4.481913865622833
 31
0.0
  0
LINE
  5
2384E
  8
0
  6
CONTINUOUS
 10
17.3687926667615
 20
3.017600674749186
 30
0.0
 11
18.34361581961842
 21
3.9924238276061
 31
0.0
  0
LINE
  5
2384F
  8
0
  6
CONTINUOUS
 10
19.76440170834832
 20
6.086728925416191
 30
0.0
 11
22.33924590259489
 21
8.661573119662755
 31
0.0
  0
LINE
  5
23850
  8
0
  6
CONTINUOUS
 10
19.27479084494887
 20
4.923598852936555
 30
0.0
 11
21.84929622842713
 21
7.498104236414807
 31
0.0
  0
LINE
  5
23851
  8
0
  6
CONTINUOUS
 10
17.55278269785445
 20
2.528071496761945
 30
0.0
 11
18.52764499068187
 21
3.502933789589366
 31
0.0
  0
LINE
  5
23852
  8
0
  6
CONTINUOUS
 10
18.78517998154942
 20
3.760468780456919
 30
0.0
 11
21.35934655425936
 21
6.33463535316686
 31
0.0
  0
LINE
  5
23853
  8
0
  6
CONTINUOUS
 10
17.73677272894739
 20
2.038542318774704
 30
0.0
 11
20.8693968800916
 21
5.171166469918914
 31
0.0
  0
LINE
  5
23854
  8
0
  6
CONTINUOUS
 10
17.92076276004034
 20
1.549013140787464
 30
0.0
 11
20.37944720592384
 21
4.007697586670968
 31
0.0
  0
LINE
  5
23855
  8
0
  6
CONTINUOUS
 10
18.10475279113329
 20
1.059483962800223
 30
0.0
 11
19.88949753175608
 21
2.84422870342302
 31
0.0
  0
LINE
  5
23856
  8
0
  6
CONTINUOUS
 10
18.28874282222623
 20
0.5699547848129822
 30
0.0
 11
19.39954785758832
 21
1.680759820175074
 31
0.0
  0
LINE
  5
23857
  8
0
  6
CONTINUOUS
 10
18.47273285331918
 20
0.0804256068257416
 30
0.0
 11
18.90959818342056
 21
0.517290936927127
 31
0.0
  0
LINE
  5
23858
  8
0
  6
CONTINUOUS
 10
14.3590401358224
 20
-0.1570118376323384
 30
0.0
 11
14.24903296539946
 21
-0.0470046672093929
 31
0.0
  0
LINE
  5
23859
  8
0
  6
CONTINUOUS
 10
14.54309291258661
 20
0.332454594683643
 30
0.0
 11
13.75908329123172
 21
1.116464216038529
 31
0.0
  0
LINE
  5
2385A
  8
0
  6
CONTINUOUS
 10
14.72714568935081
 20
0.8219210269996244
 30
0.0
 11
13.26913361706399
 21
2.27993309928645
 31
0.0
  0
LINE
  5
2385B
  8
0
  6
CONTINUOUS
 10
14.91119846611502
 20
1.311387459315606
 30
0.0
 11
12.77918394289625
 21
3.443401982534371
 31
0.0
  0
LINE
  5
2385C
  8
0
  6
CONTINUOUS
 10
15.09525124287922
 20
1.800853891631587
 30
0.0
 11
12.28923426872852
 21
4.606870865782293
 31
0.0
  0
LINE
  5
2385D
  8
0
  6
CONTINUOUS
 10
15.27930401964343
 20
2.290320323947569
 30
0.0
 11
11.79928459456078
 21
5.770339749030213
 31
0.0
  0
LINE
  5
2385E
  8
0
  6
CONTINUOUS
 10
15.46335679640763
 20
2.77978675626355
 30
0.0
 11
14.48885470994921
 21
3.754288842721972
 31
0.0
  0
LINE
  5
2385F
  8
0
  6
CONTINUOUS
 10
13.88507249233704
 20
4.358071060334137
 30
0.0
 11
11.30933492039305
 21
6.933808632278135
 31
0.0
  0
LINE
  5
23860
  8
0
  6
CONTINUOUS
 10
18.75840522805855
 20
0.1582575336928151
 30
0.0
 11
18.25383727664818
 21
0.6628254851031863
 31
0.0
  0
LINE
  5
23861
  8
0
  6
CONTINUOUS
 10
15.64740957317184
 20
3.269253188579531
 30
0.0
 11
14.67288388101266
 21
4.243778880738705
 31
0.0
  0
LINE
  5
23862
  8
0
  6
CONTINUOUS
 10
13.39509276772158
 20
5.521569994029786
 30
0.0
 11
10.81938524622531
 21
8.097277515526056
 31
0.0
  0
LINE
  5
23863
  8
0
  6
CONTINUOUS
 10
18.95798597883369
 20
0.6321959919978686
 30
0.0
 11
17.84825644852853
 21
1.741925522303024
 31
0.0
  0
LINE
  5
23864
  8
0
  6
CONTINUOUS
 10
19.15756672960882
 20
1.106134450302922
 30
0.0
 11
17.44267562040888
 21
2.821025559502861
 31
0.0
  0
LINE
  5
23865
  8
0
  6
CONTINUOUS
 10
15.83146234993604
 20
3.758719620895513
 30
0.0
 11
14.85691305207612
 21
4.733268918755439
 31
0.0
  0
LINE
  5
23866
  8
0
  6
CONTINUOUS
 10
16.01551512670025
 20
4.248186053211494
 30
0.0
 11
15.04094222313957
 21
5.222758956772172
 31
0.0
  0
LINE
  5
23867
  8
0
  6
CONTINUOUS
 10
12.90511304310612
 20
6.685068927725435
 30
0.0
 11
10.8270819708403
 21
8.763099999991255
 31
0.0
  0
LINE
  5
23868
  8
0
  6
CONTINUOUS
 10
12.41513331849066
 20
7.848567861421083
 30
0.0
 11
11.50060117992049
 21
8.763099999991255
 31
0.0
  0
LINE
  5
23869
  8
0
  6
CONTINUOUS
 10
19.35714748038395
 20
1.580072908607975
 30
0.0
 11
17.03709479228923
 21
3.900125596702697
 31
0.0
  0
LINE
  5
2386A
  8
0
  6
CONTINUOUS
 10
19.55672823115909
 20
2.054011366913028
 30
0.0
 11
16.63151396416958
 21
4.979225633902534
 31
0.0
  0
LINE
  5
2386B
  8
0
  6
CONTINUOUS
 10
16.19956790346445
 20
4.737652485527476
 30
0.0
 11
15.22497139420302
 21
5.712248994788904
 31
0.0
  0
LINE
  5
2386C
  8
0
  6
CONTINUOUS
 10
16.38362068022866
 20
5.227118917843457
 30
0.0
 11
15.40900056526648
 21
6.201739032805637
 31
0.0
  0
LINE
  5
2386D
  8
0
  6
CONTINUOUS
 10
19.75630898193422
 20
2.527949825218081
 30
0.0
 11
18.70774536448286
 21
3.576513442669441
 31
0.0
  0
LINE
  5
2386E
  8
0
  6
CONTINUOUS
 10
19.95588973270936
 20
3.001888283523134
 30
0.0
 11
18.90726987211446
 21
4.050508144118028
 31
0.0
  0
LINE
  5
2386F
  8
0
  6
CONTINUOUS
 10
20.15547048348449
 20
3.475826741828186
 30
0.0
 11
19.10679437974606
 21
4.524502845566614
 31
0.0
  0
LINE
  5
23870
  8
0
  6
CONTINUOUS
 10
20.35505123425962
 20
3.94976520013324
 30
0.0
 11
19.30631888737766
 21
4.998497547015201
 31
0.0
  0
LINE
  5
23871
  8
0
  6
CONTINUOUS
 10
20.55463198503475
 20
4.423703658438292
 30
0.0
 11
19.50584339500926
 21
5.472492248463787
 31
0.0
  0
LINE
  5
23872
  8
0
  6
CONTINUOUS
 10
18.37481191085755
 20
3.909446896294752
 30
0.0
 11
15.59302973632993
 21
6.691229070822371
 31
0.0
  0
LINE
  5
23873
  8
0
  6
CONTINUOUS
 10
17.96904084440766
 20
4.988737171824825
 30
0.0
 11
15.77705890739338
 21
7.180719108839104
 31
0.0
  0
LINE
  5
23874
  8
0
  6
CONTINUOUS
 10
17.56326977795777
 20
6.068027447354899
 30
0.0
 11
15.96108807845684
 21
7.670209146855838
 31
0.0
  0
LINE
  5
23875
  8
0
  6
CONTINUOUS
 10
17.15749871150789
 20
7.147317722884972
 30
0.0
 11
16.14511724952029
 21
8.15969918487257
 31
0.0
  0
LINE
  5
23876
  8
0
  6
CONTINUOUS
 10
16.751727645058
 20
8.226607998415046
 30
0.0
 11
16.32914642058374
 21
8.649189222889303
 31
0.0
  0
LINE
  5
23877
  8
0
  6
CONTINUOUS
 10
20.75421273580989
 20
4.897642116743345
 30
0.0
 11
19.70536790264086
 21
5.946486949912374
 31
0.0
  0
LINE
  5
23878
  8
0
  6
CONTINUOUS
 10
20.95379348658502
 20
5.371580575048398
 30
0.0
 11
19.90489241027246
 21
6.42048165136096
 31
0.0
  0
LINE
  5
23879
  8
0
  6
CONTINUOUS
 10
21.15337423736015
 20
5.845519033353452
 30
0.0
 11
20.10441691790406
 21
6.894476352809547
 31
0.0
  0
LINE
  5
2387A
  8
0
  6
CONTINUOUS
 10
21.35295498813529
 20
6.319457491658505
 30
0.0
 11
20.30394142553566
 21
7.368471054258134
 31
0.0
  0
LINE
  5
2387B
  8
0
  6
CONTINUOUS
 10
21.55253573891042
 20
6.793395949963558
 30
0.0
 11
20.50346593316726
 21
7.842465755706721
 31
0.0
  0
LINE
  5
2387C
  8
0
  6
CONTINUOUS
 10
21.75211648968556
 20
7.267334408268612
 30
0.0
 11
20.70299044079886
 21
8.316460457155308
 31
0.0
  0
LINE
  5
2387D
  8
0
  6
CONTINUOUS
 10
21.95169724046069
 20
7.741272866573663
 30
0.0
 11
20.9298701070431
 21
8.763099999991256
 31
0.0
  0
LINE
  5
2387E
  8
0
  6
CONTINUOUS
 10
22.15127799123582
 20
8.215211324878716
 30
0.0
 11
21.60338931612328
 21
8.763099999991256
 31
0.0
  0
LINE
  5
2387F
  8
0
  6
CONTINUOUS
 10
22.35085874201096
 20
8.689149783183769
 30
0.0
 11
22.27690852520347
 21
8.763099999991255
 31
0.0
  0
ENDBLK
  5
23970
  8
0
  0
BLOCK
  8
0
  2
*X113
 70
     1
 10
0.0
 20
0.0
 30
0.0
  3
*X113
  1

  0
LINE
  5
23881
  8
0
  6
CONTINUOUS
 10
23.19462913593892
 20
8.169917934846424
 30
0.0
 11
23.70775465517246
 21
8.683043454079957
 31
0.0
  0
LINE
  5
23882
  8
0
  6
CONTINUOUS
 10
22.64923161835078
 20
6.951001208178088
 30
0.0
 11
23.9159364069932
 21
8.217705996820516
 31
0.0
  0
LINE
  5
23883
  8
0
  6
CONTINUOUS
 10
22.10383410076263
 20
5.732084481509751
 30
0.0
 11
24.12411815881395
 21
7.752368539561078
 31
0.0
  0
LINE
  5
23884
  8
0
  6
CONTINUOUS
 10
21.55843658317447
 20
4.513167754841414
 30
0.0
 11
24.3322999106347
 21
7.287031082301639
 31
0.0
  0
LINE
  5
23885
  8
0
  6
CONTINUOUS
 10
21.01303906558632
 20
3.294251028173077
 30
0.0
 11
24.54048166245544
 21
6.821693625042199
 31
0.0
  0
LINE
  5
23886
  8
0
  6
CONTINUOUS
 10
20.46764154799817
 20
2.075334301504738
 30
0.0
 11
23.28571549467848
 21
4.89340824818505
 31
0.0
  0
LINE
  5
23887
  8
0
  6
CONTINUOUS
 10
19.92224403041002
 20
0.8564175748364002
 30
0.0
 11
22.74075865492779
 21
3.674932199354171
 31
0.0
  0
LINE
  5
23888
  8
0
  6
CONTINUOUS
 10
23.67305085490148
 20
5.280743608408048
 30
0.0
 11
24.74866341427619
 21
6.356356167782759
 31
0.0
  0
LINE
  5
23889
  8
0
  6
CONTINUOUS
 10
23.88118970842314
 20
4.815363252849522
 30
0.0
 11
24.95684516609694
 21
5.89101871052332
 31
0.0
  0
LINE
  5
2388A
  8
0
  6
CONTINUOUS
 10
19.73925852647308
 20
-0.0000871381807288
 30
0.0
 11
23.4103456646501
 21
3.670999999996297
 31
0.0
  0
LINE
  5
2388B
  8
0
  6
CONTINUOUS
 10
24.0893285619448
 20
4.349982897290997
 30
0.0
 11
25.16502691791769
 21
5.42568125326388
 31
0.0
  0
LINE
  5
2388C
  8
0
  6
CONTINUOUS
 10
20.41282099582748
 20
-0.0000438779065108
 30
0.0
 11
21.64944178675636
 21
1.236576913022366
 31
0.0
  0
LINE
  5
2388D
  8
0
  6
CONTINUOUS
 10
22.78126487373161
 20
2.36839999999762
 30
0.0
 11
24.08386487373029
 21
3.670999999996297
 31
0.0
  0
LINE
  5
2388E
  8
0
  6
CONTINUOUS
 10
24.29746741546646
 20
3.884602541732471
 30
0.0
 11
25.37320866973843
 21
4.960343796004441
 31
0.0
  0
LINE
  5
2388F
  8
0
  6
CONTINUOUS
 10
21.08638346518189
 20
-0.0000006176322938
 30
0.0
 11
21.10379033335899
 21
0.0174062505448083
 31
0.0
  0
LINE
  5
23890
  8
0
  6
CONTINUOUS
 10
23.4547840828118
 20
2.36839999999762
 30
0.0
 11
25.58139042155918
 21
4.495006338745002
 31
0.0
  0
LINE
  5
23891
  8
0
  6
CONTINUOUS
 10
29.30199999996933
 20
8.215615917155148
 30
0.0
 11
29.84948408280543
 21
8.763099999991255
 31
0.0
  0
LINE
  5
23892
  8
0
  6
CONTINUOUS
 10
24.12830329189199
 20
2.36839999999762
 30
0.0
 11
25.78957217337993
 21
4.029668881485562
 31
0.0
  0
LINE
  5
23893
  8
0
  6
CONTINUOUS
 10
29.30199999996933
 20
7.54209670807496
 30
0.0
 11
30.52300329188562
 21
8.763099999991255
 31
0.0
  0
LINE
  5
23894
  8
0
  6
CONTINUOUS
 10
24.80182250097217
 20
2.36839999999762
 30
0.0
 11
25.99775392520067
 21
3.564331424226122
 31
0.0
  0
LINE
  5
23895
  8
0
  6
CONTINUOUS
 10
29.30199999996933
 20
6.868577498994774
 30
0.0
 11
30.74199999996926
 21
8.308577498994712
 31
0.0
  0
LINE
  5
23896
  8
0
  6
CONTINUOUS
 10
25.13028238392013
 20
2.023340673865392
 30
0.0
 11
26.20593567702142
 21
3.098993966966683
 31
0.0
  0
LINE
  5
23897
  8
0
  6
CONTINUOUS
 10
25.33838066033617
 20
1.557919741201244
 30
0.0
 11
26.41411742884217
 21
2.633656509707244
 31
0.0
  0
LINE
  5
23898
  8
0
  6
CONTINUOUS
 10
25.54647893675221
 20
1.092498808537098
 30
0.0
 11
26.62229918066291
 21
2.168319052447804
 31
0.0
  0
LINE
  5
23899
  8
0
  6
CONTINUOUS
 10
25.75457721316825
 20
0.62707787587295
 30
0.0
 11
26.83048093248366
 21
1.702981595188365
 31
0.0
  0
LINE
  5
2389A
  8
0
  6
CONTINUOUS
 10
29.30199999996933
 20
6.195058289914587
 30
0.0
 11
30.74199999996926
 21
7.635058289914522
 31
0.0
  0
LINE
  5
2389B
  8
0
  6
CONTINUOUS
 10
29.30199999996933
 20
5.521539080834401
 30
0.0
 11
30.74199999996926
 21
6.961539080834331
 31
0.0
  0
LINE
  5
2389C
  8
0
  6
CONTINUOUS
 10
29.30199999996933
 20
4.848019871754214
 30
0.0
 11
30.74199999996925
 21
6.288019871754143
 31
0.0
  0
LINE
  5
2389D
  8
0
  6
CONTINUOUS
 10
29.30199999996933
 20
4.174500662674028
 30
0.0
 11
30.74199999996925
 21
5.614500662673953
 31
0.0
  0
LINE
  5
2389E
  8
0
  6
CONTINUOUS
 10
25.96267548958429
 20
0.1616569432088024
 30
0.0
 11
27.18411854636669
 21
1.383099999991207
 31
0.0
  0
LINE
  5
2389F
  8
0
  6
CONTINUOUS
 10
29.30199999996933
 20
3.500981453593841
 30
0.0
 11
30.74199999996925
 21
4.940981453593762
 31
0.0
  0
LINE
  5
238A0
  8
0
  6
CONTINUOUS
 10
26.50763775544691
 20
0.0330999999912356
 30
0.0
 11
27.85763775544689
 21
1.383099999991223
 31
0.0
  0
LINE
  5
238A1
  8
0
  6
CONTINUOUS
 10
29.30199999996933
 20
2.827462244513656
 30
0.0
 11
30.74199999996925
 21
4.267462244513574
 31
0.0
  0
LINE
  5
238A2
  8
0
  6
CONTINUOUS
 10
27.18115696452709
 20
0.0330999999912356
 30
0.0
 11
28.6224847300034
 21
1.474427765467545
 31
0.0
  0
LINE
  5
238A3
  8
0
  6
CONTINUOUS
 10
29.21067223449293
 20
2.062615269957069
 30
0.0
 11
30.74199999996924
 21
3.593943035433383
 31
0.0
  0
LINE
  5
238A4
  8
0
  6
CONTINUOUS
 10
27.85467617360728
 20
0.0330999999912356
 30
0.0
 11
30.74199999996924
 21
2.920423826353195
 31
0.0
  0
LINE
  5
238A5
  8
0
  6
CONTINUOUS
 10
28.61742899356196
 20
0.1223336108657271
 30
0.0
 11
30.65276638909473
 21
2.157671006398498
 31
0.0
  0
LINE
  5
238A6
  8
0
  6
CONTINUOUS
 10
29.76719820264213
 20
0.5985836108657137
 30
0.0
 11
30.17651638909472
 21
1.0079017973183
 31
0.0
  0
LINE
  5
238A7
  8
0
  6
CONTINUOUS
 10
19.59027867740337
 20
-0.0000967065718083
 30
0.0
 11
19.55485265190471
 21
0.035329318926844
 31
0.0
  0
LINE
  5
238A8
  8
0
  6
CONTINUOUS
 10
20.26375463176586
 20
-0.0000534518541091
 30
0.0
 11
19.76305575737534
 21
0.5006454225364014
 31
0.0
  0
LINE
  5
238A9
  8
0
  6
CONTINUOUS
 10
20.93723058612834
 20
-0.0000101971364099
 30
0.0
 11
19.97125886284597
 21
0.965961526145958
 31
0.0
  0
LINE
  5
238AA
  8
0
  6
CONTINUOUS
 10
21.25514828313686
 20
0.355591314935257
 30
0.0
 11
20.1794619683166
 21
1.431277629755512
 31
0.0
  0
LINE
  5
238AB
  8
0
  6
CONTINUOUS
 10
21.46338838394921
 20
0.8208704232030986
 30
0.0
 11
20.38766507378723
 21
1.896593733365069
 31
0.0
  0
LINE
  5
238AC
  8
0
  6
CONTINUOUS
 10
21.67162848476155
 20
1.28614953147094
 30
0.0
 11
20.59586817925786
 21
2.361909836974626
 31
0.0
  0
LINE
  5
238AD
  8
0
  6
CONTINUOUS
 10
21.8798685855739
 20
1.751428639738782
 30
0.0
 11
20.80407128472849
 21
2.827225940584183
 31
0.0
  0
LINE
  5
238AE
  8
0
  6
CONTINUOUS
 10
22.08810868638624
 20
2.216707748006623
 30
0.0
 11
21.01227439019912
 21
3.292542044193739
 31
0.0
  0
LINE
  5
238AF
  8
0
  6
CONTINUOUS
 10
22.60993564347543
 20
2.36839999999762
 30
0.0
 11
21.22047749566975
 21
3.757858147803296
 31
0.0
  0
LINE
  5
238B0
  8
0
  6
CONTINUOUS
 10
23.28345485255561
 20
2.36839999999762
 30
0.0
 11
21.42868060114038
 21
4.223174251412853
 31
0.0
  0
LINE
  5
238B1
  8
0
  6
CONTINUOUS
 10
26.29227406164219
 20
0.0330999999912356
 30
0.0
 11
25.80009199592872
 21
0.5252820657046957
 31
0.0
  0
LINE
  5
238B2
  8
0
  6
CONTINUOUS
 10
23.9569740616358
 20
2.36839999999762
 30
0.0
 11
21.63688370661101
 21
4.688490355022409
 31
0.0
  0
LINE
  5
238B3
  8
0
  6
CONTINUOUS
 10
26.96579327072237
 20
0.0330999999912356
 30
0.0
 11
25.2554132311971
 21
1.743480039516508
 31
0.0
  0
LINE
  5
238B4
  8
0
  6
CONTINUOUS
 10
24.63049327071599
 20
2.36839999999762
 30
0.0
 11
23.32789327071731
 21
3.670999999996297
 31
0.0
  0
LINE
  5
238B5
  8
0
  6
CONTINUOUS
 10
22.92098674744635
 20
4.077906523267254
 30
0.0
 11
21.84508681208164
 21
5.153806458631966
 31
0.0
  0
LINE
  5
238B6
  8
0
  6
CONTINUOUS
 10
27.63931247980256
 20
0.0330999999912356
 30
0.0
 11
24.0014124797975
 21
3.670999999996297
 31
0.0
  0
LINE
  5
238B7
  8
0
  6
CONTINUOUS
 10
23.129125600968
 20
4.5432868788258
 30
0.0
 11
22.05328991755227
 21
5.619122562241522
 31
0.0
  0
LINE
  5
238B8
  8
0
  6
CONTINUOUS
 10
28.31283168888275
 20
0.0330999999912356
 30
0.0
 11
24.16488385994816
 21
4.181047828925828
 31
0.0
  0
LINE
  5
238B9
  8
0
  6
CONTINUOUS
 10
23.33726445448964
 20
5.008667234384345
 30
0.0
 11
22.2614930230229
 21
6.084438665851079
 31
0.0
  0
LINE
  5
238BA
  8
0
  6
CONTINUOUS
 10
28.81519848253303
 20
0.2042524154211396
 30
0.0
 11
27.63635089796295
 21
1.383099999991217
 31
0.0
  0
LINE
  5
238BB
  8
0
  6
CONTINUOUS
 10
26.43704649509776
 20
2.582404402856405
 30
0.0
 11
23.61992702019732
 21
5.399523877756844
 31
0.0
  0
LINE
  5
238BC
  8
0
  6
CONTINUOUS
 10
23.54540330801128
 20
5.47404758994289
 30
0.0
 11
22.46969612849353
 21
6.549754769460635
 31
0.0
  0
LINE
  5
238BD
  8
0
  6
CONTINUOUS
 10
29.29144848253303
 20
0.4015216245013242
 30
0.0
 11
28.30987010704312
 21
1.383099999991234
 31
0.0
  0
LINE
  5
238BE
  8
0
  6
CONTINUOUS
 10
25.89179548232307
 20
3.801174624711282
 30
0.0
 11
22.67789923396416
 21
7.015070873070191
 31
0.0
  0
LINE
  5
238BF
  8
0
  6
CONTINUOUS
 10
29.76769848253303
 20
0.5987908335815084
 30
0.0
 11
28.81310432793121
 21
1.553384988183336
 31
0.0
  0
LINE
  5
238C0
  8
0
  6
CONTINUOUS
 10
25.34654446954838
 20
5.01994484656616
 30
0.0
 11
22.88610233943479
 21
7.480386976679748
 31
0.0
  0
LINE
  5
238C1
  8
0
  6
CONTINUOUS
 10
30.13421977859274
 20
0.9057887466019845
 30
0.0
 11
29.14234640337737
 21
1.897662121817355
 31
0.0
  0
LINE
  5
238C2
  8
0
  6
CONTINUOUS
 10
24.80129345677369
 20
6.238715068421037
 30
0.0
 11
23.09430544490542
 21
7.945703080289305
 31
0.0
  0
LINE
  5
238C3
  8
0
  6
CONTINUOUS
 10
30.33148898767293
 20
1.382038746601982
 30
0.0
 11
29.30199999996933
 21
2.411527734305588
 31
0.0
  0
LINE
  5
238C4
  8
0
  6
CONTINUOUS
 10
30.52875819675312
 20
1.85828874660198
 30
0.0
 11
29.30199999996933
 21
3.085046943385775
 31
0.0
  0
LINE
  5
238C5
  8
0
  6
CONTINUOUS
 10
24.256042443999
 20
7.457485290275915
 30
0.0
 11
23.30250855037605
 21
8.411019183898862
 31
0.0
  0
LINE
  5
238C6
  8
0
  6
CONTINUOUS
 10
23.71079143122431
 20
8.676255512130794
 30
0.0
 11
23.51071165584668
 21
8.876335287508418
 31
0.0
  0
LINE
  5
238C7
  8
0
  6
CONTINUOUS
 10
30.72602740583331
 20
2.334538746601978
 30
0.0
 11
29.30199999996933
 21
3.758566152465961
 31
0.0
  0
LINE
  5
238C8
  8
0
  6
CONTINUOUS
 10
30.74199999996924
 20
2.992085361546236
 30
0.0
 11
29.30199999996933
 21
4.432085361546148
 31
0.0
  0
LINE
  5
238C9
  8
0
  6
CONTINUOUS
 10
30.74199999996924
 20
3.665604570626419
 30
0.0
 11
29.30199999996933
 21
5.105604570626333
 31
0.0
  0
LINE
  5
238CA
  8
0
  6
CONTINUOUS
 10
30.74199999996925
 20
4.339123779706602
 30
0.0
 11
29.30199999996933
 21
5.77912377970652
 31
0.0
  0
LINE
  5
238CB
  8
0
  6
CONTINUOUS
 10
30.74199999996925
 20
5.012642988786785
 30
0.0
 11
29.30199999996933
 21
6.452642988786707
 31
0.0
  0
LINE
  5
238CC
  8
0
  6
CONTINUOUS
 10
30.74199999996925
 20
5.68616219786697
 30
0.0
 11
29.30199999996933
 21
7.126162197866894
 31
0.0
  0
LINE
  5
238CD
  8
0
  6
CONTINUOUS
 10
30.74199999996925
 20
6.359681406947153
 30
0.0
 11
29.30199999996933
 21
7.799681406947081
 31
0.0
  0
LINE
  5
238CE
  8
0
  6
CONTINUOUS
 10
30.74199999996926
 20
7.033200616027337
 30
0.0
 11
29.30199999996933
 21
8.473200616027269
 31
0.0
  0
LINE
  5
238CF
  8
0
  6
CONTINUOUS
 10
30.74199999996926
 20
7.706719825107518
 30
0.0
 11
29.68561982508552
 21
8.763099999991255
 31
0.0
  0
LINE
  5
238D0
  8
0
  6
CONTINUOUS
 10
30.74199999996926
 20
8.380239034187703
 30
0.0
 11
30.35913903416571
 21
8.763099999991255
 31
0.0
  0
ENDBLK
  5
23972
  8
0
  0
BLOCK
  8
0
  2
*X114
 70
     1
 10
0.0
 20
0.0
 30
0.0
  3
*X114
  1

  0
LINE
  5
238D2
  8
0
  6
CONTINUOUS
 10
31.64199999996833
 20
8.535058289913598
 30
0.0
 11
31.87004171004599
 21
8.763099999991255
 31
0.0
  0
LINE
  5
238D3
  8
0
  6
CONTINUOUS
 10
31.64199999996833
 20
7.861539080833412
 30
0.0
 11
32.54356091912618
 21
8.763099999991255
 31
0.0
  0
LINE
  5
238D4
  8
0
  6
CONTINUOUS
 10
31.64199999996833
 20
7.188019871753226
 30
0.0
 11
33.08199999996839
 21
8.628019871753281
 31
0.0
  0
LINE
  5
238D5
  8
0
  6
CONTINUOUS
 10
31.64199999996833
 20
6.51450066267304
 30
0.0
 11
33.08199999996839
 21
7.954500662673095
 31
0.0
  0
LINE
  5
238D6
  8
0
  6
CONTINUOUS
 10
31.64199999996833
 20
5.840981453592853
 30
0.0
 11
33.08199999996839
 21
7.280981453592908
 31
0.0
  0
LINE
  5
238D7
  8
0
  6
CONTINUOUS
 10
31.64199999996833
 20
5.167462244512667
 30
0.0
 11
33.08199999996839
 21
6.607462244512721
 31
0.0
  0
LINE
  5
238D8
  8
0
  6
CONTINUOUS
 10
31.64199999996833
 20
4.493943035432481
 30
0.0
 11
33.08199999996839
 21
5.933943035432535
 31
0.0
  0
LINE
  5
238D9
  8
0
  6
CONTINUOUS
 10
31.64199999996833
 20
3.820423826352293
 30
0.0
 11
33.08199999996839
 21
5.260423826352348
 31
0.0
  0
LINE
  5
238DA
  8
0
  6
CONTINUOUS
 10
31.64199999996833
 20
3.146904617272106
 30
0.0
 11
33.08199999996839
 21
4.586904617272161
 31
0.0
  0
LINE
  5
238DB
  8
0
  6
CONTINUOUS
 10
36.23199999996837
 20
8.410423826352325
 30
0.0
 11
36.5846761736073
 21
8.763099999991255
 31
0.0
  0
LINE
  5
238DC
  8
0
  6
CONTINUOUS
 10
36.23199999996837
 20
7.73690461727214
 30
0.0
 11
37.25819538268748
 21
8.763099999991255
 31
0.0
  0
LINE
  5
238DD
  8
0
  6
CONTINUOUS
 10
31.64374005202358
 20
2.475125460247167
 30
0.0
 11
33.08199999996839
 21
3.913385408191974
 31
0.0
  0
LINE
  5
238DE
  8
0
  6
CONTINUOUS
 10
31.78607140823076
 20
1.943937607374161
 30
0.0
 11
33.08199999996839
 21
3.239866199111788
 31
0.0
  0
LINE
  5
238DF
  8
0
  6
CONTINUOUS
 10
31.92840276443794
 20
1.412749754501155
 30
0.0
 11
33.08199999996839
 21
2.566346990031601
 31
0.0
  0
LINE
  5
238E0
  8
0
  6
CONTINUOUS
 10
36.23199999996837
 20
7.063385408191953
 30
0.0
 11
37.67199999996831
 21
8.503385408191894
 31
0.0
  0
LINE
  5
238E1
  8
0
  6
CONTINUOUS
 10
36.23199999996837
 20
6.389866199111767
 30
0.0
 11
37.67199999996831
 21
7.829866199111708
 31
0.0
  0
LINE
  5
238E2
  8
0
  6
CONTINUOUS
 10
36.23199999996837
 20
5.71634699003158
 30
0.0
 11
37.67199999996831
 21
7.156346990031521
 31
0.0
  0
LINE
  5
238E3
  8
0
  6
CONTINUOUS
 10
32.1787326690177
 20
0.9895604500007256
 30
0.0
 11
33.20642631446081
 21
2.017254095443837
 31
0.0
  0
LINE
  5
238E4
  8
0
  6
CONTINUOUS
 10
36.23199999996837
 20
5.042827780951393
 30
0.0
 11
37.67199999996831
 21
6.482827780951334
 31
0.0
  0
LINE
  5
238E5
  8
0
  6
CONTINUOUS
 10
32.51549227355815
 20
0.652800845460991
 30
0.0
 11
33.49903056428258
 21
1.636339136185419
 31
0.0
  0
LINE
  5
238E6
  8
0
  6
CONTINUOUS
 10
36.23199999996837
 20
4.369308571871207
 30
0.0
 11
37.67199999996831
 21
5.809308571871147
 31
0.0
  0
LINE
  5
238E7
  8
0
  6
CONTINUOUS
 10
32.8522518780986
 20
0.3160412409212565
 30
0.0
 11
33.93324121824649
 21
1.397030581069147
 31
0.0
  0
LINE
  5
238E8
  8
0
  6
CONTINUOUS
 10
36.23199999996837
 20
3.69578936279102
 30
0.0
 11
37.67199999996831
 21
5.135789362790962
 31
0.0
  0
LINE
  5
238E9
  8
0
  6
CONTINUOUS
 10
33.32873687730419
 20
0.1190070310466638
 30
0.0
 11
34.46442907112041
 21
1.254699224862875
 31
0.0
  0
LINE
  5
238EA
  8
0
  6
CONTINUOUS
 10
36.23199999996837
 20
3.022270153710834
 30
0.0
 11
37.67199999996831
 21
4.462270153710775
 31
0.0
  0
LINE
  5
238EB
  8
0
  6
CONTINUOUS
 10
33.85992473017767
 20
-0.0233243251600488
 30
0.0
 11
35.24350171668284
 21
1.360252661345124
 31
0.0
  0
LINE
  5
238EC
  8
0
  6
CONTINUOUS
 10
36.18336676155003
 20
2.300117706212307
 30
0.0
 11
37.67199999996831
 21
3.788750944630588
 31
0.0
  0
LINE
  5
238ED
  8
0
  6
CONTINUOUS
 10
34.39111258305115
 20
-0.1656556813667613
 30
0.0
 11
37.67199999996831
 21
3.115231735550401
 31
0.0
  0
LINE
  5
238EE
  8
0
  6
CONTINUOUS
 10
35.11651383431612
 20
-0.1137736391819715
 30
0.0
 11
37.65739306207836
 21
2.427105588580266
 31
0.0
  0
LINE
  5
238EF
  8
0
  6
CONTINUOUS
 10
36.03655818385387
 20
0.1327515012755951
 30
0.0
 11
37.41086792161699
 21
1.507061239038712
 31
0.0
  0
LINE
  5
238F0
  8
0
  6
CONTINUOUS
 10
33.71988657648365
 20
0.0141987850318213
 30
0.0
 11
31.78457936207464
 21
1.949505999440826
 31
0.0
  0
LINE
  5
238F1
  8
0
  6
CONTINUOUS
 10
34.63993092602409
 20
-0.2323263554284312
 30
0.0
 11
31.64199999996833
 21
2.765604570627321
 31
0.0
  0
LINE
  5
238F2
  8
0
  6
CONTINUOUS
 10
35.17833301840466
 20
-0.0972092387288228
 30
0.0
 11
31.64199999996833
 21
3.439123779707508
 31
0.0
  0
LINE
  5
238F3
  8
0
  6
CONTINUOUS
 10
35.70952087127903
 20
0.0451221174769945
 30
0.0
 11
34.51294304365551
 21
1.241699945100516
 31
0.0
  0
LINE
  5
238F4
  8
0
  6
CONTINUOUS
 10
33.08199999996839
 20
2.67264298878764
 30
0.0
 11
31.64199999996833
 21
4.112642988787695
 31
0.0
  0
LINE
  5
238F5
  8
0
  6
CONTINUOUS
 10
36.2407087241534
 20
0.1874534736828117
 30
0.0
 11
35.10501653033629
 21
1.323145667499924
 31
0.0
  0
LINE
  5
238F6
  8
0
  6
CONTINUOUS
 10
33.08199999996839
 20
3.346162197867826
 30
0.0
 11
31.64199999996833
 21
4.786162197867881
 31
0.0
  0
LINE
  5
238F7
  8
0
  6
CONTINUOUS
 10
36.62369414391585
 20
0.4779872630005553
 30
0.0
 11
35.63620438320989
 21
1.465477023706505
 31
0.0
  0
LINE
  5
238F8
  8
0
  6
CONTINUOUS
 10
33.08199999996839
 20
4.019681406948012
 30
0.0
 11
31.64199999996833
 21
5.459681406948068
 31
0.0
  0
LINE
  5
238F9
  8
0
  6
CONTINUOUS
 10
36.96045374845689
 20
0.8147468675397027
 30
0.0
 11
35.97691545773309
 21
1.798285158263504
 31
0.0
  0
LINE
  5
238FA
  8
0
  6
CONTINUOUS
 10
33.08199999996839
 20
4.693200616028199
 30
0.0
 11
31.64199999996833
 21
6.133200616028255
 31
0.0
  0
LINE
  5
238FB
  8
0
  6
CONTINUOUS
 10
37.29721335299792
 20
1.151506472078851
 30
0.0
 11
36.17602012811361
 21
2.272699696963168
 31
0.0
  0
LINE
  5
238FC
  8
0
  6
CONTINUOUS
 10
33.08199999996839
 20
5.366719825108386
 30
0.0
 11
31.64199999996833
 21
6.80671982510844
 31
0.0
  0
LINE
  5
238FD
  8
0
  6
CONTINUOUS
 10
37.45404367813572
 20
1.668195356021243
 30
0.0
 11
36.23199999996837
 21
2.890239034188594
 31
0.0
  0
LINE
  5
238FE
  8
0
  6
CONTINUOUS
 10
37.5963750343428
 20
2.199383208894345
 30
0.0
 11
36.23199999996837
 21
3.56375824326878
 31
0.0
  0
LINE
  5
238FF
  8
0
  6
CONTINUOUS
 10
33.08199999996839
 20
6.040239034188573
 30
0.0
 11
31.64199999996833
 21
7.480239034188627
 31
0.0
  0
LINE
  5
23900
  8
0
  6
CONTINUOUS
 10
33.08199999996839
 20
6.713758243268758
 30
0.0
 11
31.64199999996833
 21
8.153758243268815
 31
0.0
  0
LINE
  5
23901
  8
0
  6
CONTINUOUS
 10
37.67199999996831
 20
2.797277452349026
 30
0.0
 11
36.23199999996837
 21
4.237277452348967
 31
0.0
  0
LINE
  5
23902
  8
0
  6
CONTINUOUS
 10
37.67199999996831
 20
3.470796661429213
 30
0.0
 11
36.23199999996837
 21
4.910796661429154
 31
0.0
  0
LINE
  5
23903
  8
0
  6
CONTINUOUS
 10
37.67199999996831
 20
4.144315870509399
 30
0.0
 11
36.23199999996837
 21
5.58431587050934
 31
0.0
  0
LINE
  5
23904
  8
0
  6
CONTINUOUS
 10
33.08199999996839
 20
7.387277452348945
 30
0.0
 11
31.70617745232608
 21
8.763099999991255
 31
0.0
  0
LINE
  5
23905
  8
0
  6
CONTINUOUS
 10
33.08199999996839
 20
8.060796661429132
 30
0.0
 11
32.37969666140626
 21
8.763099999991255
 31
0.0
  0
LINE
  5
23906
  8
0
  6
CONTINUOUS
 10
33.08199999996839
 20
8.734315870509318
 30
0.0
 11
33.05321587048645
 21
8.763099999991255
 31
0.0
  0
LINE
  5
23907
  8
0
  6
CONTINUOUS
 10
37.67199999996831
 20
4.817835079589585
 30
0.0
 11
36.23199999996837
 21
6.257835079589526
 31
0.0
  0
LINE
  5
23908
  8
0
  6
CONTINUOUS
 10
37.67199999996831
 20
5.491354288669771
 30
0.0
 11
36.23199999996837
 21
6.931354288669713
 31
0.0
  0
LINE
  5
23909
  8
0
  6
CONTINUOUS
 10
37.67199999996831
 20
6.164873497749958
 30
0.0
 11
36.23199999996837
 21
7.6048734977499
 31
0.0
  0
LINE
  5
2390A
  8
0
  6
CONTINUOUS
 10
37.67199999996831
 20
6.838392706830144
 30
0.0
 11
36.23199999996837
 21
8.278392706830086
 31
0.0
  0
LINE
  5
2390B
  8
0
  6
CONTINUOUS
 10
37.67199999996831
 20
7.511911915910332
 30
0.0
 11
36.42081191588738
 21
8.763099999991255
 31
0.0
  0
LINE
  5
2390C
  8
0
  6
CONTINUOUS
 10
37.67199999996831
 20
8.185431124990519
 30
0.0
 11
37.09433112496757
 21
8.763099999991255
 31
0.0
  0
ENDBLK
  5
23974
  8
0
  0
BLOCK
  8
0
  2
*X115
 70
     1
 10
0.0
 20
0.0
 30
0.0
  3
*X115
  1

  0
LINE
  5
2390E
  8
0
  6
CONTINUOUS
 10
38.60499999996136
 20
8.762866199104765
 30
0.0
 11
38.71672554182345
 21
8.874591740966855
 31
0.0
  0
LINE
  5
2390F
  8
0
  6
CONTINUOUS
 10
38.60499999996136
 20
8.089346990024577
 30
0.0
 11
39.03418785440363
 21
8.518534844466847
 31
0.0
  0
LINE
  5
23910
  8
0
  6
CONTINUOUS
 10
38.60499999996136
 20
7.41582778094439
 30
0.0
 11
39.35165016698382
 21
8.16247794796684
 31
0.0
  0
LINE
  5
23911
  8
0
  6
CONTINUOUS
 10
38.60499999996136
 20
6.742308571864204
 30
0.0
 11
39.66911247956399
 21
7.806421051466834
 31
0.0
  0
LINE
  5
23912
  8
0
  6
CONTINUOUS
 10
38.60499999996136
 20
6.068789362784018
 30
0.0
 11
39.98657479214418
 21
7.450364154966827
 31
0.0
  0
LINE
  5
23913
  8
0
  6
CONTINUOUS
 10
38.60499999996136
 20
5.395270153703832
 30
0.0
 11
40.30403710472435
 21
7.09430725846682
 31
0.0
  0
LINE
  5
23914
  8
0
  6
CONTINUOUS
 10
38.60499999996136
 20
4.721750944623645
 30
0.0
 11
40.62149941730453
 21
6.738250361966813
 31
0.0
  0
LINE
  5
23915
  8
0
  6
CONTINUOUS
 10
38.60499999996136
 20
4.048231735543458
 30
0.0
 11
40.93896172988471
 21
6.382193465466806
 31
0.0
  0
LINE
  5
23916
  8
0
  6
CONTINUOUS
 10
38.60499999996136
 20
3.374712526463272
 30
0.0
 11
40.02599999995994
 21
4.795712526461843
 31
0.0
  0
LINE
  5
23917
  8
0
  6
CONTINUOUS
 10
38.60499999996136
 20
2.701193317383085
 30
0.0
 11
40.02599999995994
 21
4.122193317381657
 31
0.0
  0
LINE
  5
23918
  8
0
  6
CONTINUOUS
 10
40.28339754687704
 20
5.053110073378947
 30
0.0
 11
41.25642404246489
 21
6.026136568966799
 31
0.0
  0
LINE
  5
23919
  8
0
  6
CONTINUOUS
 10
40.60085985945722
 20
4.697053176878939
 30
0.0
 11
41.57388635504507
 21
5.670079672466793
 31
0.0
  0
LINE
  5
2391A
  8
0
  6
CONTINUOUS
 10
43.57899999995641
 20
8.348712526458318
 30
0.0
 11
43.99338747348935
 21
8.763099999991255
 31
0.0
  0
LINE
  5
2391B
  8
0
  6
CONTINUOUS
 10
43.57899999995641
 20
7.675193317378131
 30
0.0
 11
44.66690668256953
 21
8.763099999991255
 31
0.0
  0
LINE
  5
2391C
  8
0
  6
CONTINUOUS
 10
38.60499999996136
 20
2.027674108302898
 30
0.0
 11
40.02599999995994
 21
3.44867410830147
 31
0.0
  0
LINE
  5
2391D
  8
0
  6
CONTINUOUS
 10
38.60499999996136
 20
1.354154899222712
 30
0.0
 11
40.02599999995994
 21
2.775154899221284
 31
0.0
  0
LINE
  5
2391E
  8
0
  6
CONTINUOUS
 10
38.60499999996136
 20
0.6806356901425255
 30
0.0
 11
40.02599999995994
 21
2.101635690141098
 31
0.0
  0
LINE
  5
2391F
  8
0
  6
CONTINUOUS
 10
38.60499999996136
 20
0.0071164810623383
 30
0.0
 11
40.02599999995994
 21
1.428116481060911
 31
0.0
  0
LINE
  5
23920
  8
0
  6
CONTINUOUS
 10
40.9183221720374
 20
4.340996280378933
 30
0.0
 11
41.89134866762525
 21
5.314022775966786
 31
0.0
  0
LINE
  5
23921
  8
0
  6
CONTINUOUS
 10
41.23578448461758
 20
3.984939383878926
 30
0.0
 11
42.20881098020543
 21
4.957965879466778
 31
0.0
  0
LINE
  5
23922
  8
0
  6
CONTINUOUS
 10
41.55324679719776
 20
3.628882487378919
 30
0.0
 11
42.52627329278561
 21
4.601908982966772
 31
0.0
  0
LINE
  5
23923
  8
0
  6
CONTINUOUS
 10
41.87070910977793
 20
3.272825590878912
 30
0.0
 11
42.84373560536579
 21
4.245852086466765
 31
0.0
  0
LINE
  5
23924
  8
0
  6
CONTINUOUS
 10
43.57899999995641
 20
7.001674108297943
 30
0.0
 11
44.99999999995498
 21
8.422674108296516
 31
0.0
  0
LINE
  5
23925
  8
0
  6
CONTINUOUS
 10
43.57899999995641
 20
6.328154899217758
 30
0.0
 11
44.99999999995498
 21
7.749154899216329
 31
0.0
  0
LINE
  5
23926
  8
0
  6
CONTINUOUS
 10
43.57899999995641
 20
5.654635690137571
 30
0.0
 11
44.99999999995498
 21
7.075635690136142
 31
0.0
  0
LINE
  5
23927
  8
0
  6
CONTINUOUS
 10
43.57899999995641
 20
4.981116481057384
 30
0.0
 11
44.99999999995498
 21
6.402116481055955
 31
0.0
  0
LINE
  5
23928
  8
0
  6
CONTINUOUS
 10
39.27140272797921
 20
-0.0000000000000009
 30
0.0
 11
40.02599999995994
 21
0.7545972719807246
 31
0.0
  0
LINE
  5
23929
  8
0
  6
CONTINUOUS
 10
39.9449219370594
 20
-0.0000000000000009
 30
0.0
 11
40.02599999995994
 21
0.0810780629005379
 31
0.0
  0
LINE
  5
2392A
  8
0
  6
CONTINUOUS
 10
42.18817142235812
 20
2.916768694378905
 30
0.0
 11
43.16119791794597
 21
3.889795189966758
 31
0.0
  0
LINE
  5
2392B
  8
0
  6
CONTINUOUS
 10
42.50563373493829
 20
2.560711797878898
 30
0.0
 11
43.47866023052615
 21
3.533738293466751
 31
0.0
  0
LINE
  5
2392C
  8
0
  6
CONTINUOUS
 10
43.57899999995641
 20
4.307597271977198
 30
0.0
 11
44.99999999995498
 21
5.728597271975769
 31
0.0
  0
LINE
  5
2392D
  8
0
  6
CONTINUOUS
 10
43.57899999995641
 20
3.634078062897011
 30
0.0
 11
44.99999999995498
 21
5.055078062895582
 31
0.0
  0
LINE
  5
2392E
  8
0
  6
CONTINUOUS
 10
42.82309604751848
 20
2.204654901378891
 30
0.0
 11
44.99999999995498
 21
4.381558853815395
 31
0.0
  0
LINE
  5
2392F
  8
0
  6
CONTINUOUS
 10
43.14055836009865
 20
1.848598004878885
 30
0.0
 11
44.99999999995498
 21
3.70803964473521
 31
0.0
  0
LINE
  5
23930
  8
0
  6
CONTINUOUS
 10
43.45802067267883
 20
1.492541108378878
 30
0.0
 11
44.99999999995498
 21
3.034520435655023
 31
0.0
  0
LINE
  5
23931
  8
0
  6
CONTINUOUS
 10
43.77548298525902
 20
1.136484211878871
 30
0.0
 11
44.99999999995498
 21
2.361001226574837
 31
0.0
  0
LINE
  5
23932
  8
0
  6
CONTINUOUS
 10
44.09294529783919
 20
0.7804273153788639
 30
0.0
 11
44.99999999995498
 21
1.687482017494649
 31
0.0
  0
LINE
  5
23933
  8
0
  6
CONTINUOUS
 10
44.41040761041938
 20
0.4243704188788566
 30
0.0
 11
44.99999999995498
 21
1.013962808414463
 31
0.0
  0
LINE
  5
23934
  8
0
  6
CONTINUOUS
 10
44.72786992299955
 20
0.0683135223788494
 30
0.0
 11
44.99999999995498
 21
0.340443599334276
 31
0.0
  0
LINE
  5
23935
  8
0
  6
CONTINUOUS
 10
39.12223903415696
 20
-0.0000000000000009
 30
0.0
 11
38.60499999996136
 21
0.5172390341955961
 31
0.0
  0
LINE
  5
23936
  8
0
  6
CONTINUOUS
 10
39.79575824323715
 20
-0.0000000000000009
 30
0.0
 11
38.60499999996136
 21
1.190758243275783
 31
0.0
  0
LINE
  5
23937
  8
0
  6
CONTINUOUS
 10
40.02599999995994
 20
0.443277452357397
 30
0.0
 11
38.60499999996136
 21
1.864277452355969
 31
0.0
  0
LINE
  5
23938
  8
0
  6
CONTINUOUS
 10
40.02599999995994
 20
1.116796661437583
 30
0.0
 11
38.60499999996136
 21
2.537796661436155
 31
0.0
  0
LINE
  5
23939
  8
0
  6
CONTINUOUS
 10
40.02599999995994
 20
1.79031587051777
 30
0.0
 11
38.60499999996136
 21
3.211315870516341
 31
0.0
  0
LINE
  5
2393A
  8
0
  6
CONTINUOUS
 10
40.02599999995994
 20
2.463835079597956
 30
0.0
 11
38.60499999996136
 21
3.884835079596527
 31
0.0
  0
LINE
  5
2393B
  8
0
  6
CONTINUOUS
 10
40.02599999995994
 20
3.137354288678143
 30
0.0
 11
38.60499999996136
 21
4.558354288676714
 31
0.0
  0
LINE
  5
2393C
  8
0
  6
CONTINUOUS
 10
40.02599999995994
 20
3.810873497758329
 30
0.0
 11
38.60499999996136
 21
5.2318734977569
 31
0.0
  0
LINE
  5
2393D
  8
0
  6
CONTINUOUS
 10
40.02599999995994
 20
4.484392706838515
 30
0.0
 11
38.60499999996136
 21
5.905392706837086
 31
0.0
  0
LINE
  5
2393E
  8
0
  6
CONTINUOUS
 10
44.99999999995498
 20
0.183911915923658
 30
0.0
 11
41.53858364506288
 21
3.64532827081576
 31
0.0
  0
LINE
  5
2393F
  8
0
  6
CONTINUOUS
 10
40.02599999995994
 20
5.157911915918703
 30
0.0
 11
38.60499999996136
 21
6.578911915917274
 31
0.0
  0
LINE
  5
23940
  8
0
  6
CONTINUOUS
 10
44.99999999995498
 20
0.8574311250038447
 30
0.0
 11
38.60499999996136
 21
7.25243112499746
 31
0.0
  0
LINE
  5
23941
  8
0
  6
CONTINUOUS
 10
44.99999999995498
 20
1.530950334084031
 30
0.0
 11
38.60499999996136
 21
7.925950334077647
 31
0.0
  0
LINE
  5
23942
  8
0
  6
CONTINUOUS
 10
44.99999999995498
 20
2.204469543164218
 30
0.0
 11
43.57899999995641
 21
3.625469543162789
 31
0.0
  0
LINE
  5
23943
  8
0
  6
CONTINUOUS
 10
41.89876730984767
 20
5.305702233271528
 30
0.0
 11
38.60499999996136
 21
8.599469543157834
 31
0.0
  0
LINE
  5
23944
  8
0
  6
CONTINUOUS
 10
44.99999999995498
 20
2.877988752244405
 30
0.0
 11
43.57899999995641
 21
4.298988752242975
 31
0.0
  0
LINE
  5
23945
  8
0
  6
CONTINUOUS
 10
44.99999999995498
 20
3.551507961324591
 30
0.0
 11
43.57899999995641
 21
4.972507961323163
 31
0.0
  0
LINE
  5
23946
  8
0
  6
CONTINUOUS
 10
44.99999999995498
 20
4.225027170404777
 30
0.0
 11
43.57899999995641
 21
5.646027170403348
 31
0.0
  0
LINE
  5
23947
  8
0
  6
CONTINUOUS
 10
44.99999999995498
 20
4.898546379484964
 30
0.0
 11
43.57899999995641
 21
6.319546379483535
 31
0.0
  0
LINE
  5
23948
  8
0
  6
CONTINUOUS
 10
44.99999999995498
 20
5.572065588565151
 30
0.0
 11
43.57899999995641
 21
6.993065588563722
 31
0.0
  0
LINE
  5
23949
  8
0
  6
CONTINUOUS
 10
44.99999999995498
 20
6.245584797645336
 30
0.0
 11
43.57899999995641
 21
7.666584797643908
 31
0.0
  0
LINE
  5
2394A
  8
0
  6
CONTINUOUS
 10
44.99999999995498
 20
6.919104006725522
 30
0.0
 11
43.57899999995641
 21
8.340104006724093
 31
0.0
  0
LINE
  5
2394B
  8
0
  6
CONTINUOUS
 10
44.99999999995498
 20
7.592623215805709
 30
0.0
 11
43.82952321576943
 21
8.763099999991255
 31
0.0
  0
LINE
  5
2394C
  8
0
  6
CONTINUOUS
 10
44.99999999995498
 20
8.266142424885896
 30
0.0
 11
44.50304242484962
 21
8.763099999991255
 31
0.0
  0
ENDBLK
  5
23976
  8
0
  0
BLOCK
  8
0
  2
*X116
 70
     1
 10
0.0
 20
0.0
 30
0.0
  3
*X116
  1

  0
LINE
  5
2394E
  8
0
  6
CONTINUOUS
 10
0.0
 20
8.548461116714023
 30
0.0
 11
0.2146388832772324
 21
8.763099999991255
 31
0.0
  0
LINE
  5
2394F
  8
0
  6
CONTINUOUS
 10
-0.0000000000000002
 20
7.874941907633837
 30
0.0
 11
0.8881580923574184
 21
8.763099999991255
 31
0.0
  0
LINE
  5
23950
  8
0
  6
CONTINUOUS
 10
0.0
 20
7.20142269855365
 30
0.0
 11
1.420999999998572
 21
8.622422698552223
 31
0.0
  0
LINE
  5
23951
  8
0
  6
CONTINUOUS
 10
-0.0000000000000001
 20
6.527903489473465
 30
0.0
 11
1.420999999998571
 21
7.948903489472036
 31
0.0
  0
LINE
  5
23952
  8
0
  6
CONTINUOUS
 10
-0.0000000000000002
 20
5.854384280393278
 30
0.0
 11
1.420999999998571
 21
7.275384280391849
 31
0.0
  0
LINE
  5
23953
  8
0
  6
CONTINUOUS
 10
-0.0000000000000002
 20
5.180865071313091
 30
0.0
 11
1.420999999998571
 21
6.601865071311663
 31
0.0
  0
LINE
  5
23954
  8
0
  6
CONTINUOUS
 10
0.0
 20
4.507345862232905
 30
0.0
 11
1.420999999998571
 21
5.928345862231477
 31
0.0
  0
LINE
  5
23955
  8
0
  6
CONTINUOUS
 10
-0.0000000000000003
 20
3.833826653152718
 30
0.0
 11
1.420999999998571
 21
5.25482665315129
 31
0.0
  0
LINE
  5
23956
  8
0
  6
CONTINUOUS
 10
-0.0000000000000002
 20
3.160307444072532
 30
0.0
 11
1.420999999998571
 21
4.581307444071103
 31
0.0
  0
LINE
  5
23957
  8
0
  6
CONTINUOUS
 10
-0.0000000000000001
 20
2.486788234992345
 30
0.0
 11
1.420999999998571
 21
3.907788234990917
 31
0.0
  0
LINE
  5
23958
  8
0
  6
CONTINUOUS
 10
-0.0000000000000006
 20
1.813269025912159
 30
0.0
 11
1.420999999998571
 21
3.234269025910731
 31
0.0
  0
LINE
  5
23959
  8
0
  6
CONTINUOUS
 10
0.0
 20
1.139749816831973
 30
0.0
 11
1.420999999998571
 21
2.560749816830544
 31
0.0
  0
LINE
  5
2395A
  8
0
  6
CONTINUOUS
 10
0.0000000000000002
 20
0.466230607751787
 30
0.0
 11
1.420999999998571
 21
1.887230607750358
 31
0.0
  0
LINE
  5
2395B
  8
0
  6
CONTINUOUS
 10
0.2072886013284003
 20
-0.0000000000000009
 30
0.0
 11
1.420999999998571
 21
1.213711398670171
 31
0.0
  0
LINE
  5
2395C
  8
0
  6
CONTINUOUS
 10
0.8808078104085864
 20
-0.0000000000000009
 30
0.0
 11
1.420999999998571
 21
0.5401921895899839
 31
0.0
  0
LINE
  5
2395D
  8
0
  6
CONTINUOUS
 10
0.0581249075061505
 20
-0.0000000000000009
 30
0.0
 11
-0.0000000000000002
 21
0.0581249075061496
 31
0.0
  0
LINE
  5
2395E
  8
0
  6
CONTINUOUS
 10
0.7316441165863372
 20
-0.0000000000000009
 30
0.0
 11
-0.0000000000000002
 21
0.7316441165863363
 31
0.0
  0
LINE
  5
2395F
  8
0
  6
CONTINUOUS
 10
1.405163325666523
 20
-0.0000000000000009
 30
0.0
 11
-0.0000000000000002
 21
1.405163325666523
 31
0.0
  0
LINE
  5
23960
  8
0
  6
CONTINUOUS
 10
1.420999999998572
 20
0.6576825347481381
 30
0.0
 11
-0.0000000000000001
 21
2.07868253474671
 31
0.0
  0
LINE
  5
23961
  8
0
  6
CONTINUOUS
 10
1.420999999998571
 20
1.331201743828324
 30
0.0
 11
-0.0000000000000001
 21
2.752201743826896
 31
0.0
  0
LINE
  5
23962
  8
0
  6
CONTINUOUS
 10
1.420999999998571
 20
2.004720952908511
 30
0.0
 11
-0.0000000000000002
 21
3.425720952907082
 31
0.0
  0
LINE
  5
23963
  8
0
  6
CONTINUOUS
 10
1.420999999998571
 20
2.678240161988697
 30
0.0
 11
-0.0000000000000001
 21
4.099240161987269
 31
0.0
  0
LINE
  5
23964
  8
0
  6
CONTINUOUS
 10
1.420999999998572
 20
3.351759371068884
 30
0.0
 11
0.0
 21
4.772759371067455
 31
0.0
  0
LINE
  5
23965
  8
0
  6
CONTINUOUS
 10
1.420999999998571
 20
4.02527858014907
 30
0.0
 11
-0.0000000000000003
 21
5.446278580147642
 31
0.0
  0
LINE
  5
23966
  8
0
  6
CONTINUOUS
 10
1.420999999998571
 20
4.698797789229257
 30
0.0
 11
0.0
 21
6.119797789227828
 31
0.0
  0
LINE
  5
23967
  8
0
  6
CONTINUOUS
 10
1.420999999998571
 20
5.372316998309444
 30
0.0
 11
-0.0000000000000001
 21
6.793316998308015
 31
0.0
  0
LINE
  5
23968
  8
0
  6
CONTINUOUS
 10
1.420999999998572
 20
6.045836207389629
 30
0.0
 11
-0.0000000000000004
 21
7.466836207388202
 31
0.0
  0
LINE
  5
23969
  8
0
  6
CONTINUOUS
 10
1.420999999998571
 20
6.719355416469816
 30
0.0
 11
0.0
 21
8.140355416468388
 31
0.0
  0
LINE
  5
2396A
  8
0
  6
CONTINUOUS
 10
1.420999999998571
 20
7.392874625550003
 30
0.0
 11
0.0507746255573185
 21
8.763099999991255
 31
0.0
  0
LINE
  5
2396B
  8
0
  6
CONTINUOUS
 10
1.420999999998571
 20
8.06639383463019
 30
0.0
 11
0.7242938346375052
 21
8.763099999991255
 31
0.0
  0
LINE
  5
2396C
  8
0
  6
CONTINUOUS
 10
1.420999999998571
 20
8.739913043710375
 30
0.0
 11
1.397813043717691
 21
8.763099999991255
 31
0.0
  0
ENDBLK
  5
23978
  8
0
  0
ENDSEC
  0
SECTION
  2
ENTITIES
  0
LINE
  5
2258E
  8
1DIM
 10
2467.002819362762
 20
-564.2732756898893
 30
0.0
 11
2465.000000000004
 21
-564.2732756898893
 31
0.0
  0
LINE
  5
2258F
  8
1DIM
 10
2465.0
 20
-580.2732756898893
 30
0.0
 11
2467.002819362762
 21
-580.2732756898893
 31
0.0
  0
LINE
  5
22590
  8
1DIM
 10
2749.005638725521
 20
-564.273275689892
 30
0.0
 11
2747.002819362762
 21
-564.273275689892
 31
0.0
  0
LINE
  5
22591
  8
1DIM
 10
2747.002819362762
 20
-580.2732756898929
 30
0.0
 11
2749.005638725521
 21
-580.2732756898947
 31
0.0
  0
LINE
  5
22592
  8
01
 10
2687.002819362762
 20
-502.2732756898892
 30
0.0
 11
2687.002819362762
 21
-505.2732756898892
 31
0.0
  0
LINE
  5
22593
  8
01
 10
2527.002819362762
 20
-505.2732756898892
 30
0.0
 11
2527.002819362762
 21
-502.2732756898892
 31
0.0
  0
LINE
  5
22594
  8
01
 10
2687.002819362762
 20
-505.2732756898892
 30
0.0
 11
2744.002819362762
 21
-505.2732756898892
 31
0.0
  0
LINE
  5
22595
  8
01
 10
2527.002819362762
 20
-502.2732756898892
 30
0.0
 11
2687.002819362762
 21
-502.2732756898892
 31
0.0
  0
ARC
  5
22596
  8
01
 10
2470.002819362762
 20
-508.2732756898882
 30
0.0
 40
2.999999999999773
 50
90.0
 51
180.0
  0
LINE
  5
22597
  8
01
 10
2467.002819362762
 20
-602.2732756898893
 30
0.0
 11
2467.002819362762
 21
-508.2732756898891
 31
0.0
  0
ARC
  5
22598
  8
01
 10
2470.002819362762
 20
-602.2732756898893
 30
0.0
 40
3.0
 50
180.0
 51
270.0
  0
LINE
  5
22599
  8
01
 10
2744.002819362762
 20
-605.2732756898893
 30
0.0
 11
2470.002819362762
 21
-605.2732756898893
 31
0.0
  0
ARC
  5
2259A
  8
01
 10
2744.002819362762
 20
-602.2732756898884
 30
0.0
 40
3.000000000000227
 50
270.0
 51
0.0
  0
LINE
  5
2259B
  8
01
 10
2747.002819362762
 20
-508.2732756898891
 30
0.0
 11
2747.002819362762
 21
-602.2732756898893
 31
0.0
  0
ARC
  5
2259C
  8
01
 10
2744.002819362759
 20
-508.2732756898901
 30
0.0
 40
3.000000000001023
 50
0.0000000000173701
 51
89.99999999993052
  0
LINE
  5
2259D
  8
01
 10
2470.002819362762
 20
-505.2732756898892
 30
0.0
 11
2527.002819362762
 21
-505.2732756898892
 31
0.0
  0
LINE
  5
2259E
  8
01
 10
2749.005638725521
 20
-580.2732756898947
 30
0.0
 11
2749.003905136178
 21
-580.407016422341
 31
0.0
  0
LINE
  5
2259F
  8
01
 10
2749.003905136178
 20
-580.407016422341
 30
0.0
 11
2748.99858524069
 21
-580.5428390035884
 31
0.0
  0
LINE
  5
225A0
  8
01
 10
2748.99858524069
 20
-580.5428390035884
 30
0.0
 11
2748.989510420015
 21
-580.6803618652264
 31
0.0
  0
LINE
  5
225A1
  8
01
 10
2748.989510420015
 20
-580.6803618652264
 30
0.0
 11
2748.976528053005
 21
-580.8191648471318
 31
0.0
  0
LINE
  5
225A2
  8
01
 10
2748.976528053005
 20
-580.8191648471318
 30
0.0
 11
2748.959504747552
 21
-580.9587911771148
 31
0.0
  0
LINE
  5
225A3
  8
01
 10
2748.959504747552
 20
-580.9587911771148
 30
0.0
 11
2748.938329526067
 21
-581.098750334432
 31
0.0
  0
LINE
  5
225A4
  8
01
 10
2748.938329526067
 20
-581.098750334432
 30
0.0
 11
2748.912916875022
 21
-581.2385218190427
 31
0.0
  0
LINE
  5
225A5
  8
01
 10
2748.912916875022
 20
-581.2385218190427
 30
0.0
 11
2748.883209562318
 21
-581.3775598185828
 31
0.0
  0
LINE
  5
225A6
  8
01
 10
2748.883209562318
 20
-581.3775598185828
 30
0.0
 11
2748.849181123438
 21
-581.5152987315021
 31
0.0
  0
LINE
  5
225A7
  8
01
 10
2748.849181123438
 20
-581.5152987315021
 30
0.0
 11
2748.810837919285
 21
-581.6511594690662
 31
0.0
  0
LINE
  5
225A8
  8
01
 10
2748.810837919285
 20
-581.6511594690662
 30
0.0
 11
2748.768220675127
 21
-581.7845564228562
 31
0.0
  0
LINE
  5
225A9
  8
01
 10
2748.768220675127
 20
-581.7845564228562
 30
0.0
 11
2748.745331656115
 21
-581.8501480297316
 31
0.0
  0
LINE
  5
225AA
  8
01
 10
2748.745331656115
 20
-581.8501480297316
 30
0.0
 11
2748.721405421642
 21
-581.9149049500545
 31
0.0
  0
LINE
  5
225AB
  8
01
 10
2748.721405421642
 20
-581.9149049500545
 30
0.0
 11
2748.696457038157
 21
-581.9787555387572
 31
0.0
  0
LINE
  5
225AC
  8
01
 10
2748.696457038157
 20
-581.9787555387572
 30
0.0
 11
2748.670503775513
 21
-582.0416291984682
 31
0.0
  0
LINE
  5
225AD
  8
01
 10
2748.670503775513
 20
-582.0416291984682
 30
0.0
 11
2748.643565076942
 21
-582.1034566282121
 31
0.0
  0
LINE
  5
225AE
  8
01
 10
2748.643565076942
 20
-582.1034566282121
 30
0.0
 11
2748.61566251767
 21
-582.1641700690977
 31
0.0
  0
LINE
  5
225AF
  8
01
 10
2748.61566251767
 20
-582.1641700690977
 30
0.0
 11
2748.586819752338
 21
-582.2237035452288
 31
0.0
  0
LINE
  5
225B0
  8
01
 10
2748.586819752338
 20
-582.2237035452288
 30
0.0
 11
2748.557062451458
 21
-582.2819930980766
 31
0.0
  0
LINE
  5
225B1
  8
01
 10
2748.557062451458
 20
-582.2819930980766
 30
0.0
 11
2748.526418227233
 21
-582.338977012603
 31
0.0
  0
LINE
  5
225B2
  8
01
 10
2748.526418227233
 20
-582.338977012603
 30
0.0
 11
2748.494916549156
 21
-582.3945960334602
 31
0.0
  0
LINE
  5
225B3
  8
01
 10
2748.494916549156
 20
-582.3945960334602
 30
0.0
 11
2748.462588649938
 21
-582.4487935697141
 31
0.0
  0
LINE
  5
225B4
  8
01
 10
2748.462588649938
 20
-582.4487935697141
 30
0.0
 11
2748.429467422389
 21
-582.5015158865779
 31
0.0
  0
LINE
  5
225B5
  8
01
 10
2748.429467422389
 20
-582.5015158865779
 30
0.0
 11
2748.395587307979
 21
-582.5527122828241
 31
0.0
  0
LINE
  5
225B6
  8
01
 10
2748.395587307979
 20
-582.5527122828241
 30
0.0
 11
2748.360984177845
 21
-582.6023352526261
 31
0.0
  0
LINE
  5
225B7
  8
01
 10
2748.360984177845
 20
-582.6023352526261
 30
0.0
 11
2748.325695207132
 21
-582.6503406307554
 31
0.0
  0
LINE
  5
225B8
  8
01
 10
2748.325695207132
 20
-582.6503406307554
 30
0.0
 11
2748.289758743544
 21
-582.6966877202283
 31
0.0
  0
LINE
  5
225B9
  8
01
 10
2748.289758743544
 20
-582.6966877202283
 30
0.0
 11
2748.253214171142
 21
-582.7413394016282
 31
0.0
  0
LINE
  5
225BA
  8
01
 10
2748.253214171142
 20
-582.7413394016282
 30
0.0
 11
2748.216101770297
 21
-582.7842622235573
 31
0.0
  0
LINE
  5
225BB
  8
01
 10
2748.216101770297
 20
-582.7842622235573
 30
0.0
 11
2748.178462574899
 21
-582.8254264738223
 31
0.0
  0
LINE
  5
225BC
  8
01
 10
2748.178462574899
 20
-582.8254264738223
 30
0.0
 11
2748.140338227793
 21
-582.8648062311438
 31
0.0
  0
LINE
  5
225BD
  8
01
 10
2748.140338227793
 20
-582.8648062311438
 30
0.0
 11
2748.101770835521
 21
-582.9023793973745
 31
0.0
  0
LINE
  5
225BE
  8
01
 10
2748.101770835521
 20
-582.9023793973745
 30
0.0
 11
2748.062802823326
 21
-582.9381277103901
 31
0.0
  0
LINE
  5
225BF
  8
01
 10
2748.062802823326
 20
-582.9381277103901
 30
0.0
 11
2748.023476791441
 21
-582.9720367379693
 31
0.0
  0
LINE
  5
225C0
  8
01
 10
2748.023476791441
 20
-582.9720367379693
 30
0.0
 11
2747.983835373627
 21
-583.0040958531706
 31
0.0
  0
LINE
  5
225C1
  8
01
 10
2747.983835373627
 20
-583.0040958531706
 30
0.0
 11
2747.943921098802
 21
-583.0342981918463
 31
0.0
  0
LINE
  5
225C2
  8
01
 10
2747.943921098802
 20
-583.0342981918463
 30
0.0
 11
2747.903776256677
 21
-583.0626405930877
 31
0.0
  0
LINE
  5
225C3
  8
01
 10
2747.903776256677
 20
-583.0626405930877
 30
0.0
 11
2747.86344276811
 21
-583.0891235235129
 31
0.0
  0
LINE
  5
225C4
  8
01
 10
2747.86344276811
 20
-583.0891235235129
 30
0.0
 11
2747.822962060964
 21
-583.1137509864254
 31
0.0
  0
LINE
  5
225C5
  8
01
 10
2747.822962060964
 20
-583.1137509864254
 30
0.0
 11
2747.802679282642
 21
-583.1253711101251
 31
0.0
  0
LINE
  5
225C6
  8
01
 10
2747.802679282642
 20
-583.1253711101251
 30
0.0
 11
2747.78237495205
 21
-583.1365304169665
 31
0.0
  0
LINE
  5
225C7
  8
01
 10
2747.78237495205
 20
-583.1365304169665
 30
0.0
 11
2747.762054057534
 21
-583.1472303532616
 31
0.0
  0
LINE
  5
225C8
  8
01
 10
2747.762054057534
 20
-583.1472303532616
 30
0.0
 11
2747.741721535716
 21
-583.1574725644602
 31
0.0
  0
LINE
  5
225C9
  8
01
 10
2747.741721535716
 20
-583.1574725644602
 30
0.0
 11
2747.721382268399
 21
-583.1672588908684
 31
0.0
  0
LINE
  5
225CA
  8
01
 10
2747.721382268399
 20
-583.1672588908684
 30
0.0
 11
2747.70104107961
 21
-583.1765913632041
 31
0.0
  0
LINE
  5
225CB
  8
01
 10
2747.70104107961
 20
-583.1765913632041
 30
0.0
 11
2747.68070273276
 21
-583.1854721980269
 31
0.0
  0
LINE
  5
225CC
  8
01
 10
2747.68070273276
 20
-583.1854721980269
 30
0.0
 11
2747.660371927923
 21
-583.1939037930267
 31
0.0
  0
LINE
  5
225CD
  8
01
 10
2747.660371927923
 20
-583.1939037930267
 30
0.0
 11
2747.640053299256
 21
-583.2018887222018
 31
0.0
  0
LINE
  5
225CE
  8
01
 10
2747.640053299256
 20
-583.2018887222018
 30
0.0
 11
2747.61975141252
 21
-583.2094297309266
 31
0.0
  0
LINE
  5
225CF
  8
01
 10
2747.61975141252
 20
-583.2094297309266
 30
0.0
 11
2747.599470762758
 21
-583.2165297309245
 31
0.0
  0
LINE
  5
225D0
  8
01
 10
2747.599470762758
 20
-583.2165297309245
 30
0.0
 11
2747.579215772086
 21
-583.2231917951474
 31
0.0
  0
LINE
  5
225D1
  8
01
 10
2747.579215772086
 20
-583.2231917951474
 30
0.0
 11
2747.55899078762
 21
-583.2294191525896
 31
0.0
  0
LINE
  5
225D2
  8
01
 10
2747.55899078762
 20
-583.2294191525896
 30
0.0
 11
2747.538800079525
 21
-583.2352151830207
 31
0.0
  0
LINE
  5
225D3
  8
01
 10
2747.538800079525
 20
-583.2352151830207
 30
0.0
 11
2747.518647839202
 21
-583.2405834116796
 31
0.0
  0
LINE
  5
225D4
  8
01
 10
2747.518647839202
 20
-583.2405834116796
 30
0.0
 11
2747.498538177602
 21
-583.2455275039017
 31
0.0
  0
LINE
  5
225D5
  8
01
 10
2747.498538177602
 20
-583.2455275039017
 30
0.0
 11
2747.478475123666
 21
-583.2500512597305
 31
0.0
  0
LINE
  5
225D6
  8
01
 10
2747.478475123666
 20
-583.2500512597305
 30
0.0
 11
2747.45846262289
 21
-583.2541586084833
 31
0.0
  0
LINE
  5
225D7
  8
01
 10
2747.45846262289
 20
-583.2541586084833
 30
0.0
 11
2747.438504536029
 21
-583.2578536033086
 31
0.0
  0
LINE
  5
225D8
  8
01
 10
2747.438504536029
 20
-583.2578536033086
 30
0.0
 11
2747.418604637907
 21
-583.2611404157349
 31
0.0
  0
LINE
  5
225D9
  8
01
 10
2747.418604637907
 20
-583.2611404157349
 30
0.0
 11
2747.39876661637
 21
-583.2640233302116
 31
0.0
  0
LINE
  5
225DA
  8
01
 10
2747.39876661637
 20
-583.2640233302116
 30
0.0
 11
2747.37899407134
 21
-583.2665067386631
 31
0.0
  0
LINE
  5
225DB
  8
01
 10
2747.37899407134
 20
-583.2665067386631
 30
0.0
 11
2747.359290514007
 21
-583.2685951350611
 31
0.0
  0
LINE
  5
225DC
  8
01
 10
2747.359290514007
 20
-583.2685951350611
 30
0.0
 11
2747.339659366116
 21
-583.2702931100127
 31
0.0
  0
LINE
  5
225DD
  8
01
 10
2747.339659366116
 20
-583.2702931100127
 30
0.0
 11
2747.320103959417
 21
-583.2716053453867
 31
0.0
  0
LINE
  5
225DE
  8
01
 10
2747.320103959417
 20
-583.2716053453867
 30
0.0
 11
2747.300627535144
 21
-583.272536608976
 31
0.0
  0
LINE
  5
225DF
  8
01
 10
2747.300627535144
 20
-583.272536608976
 30
0.0
 11
2747.281233243699
 21
-583.2730917492061
 31
0.0
  0
LINE
  5
225E0
  8
01
 10
2747.281233243699
 20
-583.2730917492061
 30
0.0
 11
2747.261924144364
 21
-583.2732756898947
 31
0.0
  0
LINE
  5
225E1
  8
01
 10
2747.261924144364
 20
-583.2732756898947
 30
0.0
 11
2747.002819362762
 21
-583.2732756898947
 31
0.0
  0
LINE
  5
225E2
  8
01
 10
2747.002819362762
 20
-561.273275689892
 30
0.0
 11
2747.261924144364
 21
-561.273275689892
 31
0.0
  0
LINE
  5
225E3
  8
01
 10
2747.261924144364
 20
-561.273275689892
 30
0.0
 11
2747.281233243695
 21
-561.2734596305806
 31
0.0
  0
LINE
  5
225E4
  8
01
 10
2747.281233243695
 20
-561.2734596305806
 30
0.0
 11
2747.300627535144
 21
-561.2740147708116
 31
0.0
  0
LINE
  5
225E5
  8
01
 10
2747.300627535144
 20
-561.2740147708116
 30
0.0
 11
2747.320103959413
 21
-561.274946034401
 31
0.0
  0
LINE
  5
225E6
  8
01
 10
2747.320103959413
 20
-561.274946034401
 30
0.0
 11
2747.339659366116
 21
-561.2762582697749
 31
0.0
  0
LINE
  5
225E7
  8
01
 10
2747.339659366116
 20
-561.2762582697749
 30
0.0
 11
2747.359290514003
 21
-561.2779562447265
 31
0.0
  0
LINE
  5
225E8
  8
01
 10
2747.359290514003
 20
-561.2779562447265
 30
0.0
 11
2747.37899407134
 21
-561.2800446411245
 31
0.0
  0
LINE
  5
225E9
  8
01
 10
2747.37899407134
 20
-561.2800446411245
 30
0.0
 11
2747.39876661637
 21
-561.282528049577
 31
0.0
  0
LINE
  5
225EA
  8
01
 10
2747.39876661637
 20
-561.282528049577
 30
0.0
 11
2747.418604637907
 21
-561.2854109640527
 31
0.0
  0
LINE
  5
225EB
  8
01
 10
2747.418604637907
 20
-561.2854109640527
 30
0.0
 11
2747.438504536029
 21
-561.2886977764799
 31
0.0
  0
LINE
  5
225EC
  8
01
 10
2747.438504536029
 20
-561.2886977764799
 30
0.0
 11
2747.45846262289
 21
-561.2923927713052
 31
0.0
  0
LINE
  5
225ED
  8
01
 10
2747.45846262289
 20
-561.2923927713052
 30
0.0
 11
2747.478475123662
 21
-561.296500120058
 31
0.0
  0
LINE
  5
225EE
  8
01
 10
2747.478475123662
 20
-561.296500120058
 30
0.0
 11
2747.498538177602
 21
-561.3010238758868
 31
0.0
  0
LINE
  5
225EF
  8
01
 10
2747.498538177602
 20
-561.3010238758868
 30
0.0
 11
2747.518647839202
 21
-561.3059679681098
 31
0.0
  0
LINE
  5
225F0
  8
01
 10
2747.518647839202
 20
-561.3059679681098
 30
0.0
 11
2747.538800079525
 21
-561.3113361967678
 31
0.0
  0
LINE
  5
225F1
  8
01
 10
2747.538800079525
 20
-561.3113361967678
 30
0.0
 11
2747.55899078762
 21
-561.3171322271999
 31
0.0
  0
LINE
  5
225F2
  8
01
 10
2747.55899078762
 20
-561.3171322271999
 30
0.0
 11
2747.579215772086
 21
-561.323359584642
 31
0.0
  0
LINE
  5
225F3
  8
01
 10
2747.579215772086
 20
-561.323359584642
 30
0.0
 11
2747.599470762758
 21
-561.3300216488649
 31
0.0
  0
LINE
  5
225F4
  8
01
 10
2747.599470762758
 20
-561.3300216488649
 30
0.0
 11
2747.61975141252
 21
-561.3371216488629
 31
0.0
  0
LINE
  5
225F5
  8
01
 10
2747.61975141252
 20
-561.3371216488629
 30
0.0
 11
2747.640053299256
 21
-561.3446626575885
 31
0.0
  0
LINE
  5
225F6
  8
01
 10
2747.640053299256
 20
-561.3446626575885
 30
0.0
 11
2747.660371927923
 21
-561.3526475867636
 31
0.0
  0
LINE
  5
225F7
  8
01
 10
2747.660371927923
 20
-561.3526475867636
 30
0.0
 11
2747.680702732756
 21
-561.3610791817625
 31
0.0
  0
LINE
  5
225F8
  8
01
 10
2747.680702732756
 20
-561.3610791817625
 30
0.0
 11
2747.701041079607
 21
-561.3699600165862
 31
0.0
  0
LINE
  5
225F9
  8
01
 10
2747.701041079607
 20
-561.3699600165862
 30
0.0
 11
2747.721382268395
 21
-561.3792924889219
 31
0.0
  0
LINE
  5
225FA
  8
01
 10
2747.721382268395
 20
-561.3792924889219
 30
0.0
 11
2747.741721535716
 21
-561.3890788153301
 31
0.0
  0
LINE
  5
225FB
  8
01
 10
2747.741721535716
 20
-561.3890788153301
 30
0.0
 11
2747.762054057534
 21
-561.3993210265296
 31
0.0
  0
LINE
  5
225FC
  8
01
 10
2747.762054057534
 20
-561.3993210265296
 30
0.0
 11
2747.782374952047
 21
-561.4100209628239
 31
0.0
  0
LINE
  5
225FD
  8
01
 10
2747.782374952047
 20
-561.4100209628239
 30
0.0
 11
2747.802679282639
 21
-561.4211802696661
 31
0.0
  0
LINE
  5
225FE
  8
01
 10
2747.802679282639
 20
-561.4211802696661
 30
0.0
 11
2747.822962060964
 21
-561.4328003933658
 31
0.0
  0
LINE
  5
225FF
  8
01
 10
2747.822962060964
 20
-561.4328003933658
 30
0.0
 11
2747.863442768106
 21
-561.4574278562793
 31
0.0
  0
LINE
  5
22600
  8
01
 10
2747.863442768106
 20
-561.4574278562793
 30
0.0
 11
2747.903776256673
 21
-561.4839107867035
 31
0.0
  0
LINE
  5
22601
  8
01
 10
2747.903776256673
 20
-561.4839107867035
 30
0.0
 11
2747.943921098802
 21
-561.5122531879449
 31
0.0
  0
LINE
  5
22602
  8
01
 10
2747.943921098802
 20
-561.5122531879449
 30
0.0
 11
2747.983835373623
 21
-561.5424555266206
 31
0.0
  0
LINE
  5
22603
  8
01
 10
2747.983835373623
 20
-561.5424555266206
 30
0.0
 11
2748.023476791437
 21
-561.5745146418219
 31
0.0
  0
LINE
  5
22604
  8
01
 10
2748.023476791437
 20
-561.5745146418219
 30
0.0
 11
2748.062802823322
 21
-561.6084236694021
 31
0.0
  0
LINE
  5
22605
  8
01
 10
2748.062802823322
 20
-561.6084236694021
 30
0.0
 11
2748.101770835521
 21
-561.6441719824177
 31
0.0
  0
LINE
  5
22606
  8
01
 10
2748.101770835521
 20
-561.6441719824177
 30
0.0
 11
2748.140338227789
 21
-561.6817451486484
 31
0.0
  0
LINE
  5
22607
  8
01
 10
2748.140338227789
 20
-561.6817451486484
 30
0.0
 11
2748.178462574895
 21
-561.7211249059699
 31
0.0
  0
LINE
  5
22608
  8
01
 10
2748.178462574895
 20
-561.7211249059699
 30
0.0
 11
2748.216101770293
 21
-561.7622891562348
 31
0.0
  0
LINE
  5
22609
  8
01
 10
2748.216101770293
 20
-561.7622891562348
 30
0.0
 11
2748.253214171138
 21
-561.8052119781648
 31
0.0
  0
LINE
  5
2260A
  8
01
 10
2748.253214171138
 20
-561.8052119781648
 30
0.0
 11
2748.28975874354
 21
-561.8498636595639
 31
0.0
  0
LINE
  5
2260B
  8
01
 10
2748.28975874354
 20
-561.8498636595639
 30
0.0
 11
2748.325695207128
 21
-561.8962107490368
 31
0.0
  0
LINE
  5
2260C
  8
01
 10
2748.325695207128
 20
-561.8962107490368
 30
0.0
 11
2748.360984177842
 21
-561.9442161271661
 31
0.0
  0
LINE
  5
2260D
  8
01
 10
2748.360984177842
 20
-561.9442161271661
 30
0.0
 11
2748.395587307976
 21
-561.9938390969671
 31
0.0
  0
LINE
  5
2260E
  8
01
 10
2748.395587307976
 20
-561.9938390969671
 30
0.0
 11
2748.429467422386
 21
-562.0450354932134
 31
0.0
  0
LINE
  5
2260F
  8
01
 10
2748.429467422386
 20
-562.0450354932134
 30
0.0
 11
2748.462588649934
 21
-562.0977578100781
 31
0.0
  0
LINE
  5
22610
  8
01
 10
2748.462588649934
 20
-562.0977578100781
 30
0.0
 11
2748.494916549153
 21
-562.1519553463311
 31
0.0
  0
LINE
  5
22611
  8
01
 10
2748.494916549153
 20
-562.1519553463311
 30
0.0
 11
2748.526418227229
 21
-562.2075743671892
 31
0.0
  0
LINE
  5
22612
  8
01
 10
2748.526418227229
 20
-562.2075743671892
 30
0.0
 11
2748.557062451455
 21
-562.2645582817147
 31
0.0
  0
LINE
  5
22613
  8
01
 10
2748.557062451455
 20
-562.2645582817147
 30
0.0
 11
2748.58681975233
 21
-562.3228478345625
 31
0.0
  0
LINE
  5
22614
  8
01
 10
2748.58681975233
 20
-562.3228478345625
 30
0.0
 11
2748.615662517666
 21
-562.3823813106935
 31
0.0
  0
LINE
  5
22615
  8
01
 10
2748.615662517666
 20
-562.3823813106935
 30
0.0
 11
2748.643565076938
 21
-562.4430947515791
 31
0.0
  0
LINE
  5
22616
  8
01
 10
2748.643565076938
 20
-562.4430947515791
 30
0.0
 11
2748.670503775509
 21
-562.5049221813231
 31
0.0
  0
LINE
  5
22617
  8
01
 10
2748.670503775509
 20
-562.5049221813231
 30
0.0
 11
2748.696457038153
 21
-562.567795841034
 31
0.0
  0
LINE
  5
22618
  8
01
 10
2748.696457038153
 20
-562.567795841034
 30
0.0
 11
2748.721405421638
 21
-562.6316464297358
 31
0.0
  0
LINE
  5
22619
  8
01
 10
2748.721405421638
 20
-562.6316464297358
 30
0.0
 11
2748.745331656108
 21
-562.6964033500587
 31
0.0
  0
LINE
  5
2261A
  8
01
 10
2748.745331656108
 20
-562.6964033500587
 30
0.0
 11
2748.768220675123
 21
-562.7619949569341
 31
0.0
  0
LINE
  5
2261B
  8
01
 10
2748.768220675123
 20
-562.7619949569341
 30
0.0
 11
2748.810837919282
 21
-562.8953919107232
 31
0.0
  0
LINE
  5
2261C
  8
01
 10
2748.810837919282
 20
-562.8953919107232
 30
0.0
 11
2748.849181123434
 21
-563.0312526482874
 31
0.0
  0
LINE
  5
2261D
  8
01
 10
2748.849181123434
 20
-563.0312526482874
 30
0.0
 11
2748.883209562315
 21
-563.1689915612058
 31
0.0
  0
LINE
  5
2261E
  8
01
 10
2748.883209562315
 20
-563.1689915612058
 30
0.0
 11
2748.912916875019
 21
-563.3080295607458
 31
0.0
  0
LINE
  5
2261F
  8
01
 10
2748.912916875019
 20
-563.3080295607458
 30
0.0
 11
2748.938329526063
 21
-563.4478010453556
 31
0.0
  0
LINE
  5
22620
  8
01
 10
2748.938329526063
 20
-563.4478010453556
 30
0.0
 11
2748.959504747552
 21
-563.5877602026728
 31
0.0
  0
LINE
  5
22621
  8
01
 10
2748.959504747552
 20
-563.5877602026728
 30
0.0
 11
2748.976528053001
 21
-563.7273865326558
 31
0.0
  0
LINE
  5
22622
  8
01
 10
2748.976528053001
 20
-563.7273865326558
 30
0.0
 11
2748.989510420015
 21
-563.8661895145613
 31
0.0
  0
LINE
  5
22623
  8
01
 10
2748.989510420015
 20
-563.8661895145613
 30
0.0
 11
2748.998585240686
 21
-564.0037123761983
 31
0.0
  0
LINE
  5
22624
  8
01
 10
2748.998585240686
 20
-564.0037123761983
 30
0.0
 11
2749.003905136178
 21
-564.1395349574457
 31
0.0
  0
LINE
  5
22625
  8
01
 10
2749.003905136178
 20
-564.1395349574457
 30
0.0
 11
2749.005638725521
 21
-564.273275689892
 31
0.0
  0
LINE
  5
22626
  8
01
 10
2467.002819362762
 20
-583.2732756898884
 30
0.0
 11
2466.74371458116
 21
-583.2732756898884
 31
0.0
  0
LINE
  5
22627
  8
01
 10
2466.74371458116
 20
-583.2732756898884
 30
0.0
 11
2466.724405481826
 21
-583.2730917491997
 31
0.0
  0
LINE
  5
22628
  8
01
 10
2466.724405481826
 20
-583.2730917491997
 30
0.0
 11
2466.705011190377
 21
-583.2725366089696
 31
0.0
  0
LINE
  5
22629
  8
01
 10
2466.705011190377
 20
-583.2725366089696
 30
0.0
 11
2466.685534766108
 21
-583.2716053453803
 31
0.0
  0
LINE
  5
2262A
  8
01
 10
2466.685534766108
 20
-583.2716053453803
 30
0.0
 11
2466.665979359404
 21
-583.2702931100064
 31
0.0
  0
LINE
  5
2262B
  8
01
 10
2466.665979359404
 20
-583.2702931100064
 30
0.0
 11
2466.646348211518
 21
-583.2685951350547
 31
0.0
  0
LINE
  5
2262C
  8
01
 10
2466.646348211518
 20
-583.2685951350547
 30
0.0
 11
2466.626644654181
 21
-583.2665067386567
 31
0.0
  0
LINE
  5
2262D
  8
01
 10
2466.626644654181
 20
-583.2665067386567
 30
0.0
 11
2466.606872109151
 21
-583.2640233302043
 31
0.0
  0
LINE
  5
2262E
  8
01
 10
2466.606872109151
 20
-583.2640233302043
 30
0.0
 11
2466.587034087614
 21
-583.2611404157276
 31
0.0
  0
LINE
  5
2262F
  8
01
 10
2466.587034087614
 20
-583.2611404157276
 30
0.0
 11
2466.567134189496
 21
-583.2578536033013
 31
0.0
  0
LINE
  5
22630
  8
01
 10
2466.567134189496
 20
-583.2578536033013
 30
0.0
 11
2466.547176102635
 21
-583.2541586084751
 31
0.0
  0
LINE
  5
22631
  8
01
 10
2466.547176102635
 20
-583.2541586084751
 30
0.0
 11
2466.527163601859
 21
-583.2500512597233
 31
0.0
  0
LINE
  5
22632
  8
01
 10
2466.527163601859
 20
-583.2500512597233
 30
0.0
 11
2466.507100547922
 21
-583.2455275038935
 31
0.0
  0
LINE
  5
22633
  8
01
 10
2466.507100547922
 20
-583.2455275038935
 30
0.0
 11
2466.486990886322
 21
-583.2405834116705
 31
0.0
  0
LINE
  5
22634
  8
01
 10
2466.486990886322
 20
-583.2405834116705
 30
0.0
 11
2466.466838645996
 21
-583.2352151830125
 31
0.0
  0
LINE
  5
22635
  8
01
 10
2466.466838645996
 20
-583.2352151830125
 30
0.0
 11
2466.446647937901
 21
-583.2294191525805
 31
0.0
  0
LINE
  5
22636
  8
01
 10
2466.446647937901
 20
-583.2294191525805
 30
0.0
 11
2466.426422953435
 21
-583.2231917951392
 31
0.0
  0
LINE
  5
22637
  8
01
 10
2466.426422953435
 20
-583.2231917951392
 30
0.0
 11
2466.406167962767
 21
-583.2165297309155
 31
0.0
  0
LINE
  5
22638
  8
01
 10
2466.406167962767
 20
-583.2165297309155
 30
0.0
 11
2466.385887313005
 21
-583.2094297309175
 31
0.0
  0
LINE
  5
22639
  8
01
 10
2466.385887313005
 20
-583.2094297309175
 30
0.0
 11
2466.365585426269
 21
-583.2018887221927
 31
0.0
  0
LINE
  5
2263A
  8
01
 10
2466.365585426269
 20
-583.2018887221927
 30
0.0
 11
2466.345266797602
 21
-583.1939037930176
 31
0.0
  0
LINE
  5
2263B
  8
01
 10
2466.345266797602
 20
-583.1939037930176
 30
0.0
 11
2466.324935992765
 21
-583.1854721980178
 31
0.0
  0
LINE
  5
2263C
  8
01
 10
2466.324935992765
 20
-583.1854721980178
 30
0.0
 11
2466.304597645914
 21
-583.176591363195
 31
0.0
  0
LINE
  5
2263D
  8
01
 10
2466.304597645914
 20
-583.176591363195
 30
0.0
 11
2466.284256457126
 21
-583.1672588908584
 31
0.0
  0
LINE
  5
2263E
  8
01
 10
2466.284256457126
 20
-583.1672588908584
 30
0.0
 11
2466.263917189808
 21
-583.1574725644512
 31
0.0
  0
LINE
  5
2263F
  8
01
 10
2466.263917189808
 20
-583.1574725644512
 30
0.0
 11
2466.243584667987
 21
-583.1472303532516
 31
0.0
  0
LINE
  5
22640
  8
01
 10
2466.243584667987
 20
-583.1472303532516
 30
0.0
 11
2466.223263773474
 21
-583.1365304169565
 31
0.0
  0
LINE
  5
22641
  8
01
 10
2466.223263773474
 20
-583.1365304169565
 30
0.0
 11
2466.202959442882
 21
-583.1253711101151
 31
0.0
  0
LINE
  5
22642
  8
01
 10
2466.202959442882
 20
-583.1253711101151
 30
0.0
 11
2466.182676664561
 21
-583.1137509864145
 31
0.0
  0
LINE
  5
22643
  8
01
 10
2466.182676664561
 20
-583.1137509864145
 30
0.0
 11
2466.142195957415
 21
-583.0891235235019
 31
0.0
  0
LINE
  5
22644
  8
01
 10
2466.142195957415
 20
-583.0891235235019
 30
0.0
 11
2466.101862468848
 21
-583.0626405930768
 31
0.0
  0
LINE
  5
22645
  8
01
 10
2466.101862468848
 20
-583.0626405930768
 30
0.0
 11
2466.061717626722
 21
-583.0342981918354
 31
0.0
  0
LINE
  5
22646
  8
01
 10
2466.061717626722
 20
-583.0342981918354
 30
0.0
 11
2466.021803351898
 21
-583.0040958531606
 31
0.0
  0
LINE
  5
22647
  8
01
 10
2466.021803351898
 20
-583.0040958531606
 30
0.0
 11
2465.982161934084
 21
-582.9720367379584
 31
0.0
  0
LINE
  5
22648
  8
01
 10
2465.982161934084
 20
-582.9720367379584
 30
0.0
 11
2465.942835902199
 21
-582.9381277103791
 31
0.0
  0
LINE
  5
22649
  8
01
 10
2465.942835902199
 20
-582.9381277103791
 30
0.0
 11
2465.903867890003
 21
-582.9023793973636
 31
0.0
  0
LINE
  5
2264A
  8
01
 10
2465.903867890003
 20
-582.9023793973636
 30
0.0
 11
2465.865300497731
 21
-582.864806231132
 31
0.0
  0
LINE
  5
2264B
  8
01
 10
2465.865300497731
 20
-582.864806231132
 30
0.0
 11
2465.827176150629
 21
-582.8254264738114
 31
0.0
  0
LINE
  5
2264C
  8
01
 10
2465.827176150629
 20
-582.8254264738114
 30
0.0
 11
2465.789536955228
 21
-582.7842622235455
 31
0.0
  0
LINE
  5
2264D
  8
01
 10
2465.789536955228
 20
-582.7842622235455
 30
0.0
 11
2465.752424554383
 21
-582.7413394016164
 31
0.0
  0
LINE
  5
2264E
  8
01
 10
2465.752424554383
 20
-582.7413394016164
 30
0.0
 11
2465.715879981981
 21
-582.6966877202174
 31
0.0
  0
LINE
  5
2264F
  8
01
 10
2465.715879981981
 20
-582.6966877202174
 30
0.0
 11
2465.679943518393
 21
-582.6503406307445
 31
0.0
  0
LINE
  5
22650
  8
01
 10
2465.679943518393
 20
-582.6503406307445
 30
0.0
 11
2465.644654547679
 21
-582.6023352526142
 31
0.0
  0
LINE
  5
22651
  8
01
 10
2465.644654547679
 20
-582.6023352526142
 30
0.0
 11
2465.610051417549
 21
-582.5527122828132
 31
0.0
  0
LINE
  5
22652
  8
01
 10
2465.610051417549
 20
-582.5527122828132
 30
0.0
 11
2465.576171303139
 21
-582.501515886567
 31
0.0
  0
LINE
  5
22653
  8
01
 10
2465.576171303139
 20
-582.501515886567
 30
0.0
 11
2465.543050075587
 21
-582.4487935697032
 31
0.0
  0
LINE
  5
22654
  8
01
 10
2465.543050075587
 20
-582.4487935697032
 30
0.0
 11
2465.510722176368
 21
-582.3945960334493
 31
0.0
  0
LINE
  5
22655
  8
01
 10
2465.510722176368
 20
-582.3945960334493
 30
0.0
 11
2465.479220498291
 21
-582.3389770125921
 31
0.0
  0
LINE
  5
22656
  8
01
 10
2465.479220498291
 20
-582.3389770125921
 30
0.0
 11
2465.44857627407
 21
-582.2819930980666
 31
0.0
  0
LINE
  5
22657
  8
01
 10
2465.44857627407
 20
-582.2819930980666
 30
0.0
 11
2465.41881897319
 21
-582.2237035452188
 31
0.0
  0
LINE
  5
22658
  8
01
 10
2465.41881897319
 20
-582.2237035452188
 30
0.0
 11
2465.389976207854
 21
-582.1641700690877
 31
0.0
  0
LINE
  5
22659
  8
01
 10
2465.389976207854
 20
-582.1641700690877
 30
0.0
 11
2465.362073648583
 21
-582.1034566282021
 31
0.0
  0
LINE
  5
2265A
  8
01
 10
2465.362073648583
 20
-582.1034566282021
 30
0.0
 11
2465.335134950012
 21
-582.0416291984582
 31
0.0
  0
LINE
  5
2265B
  8
01
 10
2465.335134950012
 20
-582.0416291984582
 30
0.0
 11
2465.309181687371
 21
-581.9787555387472
 31
0.0
  0
LINE
  5
2265C
  8
01
 10
2465.309181687371
 20
-581.9787555387472
 30
0.0
 11
2465.284233303883
 21
-581.9149049500454
 31
0.0
  0
LINE
  5
2265D
  8
01
 10
2465.284233303883
 20
-581.9149049500454
 30
0.0
 11
2465.260307069413
 21
-581.8501480297225
 31
0.0
  0
LINE
  5
2265E
  8
01
 10
2465.260307069413
 20
-581.8501480297225
 30
0.0
 11
2465.237418050398
 21
-581.7845564228471
 31
0.0
  0
LINE
  5
2265F
  8
01
 10
2465.237418050398
 20
-581.7845564228471
 30
0.0
 11
2465.194800806239
 21
-581.651159469058
 31
0.0
  0
LINE
  5
22660
  8
01
 10
2465.194800806239
 20
-581.651159469058
 30
0.0
 11
2465.156457602086
 21
-581.5152987314939
 31
0.0
  0
LINE
  5
22661
  8
01
 10
2465.156457602086
 20
-581.5152987314939
 30
0.0
 11
2465.122429163206
 21
-581.3775598185746
 31
0.0
  0
LINE
  5
22662
  8
01
 10
2465.122429163206
 20
-581.3775598185746
 30
0.0
 11
2465.092721850502
 21
-581.2385218190354
 31
0.0
  0
LINE
  5
22663
  8
01
 10
2465.092721850502
 20
-581.2385218190354
 30
0.0
 11
2465.067309199458
 21
-581.0987503344256
 31
0.0
  0
LINE
  5
22664
  8
01
 10
2465.067309199458
 20
-581.0987503344256
 30
0.0
 11
2465.046133977972
 21
-580.9587911771084
 31
0.0
  0
LINE
  5
22665
  8
01
 10
2465.046133977972
 20
-580.9587911771084
 30
0.0
 11
2465.02911067252
 21
-580.8191648471254
 31
0.0
  0
LINE
  5
22666
  8
01
 10
2465.02911067252
 20
-580.8191648471254
 30
0.0
 11
2465.016128305506
 21
-580.68036186522
 31
0.0
  0
LINE
  5
22667
  8
01
 10
2465.016128305506
 20
-580.68036186522
 30
0.0
 11
2465.007053484835
 21
-580.542839003582
 31
0.0
  0
LINE
  5
22668
  8
01
 10
2465.007053484835
 20
-580.542839003582
 30
0.0
 11
2465.001733589346
 21
-580.4070164223347
 31
0.0
  0
LINE
  5
22669
  8
01
 10
2465.001733589346
 20
-580.4070164223347
 30
0.0
 11
2465.0
 21
-580.2732756898893
 31
0.0
  0
LINE
  5
2266A
  8
01
 10
2465.000000000004
 20
-564.2732756898893
 30
0.0
 11
2465.00173358935
 21
-564.139534957443
 31
0.0
  0
LINE
  5
2266B
  8
01
 10
2465.00173358935
 20
-564.139534957443
 30
0.0
 11
2465.007053484838
 21
-564.0037123761956
 31
0.0
  0
LINE
  5
2266C
  8
01
 10
2465.007053484838
 20
-564.0037123761956
 30
0.0
 11
2465.016128305513
 21
-563.8661895145585
 31
0.0
  0
LINE
  5
2266D
  8
01
 10
2465.016128305513
 20
-563.8661895145585
 30
0.0
 11
2465.029110672524
 21
-563.7273865326531
 31
0.0
  0
LINE
  5
2266E
  8
01
 10
2465.029110672524
 20
-563.7273865326531
 30
0.0
 11
2465.046133977976
 21
-563.5877602026701
 31
0.0
  0
LINE
  5
2266F
  8
01
 10
2465.046133977976
 20
-563.5877602026701
 30
0.0
 11
2465.067309199461
 21
-563.4478010453538
 31
0.0
  0
LINE
  5
22670
  8
01
 10
2465.067309199461
 20
-563.4478010453538
 30
0.0
 11
2465.092721850506
 21
-563.308029560744
 31
0.0
  0
LINE
  5
22671
  8
01
 10
2465.092721850506
 20
-563.308029560744
 30
0.0
 11
2465.12242916321
 21
-563.1689915612039
 31
0.0
  0
LINE
  5
22672
  8
01
 10
2465.12242916321
 20
-563.1689915612039
 30
0.0
 11
2465.156457602094
 21
-563.0312526482855
 31
0.0
  0
LINE
  5
22673
  8
01
 10
2465.156457602094
 20
-563.0312526482855
 30
0.0
 11
2465.194800806246
 21
-562.8953919107223
 31
0.0
  0
LINE
  5
22674
  8
01
 10
2465.194800806246
 20
-562.8953919107223
 30
0.0
 11
2465.237418050405
 21
-562.7619949569332
 31
0.0
  0
LINE
  5
22675
  8
01
 10
2465.237418050405
 20
-562.7619949569332
 30
0.0
 11
2465.260307069417
 21
-562.6964033500578
 31
0.0
  0
LINE
  5
22676
  8
01
 10
2465.260307069417
 20
-562.6964033500578
 30
0.0
 11
2465.28423330389
 21
-562.6316464297349
 31
0.0
  0
LINE
  5
22677
  8
01
 10
2465.28423330389
 20
-562.6316464297349
 30
0.0
 11
2465.309181687375
 21
-562.5677958410331
 31
0.0
  0
LINE
  5
22678
  8
01
 10
2465.309181687375
 20
-562.5677958410331
 30
0.0
 11
2465.335134950019
 21
-562.5049221813222
 31
0.0
  0
LINE
  5
22679
  8
01
 10
2465.335134950019
 20
-562.5049221813222
 30
0.0
 11
2465.362073648586
 21
-562.4430947515791
 31
0.0
  0
LINE
  5
2267A
  8
01
 10
2465.362073648586
 20
-562.4430947515791
 30
0.0
 11
2465.389976207862
 21
-562.3823813106935
 31
0.0
  0
LINE
  5
2267B
  8
01
 10
2465.389976207862
 20
-562.3823813106935
 30
0.0
 11
2465.418818973194
 21
-562.3228478345625
 31
0.0
  0
LINE
  5
2267C
  8
01
 10
2465.418818973194
 20
-562.3228478345625
 30
0.0
 11
2465.448576274073
 21
-562.2645582817147
 31
0.0
  0
LINE
  5
2267D
  8
01
 10
2465.448576274073
 20
-562.2645582817147
 30
0.0
 11
2465.479220498295
 21
-562.2075743671892
 31
0.0
  0
LINE
  5
2267E
  8
01
 10
2465.479220498295
 20
-562.2075743671892
 30
0.0
 11
2465.510722176372
 21
-562.151955346332
 31
0.0
  0
LINE
  5
2267F
  8
01
 10
2465.510722176372
 20
-562.151955346332
 30
0.0
 11
2465.543050075594
 21
-562.0977578100781
 31
0.0
  0
LINE
  5
22680
  8
01
 10
2465.543050075594
 20
-562.0977578100781
 30
0.0
 11
2465.576171303142
 21
-562.0450354932143
 31
0.0
  0
LINE
  5
22681
  8
01
 10
2465.576171303142
 20
-562.0450354932143
 30
0.0
 11
2465.610051417552
 21
-561.993839096968
 31
0.0
  0
LINE
  5
22682
  8
01
 10
2465.610051417552
 20
-561.993839096968
 30
0.0
 11
2465.644654547683
 21
-561.944216127167
 31
0.0
  0
LINE
  5
22683
  8
01
 10
2465.644654547683
 20
-561.944216127167
 30
0.0
 11
2465.6799435184
 21
-561.8962107490377
 31
0.0
  0
LINE
  5
22684
  8
01
 10
2465.6799435184
 20
-561.8962107490377
 30
0.0
 11
2465.715879981984
 21
-561.8498636595648
 31
0.0
  0
LINE
  5
22685
  8
01
 10
2465.715879981984
 20
-561.8498636595648
 30
0.0
 11
2465.75242455439
 21
-561.8052119781657
 31
0.0
  0
LINE
  5
22686
  8
01
 10
2465.75242455439
 20
-561.8052119781657
 30
0.0
 11
2465.789536955235
 21
-561.7622891562357
 31
0.0
  0
LINE
  5
22687
  8
01
 10
2465.789536955235
 20
-561.7622891562357
 30
0.0
 11
2465.827176150633
 21
-561.7211249059708
 31
0.0
  0
LINE
  5
22688
  8
01
 10
2465.827176150633
 20
-561.7211249059708
 30
0.0
 11
2465.865300497735
 21
-561.6817451486493
 31
0.0
  0
LINE
  5
22689
  8
01
 10
2465.865300497735
 20
-561.6817451486493
 30
0.0
 11
2465.903867890007
 21
-561.6441719824186
 31
0.0
  0
LINE
  5
2268A
  8
01
 10
2465.903867890007
 20
-561.6441719824186
 30
0.0
 11
2465.942835902202
 21
-561.6084236694021
 31
0.0
  0
LINE
  5
2268B
  8
01
 10
2465.942835902202
 20
-561.6084236694021
 30
0.0
 11
2465.982161934087
 21
-561.5745146418228
 31
0.0
  0
LINE
  5
2268C
  8
01
 10
2465.982161934087
 20
-561.5745146418228
 30
0.0
 11
2466.021803351901
 21
-561.5424555266216
 31
0.0
  0
LINE
  5
2268D
  8
01
 10
2466.021803351901
 20
-561.5424555266216
 30
0.0
 11
2466.061717626726
 21
-561.5122531879458
 31
0.0
  0
LINE
  5
2268E
  8
01
 10
2466.061717626726
 20
-561.5122531879458
 30
0.0
 11
2466.101862468851
 21
-561.4839107867044
 31
0.0
  0
LINE
  5
2268F
  8
01
 10
2466.101862468851
 20
-561.4839107867044
 30
0.0
 11
2466.142195957418
 21
-561.4574278562793
 31
0.0
  0
LINE
  5
22690
  8
01
 10
2466.142195957418
 20
-561.4574278562793
 30
0.0
 11
2466.182676664564
 21
-561.4328003933658
 31
0.0
  0
LINE
  5
22691
  8
01
 10
2466.182676664564
 20
-561.4328003933658
 30
0.0
 11
2466.202959442886
 21
-561.4211802696661
 31
0.0
  0
LINE
  5
22692
  8
01
 10
2466.202959442886
 20
-561.4211802696661
 30
0.0
 11
2466.223263773478
 21
-561.4100209628239
 31
0.0
  0
LINE
  5
22693
  8
01
 10
2466.223263773478
 20
-561.4100209628239
 30
0.0
 11
2466.243584667991
 21
-561.3993210265287
 31
0.0
  0
LINE
  5
22694
  8
01
 10
2466.243584667991
 20
-561.3993210265287
 30
0.0
 11
2466.263917189812
 21
-561.3890788153301
 31
0.0
  0
LINE
  5
22695
  8
01
 10
2466.263917189812
 20
-561.3890788153301
 30
0.0
 11
2466.284256457129
 21
-561.3792924889219
 31
0.0
  0
LINE
  5
22696
  8
01
 10
2466.284256457129
 20
-561.3792924889219
 30
0.0
 11
2466.304597645918
 21
-561.3699600165853
 31
0.0
  0
LINE
  5
22697
  8
01
 10
2466.304597645918
 20
-561.3699600165853
 30
0.0
 11
2466.324935992769
 21
-561.3610791817625
 31
0.0
  0
LINE
  5
22698
  8
01
 10
2466.324935992769
 20
-561.3610791817625
 30
0.0
 11
2466.345266797605
 21
-561.3526475867627
 31
0.0
  0
LINE
  5
22699
  8
01
 10
2466.345266797605
 20
-561.3526475867627
 30
0.0
 11
2466.365585426272
 21
-561.3446626575876
 31
0.0
  0
LINE
  5
2269A
  8
01
 10
2466.365585426272
 20
-561.3446626575876
 30
0.0
 11
2466.385887313008
 21
-561.337121648862
 31
0.0
  0
LINE
  5
2269B
  8
01
 10
2466.385887313008
 20
-561.337121648862
 30
0.0
 11
2466.406167962767
 21
-561.330021648864
 31
0.0
  0
LINE
  5
2269C
  8
01
 10
2466.406167962767
 20
-561.330021648864
 30
0.0
 11
2466.426422953438
 21
-561.3233595846411
 31
0.0
  0
LINE
  5
2269D
  8
01
 10
2466.426422953438
 20
-561.3233595846411
 30
0.0
 11
2466.446647937904
 21
-561.317132227199
 31
0.0
  0
LINE
  5
2269E
  8
01
 10
2466.446647937904
 20
-561.317132227199
 30
0.0
 11
2466.466838646
 21
-561.3113361967669
 31
0.0
  0
LINE
  5
2269F
  8
01
 10
2466.466838646
 20
-561.3113361967669
 30
0.0
 11
2466.486990886322
 21
-561.305967968108
 31
0.0
  0
LINE
  5
226A0
  8
01
 10
2466.486990886322
 20
-561.305967968108
 30
0.0
 11
2466.507100547926
 21
-561.301023875885
 31
0.0
  0
LINE
  5
226A1
  8
01
 10
2466.507100547926
 20
-561.301023875885
 30
0.0
 11
2466.527163601862
 21
-561.2965001200562
 31
0.0
  0
LINE
  5
226A2
  8
01
 10
2466.527163601862
 20
-561.2965001200562
 30
0.0
 11
2466.547176102638
 21
-561.2923927713034
 31
0.0
  0
LINE
  5
226A3
  8
01
 10
2466.547176102638
 20
-561.2923927713034
 30
0.0
 11
2466.567134189499
 21
-561.2886977764772
 31
0.0
  0
LINE
  5
226A4
  8
01
 10
2466.567134189499
 20
-561.2886977764772
 30
0.0
 11
2466.587034087617
 21
-561.2854109640509
 31
0.0
  0
LINE
  5
226A5
  8
01
 10
2466.587034087617
 20
-561.2854109640509
 30
0.0
 11
2466.606872109154
 21
-561.2825280495742
 31
0.0
  0
LINE
  5
226A6
  8
01
 10
2466.606872109154
 20
-561.2825280495742
 30
0.0
 11
2466.626644654185
 21
-561.2800446411218
 31
0.0
  0
LINE
  5
226A7
  8
01
 10
2466.626644654185
 20
-561.2800446411218
 30
0.0
 11
2466.646348211521
 21
-561.2779562447238
 31
0.0
  0
LINE
  5
226A8
  8
01
 10
2466.646348211521
 20
-561.2779562447238
 30
0.0
 11
2466.665979359408
 21
-561.2762582697721
 31
0.0
  0
LINE
  5
226A9
  8
01
 10
2466.665979359408
 20
-561.2762582697721
 30
0.0
 11
2466.685534766111
 21
-561.2749460343982
 31
0.0
  0
LINE
  5
226AA
  8
01
 10
2466.685534766111
 20
-561.2749460343982
 30
0.0
 11
2466.705011190381
 21
-561.274014770808
 31
0.0
  0
LINE
  5
226AB
  8
01
 10
2466.705011190381
 20
-561.274014770808
 30
0.0
 11
2466.724405481829
 21
-561.2734596305779
 31
0.0
  0
LINE
  5
226AC
  8
01
 10
2466.724405481829
 20
-561.2734596305779
 30
0.0
 11
2466.74371458116
 21
-561.2732756898893
 31
0.0
  0
LINE
  5
226AD
  8
01
 10
2466.74371458116
 20
-561.2732756898893
 30
0.0
 11
2467.002819362762
 21
-561.2732756898893
 31
0.0
  0
LINE
  5
226AE
  8
01
 10
2749.005638725521
 20
-564.273275689892
 30
0.0
 11
2749.005638725521
 21
-580.2732756898947
 31
0.0
  0
LINE
  5
226AF
  8
01
 10
2465.0
 20
-580.2732756898893
 30
0.0
 11
2465.000000000004
 21
-564.2732756898893
 31
0.0
  0
LINE
  5
226C9
  8
01
 10
2598.145431546072
 20
-502.2732756898892
 30
0.0
 11
2615.860207179452
 21
-502.2732756898892
 31
0.0
  0
LINE
  5
226CA
  8
01
 10
2622.145431546069
 20
-502.2732756898892
 30
0.0
 11
2648.752819362759
 21
-502.2732756898892
 31
0.0
  0
LINE
  5
226CB
  8
01
 10
2655.252819362759
 20
-502.2732756898892
 30
0.0
 11
2687.002819362762
 21
-502.2732756898892
 31
0.0
  0
LINE
  5
226CC
  8
01
 10
2527.002819362762
 20
-502.2732756898892
 30
0.0
 11
2558.752819362762
 21
-502.2732756898892
 31
0.0
  0
LINE
  5
226CD
  8
01
 10
2565.252819362762
 20
-502.2732756898892
 30
0.0
 11
2591.860207179452
 21
-502.2732756898892
 31
0.0
  0
LINE
  5
226D2
  8
1DIM
 10
2687.002819362762
 20
-504.2732756898928
 30
0.0
 11
2527.002819362759
 21
-504.2732756899192
 31
0.0
  0
LINE
  5
226D4
  8
01
 10
2527.002819362759
 20
-504.2732756899192
 30
0.0
 11
2527.002819362762
 21
-502.2732756898892
 31
0.0
  0
LINE
  5
226D5
  8
01
 10
2687.002819362762
 20
-502.2732756898892
 30
0.0
 11
2687.002819362762
 21
-504.2732756898928
 31
0.0
  0
LINE
  5
226D8
  8
01
 10
2648.752819362759
 20
-502.2732756898892
 30
0.0
 11
2655.252819362759
 21
-502.2732756898892
 31
0.0
  0
LINE
  5
226E0
  8
01
 10
2558.752819362762
 20
-502.2732756898892
 30
0.0
 11
2565.252819362762
 21
-502.2732756898892
 31
0.0
  0
LINE
  5
226E4
  8
01
 10
2622.145431546844
 20
-502.2732756898892
 30
0.0
 11
2615.860207179448
 21
-502.2732756898892
 31
0.0
  0
LINE
  5
226E5
  8
01
 10
2591.860207179452
 20
-502.2732756898892
 30
0.0
 11
2598.145431546844
 21
-502.2732756898892
 31
0.0
  0
LINE
  5
22734
  8
1DIM
 10
2862.293579736205
 20
-649.1758852809726
 30
0.0
 11
2859.793579736205
 21
-649.1758852809726
 31
0.0
  0
LINE
  5
22735
  8
1DIM
 10
2862.293579736205
 20
-649.1758852809817
 30
0.0
 11
2883.293579736205
 21
-649.175885280979
 31
0.0
  0
LINE
  5
22736
  8
1DIM
 10
2882.293579736205
 20
-629.1758852809726
 30
0.0
 11
2882.293579736205
 21
-631.1758852809726
 31
0.0
  0
LINE
  5
22737
  8
1DIM
 10
2788.293579736205
 20
-629.1758852809726
 30
0.0
 11
2788.293579736205
 21
-631.1758852809726
 31
0.0
  0
LINE
  5
22738
  8
1DIM
 10
2886.293579736205
 20
-649.175885280958
 30
0.0
 11
2888.293579736205
 21
-649.175885280958
 31
0.0
  0
LINE
  5
22739
  8
1DIM
 10
2832.293579736205
 20
-690.1758852809726
 30
0.0
 11
2832.293579736205
 21
-693.1758852809726
 31
0.0
  0
LINE
  5
2273A
  8
1DIM
 10
2829.293579736205
 20
-691.0820762495678
 30
0.0
 11
2807.293579736205
 21
-691.0820762495678
 31
0.0
  0
LINE
  5
2273B
  8
1DIM
 10
2826.293579736202
 20
-682.7333333333327
 30
0.0
 11
2826.293579736202
 21
-680.9896187521754
 31
0.0
  0
LINE
  5
2273C
  8
1DIM
 10
2810.293579736202
 20
-680.9896187521754
 30
0.0
 11
2810.293579736198
 21
-682.7333333333327
 31
0.0
  0
LINE
  5
2273D
  8
01
 10
2886.293579736205
 20
-652.1758852809589
 30
0.0
 11
2886.293579736205
 21
-649.175885280958
 31
0.0
  0
LINE
  5
2273E
  8
01
 10
2888.293579736205
 20
-649.175885280958
 30
0.0
 11
2888.293579736205
 21
-652.175885280958
 31
0.0
  0
LINE
  5
2273F
  8
01
 10
2888.293579736205
 20
-652.175885280958
 30
0.0
 11
2886.293579736205
 21
-652.1758852809589
 31
0.0
  0
ARC
  5
22740
  8
01
 10
2885.293579736205
 20
-632.1758852809717
 30
0.0
 40
2.999999999999773
 50
0.0
 51
90.0
  0
LINE
  5
22741
  8
01
 10
2886.293579736205
 20
-649.175885280958
 30
0.0
 11
2886.293579736205
 21
-647.1758852809726
 31
0.0
  0
LINE
  5
22742
  8
01
 10
2888.293579736205
 20
-632.1758852809726
 30
0.0
 11
2888.293579736205
 21
-649.175885280958
 31
0.0
  0
LINE
  5
22743
  8
01
 10
2785.293579736205
 20
-631.1758852809726
 30
0.0
 11
2788.293579736205
 21
-631.1758852809726
 31
0.0
  0
LINE
  5
22744
  8
01
 10
2785.293579736205
 20
-629.1758852809726
 30
0.0
 11
2785.293579736205
 21
-631.1758852809726
 31
0.0
  0
LINE
  5
22745
  8
01
 10
2788.293579736205
 20
-629.1758852809726
 30
0.0
 11
2785.293579736205
 21
-629.1758852809726
 31
0.0
  0
LINE
  5
22746
  8
01
 10
2788.293579736205
 20
-631.1758852809726
 30
0.0
 11
2882.293579736205
 21
-631.1758852809726
 31
0.0
  0
LINE
  5
22747
  8
01
 10
2882.293579736205
 20
-629.1758852809726
 30
0.0
 11
2788.293579736205
 21
-629.1758852809726
 31
0.0
  0
LINE
  5
22748
  8
01
 10
2885.293579736205
 20
-631.1758852809726
 30
0.0
 11
2885.293579736205
 21
-629.1758852809726
 31
0.0
  0
LINE
  5
22749
  8
01
 10
2882.293579736205
 20
-631.1758852809726
 30
0.0
 11
2885.293579736205
 21
-631.1758852809726
 31
0.0
  0
LINE
  5
2274A
  8
01
 10
2885.293579736205
 20
-629.1758852809726
 30
0.0
 11
2882.293579736205
 21
-629.1758852809726
 31
0.0
  0
LINE
  5
2274B
  8
01
 10
2883.293579736205
 20
-652.1758852809726
 30
0.0
 11
2884.293579736198
 21
-652.1758852809726
 31
0.0
  0
LINE
  5
2274C
  8
01
 10
2884.293579736205
 20
-650.1758852809726
 30
0.0
 11
2883.293579736205
 21
-650.1758852809726
 31
0.0
  0
LINE
  5
2274D
  8
01
 10
2884.293579736205
 20
-647.1758852809726
 30
0.0
 11
2884.293579736205
 21
-650.1758852809726
 31
0.0
  0
ARC
  5
2274E
  8
01
 10
2884.293579736183
 20
-650.1758852809589
 30
0.0
 40
2.000000000013586
 50
270.0000000004169
 51
354.8447669316116
  0
LINE
  5
2274F
  8
01
 10
2883.293579736205
 20
-652.175885280979
 30
0.0
 11
2883.293579736205
 21
-649.175885280979
 31
0.0
  0
LINE
  5
22750
  8
01
 10
2862.293579736205
 20
-652.1758852809808
 30
0.0
 11
2883.293579736205
 21
-652.175885280979
 31
0.0
  0
LINE
  5
22751
  8
01
 10
2883.293579736205
 20
-647.1758852809726
 30
0.0
 11
2886.293579736205
 21
-647.1758852809726
 31
0.0
  0
LINE
  5
22752
  8
01
 10
2883.293579736205
 20
-649.175885280979
 30
0.0
 11
2883.293579736205
 21
-647.1758852809726
 31
0.0
  0
LINE
  5
22753
  8
01
 10
2862.293579736205
 20
-631.1758852809726
 30
0.0
 11
2862.293579736205
 21
-631.6758852809726
 31
0.0
  0
LINE
  5
22754
  8
01
 10
2886.293579736205
 20
-632.1758852809726
 30
0.0
 11
2886.293579736205
 21
-647.1758852809726
 31
0.0
  0
ARC
  5
22755
  8
01
 10
2885.293579736202
 20
-632.1758852809744
 30
0.0
 40
1.000000000001677
 50
0.0000000001042204
 51
89.99999999979156
  0
ARC
  5
22756
  8
01
 10
2881.293579736209
 20
-647.1758852809744
 30
0.0
 40
2.999999999994962
 50
311.8103148934415
 51
0.0000000000347401
  0
ARC
  5
22757
  8
01
 10
2810.040201357803
 20
-685.48591135071
 30
0.0
 40
2.764215321639663
 50
84.74067060118024
 51
173.532135600386
  0
LINE
  5
22758
  8
01
 10
2807.293579736198
 20
-685.174533746952
 30
0.0
 11
2807.293579736198
 21
-683.4308191657947
 31
0.0
  0
ARC
  5
22759
  8
01
 10
2810.040201357803
 20
-683.7421967695509
 30
0.0
 40
2.764215321638882
 50
84.74067060110299
 51
173.5321356004224
  0
ARC
  5
2275A
  8
01
 10
2826.546958114582
 20
-683.74219676957
 30
0.0
 40
2.764215321655919
 50
6.4678643999359
 51
95.25932939848593
  0
LINE
  5
2275B
  8
01
 10
2829.293579736202
 20
-683.4308191657947
 30
0.0
 11
2829.293579736202
 21
-685.174533746952
 31
0.0
  0
ARC
  5
2275C
  8
01
 10
2826.546958114582
 20
-685.4859113507264
 30
0.0
 40
2.764215321655158
 50
6.467864399915889
 51
95.25932939848722
  0
LINE
  5
2275D
  8
01
 10
2810.293579736202
 20
-680.9896187521754
 30
0.0
 11
2826.293579736202
 21
-680.9896187521754
 31
0.0
  0
LINE
  5
2275E
  8
01
 10
2807.293579736205
 20
-693.1758852809726
 30
0.0
 11
2807.293579736205
 21
-691.0820762495678
 31
0.0
  0
LINE
  5
2275F
  8
01
 10
2829.293579736205
 20
-691.0820762495678
 30
0.0
 11
2829.293579736205
 21
-693.1758852809726
 31
0.0
  0
LINE
  5
22760
  8
01
 10
2826.293579736202
 20
-682.7333333333327
 30
0.0
 11
2810.293579736198
 21
-682.7333333333327
 31
0.0
  0
LINE
  5
22761
  8
01
 10
2829.293579736202
 20
-685.174533746952
 30
0.0
 11
2829.293579736205
 21
-691.0820762495678
 31
0.0
  0
LINE
  5
22762
  8
01
 10
2807.293579736205
 20
-691.0820762495678
 30
0.0
 11
2807.293579736198
 21
-685.174533746952
 31
0.0
  0
LINE
  5
22763
  8
01
 10
2829.293579736205
 20
-693.1758852809726
 30
0.0
 11
2807.293579736205
 21
-693.1758852809726
 31
0.0
  0
ARC
  5
22764
  8
01
 10
2845.223985106787
 20
-690.1758852809708
 30
0.0
 40
3.000000000000881
 50
270.0
 51
334.261247595424
  0
LINE
  5
22765
  8
01
 10
2863.54381491046
 20
-652.175885280979
 30
0.0
 11
2845.223985106787
 21
-690.1758852809726
 31
0.0
  0
LINE
  5
22766
  8
01
 10
2832.293579736205
 20
-693.1758852809726
 30
0.0
 11
2845.223985106787
 21
-693.1758852809717
 31
0.0
  0
LINE
  5
22767
  8
01
 10
2845.223985106787
 20
-690.1758852809726
 30
0.0
 11
2832.293579736205
 21
-690.1758852809726
 31
0.0
  0
LINE
  5
22768
  8
01
 10
2866.874248890578
 20
-652.1758852809726
 30
0.0
 11
2847.926335627374
 21
-691.4786905864175
 31
0.0
  0
LINE
  5
22769
  8
01
 10
2829.293579736205
 20
-690.1758852809726
 30
0.0
 11
2832.293579736205
 21
-690.1758852809726
 31
0.0
  0
LINE
  5
2276A
  8
01
 10
2832.293579736205
 20
-693.1758852809726
 30
0.0
 11
2829.293579736205
 21
-693.1758852809726
 31
0.0
  0
LINE
  5
2276B
  8
01
 10
2862.293579736205
 20
-649.1758852809726
 30
0.0
 11
2862.293579736205
 21
-631.6758852809726
 31
0.0
  0
LINE
  5
2276C
  8
01
 10
2859.793579736205
 20
-631.6758852809726
 30
0.0
 11
2859.793579736205
 21
-649.1758852809726
 31
0.0
  0
LINE
  5
2276D
  8
01
 10
2862.293579736205
 20
-631.6758852809726
 30
0.0
 11
2859.793579736205
 21
-631.6758852809726
 31
0.0
  0
LINE
  5
2276E
  8
01
 10
2859.793579736205
 20
-652.1758852809726
 30
0.0
 11
2862.293579736205
 21
-652.1758852809726
 31
0.0
  0
LINE
  5
2276F
  8
01
 10
2859.793579736205
 20
-649.1758852809726
 30
0.0
 11
2859.793579736205
 21
-652.1758852809726
 31
0.0
  0
LINE
  5
22770
  8
01
 10
2862.293579736205
 20
-652.1758852809726
 30
0.0
 11
2862.293579736205
 21
-649.1758852809726
 31
0.0
  0
ARC
  5
22771
  8
01
 10
2684.002819362759
 20
-649.1758852809726
 30
0.0
 40
2.999999999999773
 50
270.0
 51
0.0
  0
LINE
  5
22772
  8
01
 10
2687.002819362759
 20
-631.6758852809726
 30
0.0
 11
2687.002819362759
 21
-649.1758852809726
 31
0.0
  0
LINE
  5
22773
  8
01
 10
2527.002819362759
 20
-649.1758852809726
 30
0.0
 11
2527.002819362759
 21
-631.6758852809726
 31
0.0
  0
ARC
  5
22774
  8
01
 10
2530.002819362759
 20
-649.1758852809726
 30
0.0
 40
2.999999999999716
 50
180.0
 51
270.0
  0
LINE
  5
22775
  8
01
 10
2684.002819362759
 20
-652.1758852809726
 30
0.0
 11
2530.002819362759
 21
-652.1758852809726
 31
0.0
  0
LINE
  5
22776
  8
01
 10
2687.002819362759
 20
-631.6758852809726
 30
0.0
 11
2527.002819362759
 21
-631.6758852809726
 31
0.0
  0
LINE
  5
22777
  8
01
 10
2589.002819362759
 20
-690.1758852809726
 30
0.0
 11
2589.002819362759
 21
-652.1758852809726
 31
0.0
  0
LINE
  5
22778
  8
01
 10
2625.002819362759
 20
-652.1758852809726
 30
0.0
 11
2625.002819362759
 21
-690.1758852809726
 31
0.0
  0
LINE
  5
22779
  8
01
 10
2738.973583572177
 20
-690.1758852809735
 30
0.0
 11
2475.03205515334
 21
-690.1758852809744
 31
0.0
  0
LINE
  5
2277A
  8
01
 10
2475.032055153344
 20
-693.1758852809726
 30
0.0
 11
2738.973583572177
 21
-693.1758852809726
 31
0.0
  0
LINE
  5
2277B
  8
01
 10
2466.74371458116
 20
-685.1745337469565
 30
0.0
 11
2470.96338779731
 21
-691.0820762495678
 31
0.0
  0
LINE
  5
2277C
  8
01
 10
2743.042250928211
 20
-691.0820762495678
 30
0.0
 11
2747.261924144364
 21
-685.174533746952
 31
0.0
  0
ARC
  5
2277D
  8
01
 10
2738.973583572177
 20
-688.1758852809735
 30
0.0
 40
4.999999999998948
 50
270.0
 51
324.4623222080392
  0
ARC
  5
2277E
  8
01
 10
2475.032055153344
 20
-688.1758852809717
 30
0.0
 40
5.000000000000313
 50
215.537677791979
 51
270.0
  0
LINE
  5
2277F
  8
01
 10
2473.404588210928
 20
-689.3383616684114
 30
0.0
 11
2469.184914994778
 21
-683.4308191657983
 31
0.0
  0
LINE
  5
22780
  8
01
 10
2744.820723730743
 20
-683.4308191657947
 30
0.0
 11
2740.60105051459
 21
-689.3383616684114
 31
0.0
  0
ARC
  5
22781
  8
01
 10
2475.03205515333
 20
-688.1758852809953
 30
0.0
 40
1.999999999978769
 50
215.5376777916692
 51
270.0000000003127
  0
ARC
  5
22782
  8
01
 10
2738.973583572184
 20
-688.1758852809871
 30
0.0
 40
1.999999999985913
 50
269.9999999997916
 51
324.4623222082217
  0
LINE
  5
22783
  8
01
 10
2465.0
 20
-682.7333333333354
 30
0.0
 11
2467.441200413621
 21
-680.9896187521781
 31
0.0
  0
LINE
  5
22784
  8
01
 10
2466.74371458116
 20
-685.1745337469565
 30
0.0
 11
2465.0
 21
-682.7333333333354
 31
0.0
  0
LINE
  5
22785
  8
01
 10
2467.441200413621
 20
-680.9896187521781
 30
0.0
 11
2469.184914994778
 21
-683.4308191657983
 31
0.0
  0
LINE
  5
22786
  8
01
 10
2746.5644383119
 20
-680.9896187521754
 30
0.0
 11
2749.005638725521
 21
-682.7333333333327
 31
0.0
  0
LINE
  5
22787
  8
01
 10
2744.820723730743
 20
-683.4308191657947
 30
0.0
 11
2746.5644383119
 21
-680.9896187521754
 31
0.0
  0
LINE
  5
22788
  8
01
 10
2749.005638725521
 20
-682.7333333333327
 30
0.0
 11
2747.261924144364
 21
-685.174533746952
 31
0.0
  0
LINE
  5
22789
  8
01
 10
2527.002819362759
 20
-631.6758852809726
 30
0.0
 11
2527.002819362759
 21
-631.1758852809726
 31
0.0
  0
LINE
  5
2278A
  8
01
 10
2687.002819362759
 20
-631.1758852809726
 30
0.0
 11
2687.002819362759
 21
-631.6758852809726
 31
0.0
  0
LINE
  5
2278B
  8
01
 10
2529.002819362759
 20
-631.6758852809726
 30
0.0
 11
2529.002819362759
 21
-631.1758852809726
 31
0.0
  0
LINE
  5
2278C
  8
01
 10
2685.002819363428
 20
-631.6758852809726
 30
0.0
 11
2685.002819362759
 21
-631.1758852809726
 31
0.0
  0
LINE
  5
2278D
  8
01
 10
2747.002819362762
 20
-629.1758852809726
 30
0.0
 11
2747.002819362762
 21
-631.1758852809726
 31
0.0
  0
LINE
  5
2278E
  8
01
 10
2747.002819362762
 20
-629.1758852809726
 30
0.0
 11
2744.002819362762
 21
-629.1758852809726
 31
0.0
  0
LINE
  5
2278F
  8
01
 10
2744.002819362762
 20
-631.1758852809726
 30
0.0
 11
2747.002819362762
 21
-631.1758852809726
 31
0.0
  0
LINE
  5
22790
  8
01
 10
2744.002819362762
 20
-629.1758852809726
 30
0.0
 11
2470.002819362762
 21
-629.1758852809726
 31
0.0
  0
LINE
  5
22791
  8
01
 10
2470.002819362762
 20
-631.1758852809726
 30
0.0
 11
2744.002819362762
 21
-631.1758852809726
 31
0.0
  0
LINE
  5
22792
  8
01
 10
2470.002819362762
 20
-629.1758852809726
 30
0.0
 11
2467.002819362762
 21
-629.1758852809726
 31
0.0
  0
LINE
  5
22793
  8
01
 10
2467.002819362762
 20
-629.1758852809726
 30
0.0
 11
2467.002819362762
 21
-631.1758852809726
 31
0.0
  0
LINE
  5
22794
  8
01
 10
2467.002819362762
 20
-631.1758852809726
 30
0.0
 11
2470.002819362762
 21
-631.1758852809726
 31
0.0
  0
LINE
  5
22795
  8
1DIM
 10
2747.261924144364
 20
-685.174533746952
 30
0.0
 11
2744.820723730743
 21
-683.4308191657947
 31
0.0
  0
LINE
  5
22796
  8
1DIM
 10
2469.184914994778
 20
-683.4308191657983
 30
0.0
 11
2466.74371458116
 21
-685.1745337469565
 31
0.0
  0
LINE
  5
22797
  8
1DIM
 10
2470.002819362762
 20
-629.1758852809726
 30
0.0
 11
2470.002819362762
 21
-631.1758852809726
 31
0.0
  0
LINE
  5
22798
  8
1DIM
 10
2744.002819362762
 20
-629.1758852809726
 30
0.0
 11
2744.002819362762
 21
-631.1758852809726
 31
0.0
  0
LINE
  5
22856
  8
1DIM
 10
2888.293579736205
 20
-652.1758852809662
 30
0.0
 11
2888.293579736205
 21
-701.2229044899086
 31
0.0
  0
LINE
  5
2285F
  8
1DIM
 10
2542.002819362759
 20
-634.5045185200106
 30
0.0
 11
2542.002819362759
 21
-641.847252968796
 31
0.0
  0
LINE
  5
22860
  8
1DIM
 10
2538.343948169422
 20
-638.1758857444038
 30
0.0
 11
2545.661690556099
 21
-638.1758857444038
 31
0.0
  0
LINE
  5
22861
  8
1DIM
 10
2607.002819362759
 20
-634.5045185200106
 30
0.0
 11
2607.002819362759
 21
-641.847252968796
 31
0.0
  0
LINE
  5
22862
  8
1DIM
 10
2603.343948169422
 20
-638.1758857444038
 30
0.0
 11
2610.661690556099
 21
-638.1758857444038
 31
0.0
  0
LINE
  5
22863
  8
1DIM
 10
2672.002819362751
 20
-634.5045185200106
 30
0.0
 11
2672.002819362751
 21
-641.847252968796
 31
0.0
  0
LINE
  5
22864
  8
1DIM
 10
2668.343948169415
 20
-638.1758857444038
 30
0.0
 11
2675.661690556091
 21
-638.1758857444038
 31
0.0
  0
LINE
  5
22EA9
  8
01
 10
2610.092405998705
 20
-509.2732422419446
 30
0.0
 11
2611.439020245354
 21
-512.2835572493583
 31
0.0
  0
LINE
  5
22EAA
  8
01
 10
2612.983980803048
 20
-509.2732756898891
 30
0.0
 11
2612.265184475171
 21
-509.2732756898891
 31
0.0
  0
LINE
  5
22EAB
  8
01
 10
2610.613190494983
 20
-509.2732756898891
 30
0.0
 11
2610.092405998705
 21
-509.2732756898891
 31
0.0
  0
LINE
  5
22EAC
  8
01
 10
2607.993213000202
 20
-509.2732756898891
 30
0.0
 11
2607.472428503916
 21
-509.2732756898891
 31
0.0
  0
TEXT
  5
22F0A
  8
1TEXT
 10
2900.098606307175
 20
-519.3116358098348
 30
0.0
 40
4.0
  1
Finish
 72
     1
 11
2908.740272973842
 21
-519.3116358098348
 31
0.0
  0
LINE
  5
22F0B
  8
1DIM
 10
2891.340272973842
 20
-513.8116358098348
 30
0.0
 11
2961.340272973842
 21
-513.8116358098348
 31
0.0
  0
LINE
  5
22F0C
  8
1DIM
 10
2891.340272973842
 20
-527.8116358098348
 30
0.0
 11
2961.340272973842
 21
-527.8116358098348
 31
0.0
  0
LINE
  5
22F0D
  8
1DIM
 10
2891.340272973842
 20
-520.8116358098348
 30
0.0
 11
2961.340272973842
 21
-520.8116358098348
 31
0.0
  0
LINE
  5
22F0E
  8
1DIM
 10
2926.340272973842
 20
-513.8116358098348
 30
0.0
 11
2926.340272973842
 21
-555.8116358098348
 31
0.0
  0
TEXT
  5
22F0F
  8
1TEXT
 10
2936.406939640508
 20
-519.3116358098348
 30
0.0
 40
4.0
  1
Code
 72
     1
 11
2943.740272973842
 21
-519.3116358098348
 31
0.0
  0
LINE
  5
22F10
  8
1DIM
 10
2891.340272973842
 20
-555.8116358098348
 30
0.0
 11
2891.340272973842
 21
-513.8116358098348
 31
0.0
  0
LINE
  5
22F11
  8
1DIM
 10
2961.340272973842
 20
-555.8116358098348
 30
0.0
 11
2961.340272973842
 21
-513.8116358098348
 31
0.0
  0
TEXT
  5
22F12
  8
1TEXT
 10
2891.340272973842
 20
-508.8116358098348
 30
0.0
 40
8.0
  1
SE-62W-X
  0
LINE
  5
22F15
  8
1DIM
 10
2891.340272973842
 20
-534.8116358098348
 30
0.0
 11
2961.340272973842
 21
-534.8116358098348
 31
0.0
  0
TEXT
  5
22F16
  8
1TEXT
 10
2895.406013714583
 20
-526.146924469359
 30
0.0
 40
4.0
  1
Brushed
 72
     1
 11
2908.740272973842
 21
-526.146924469359
 31
0.0
  0
TEXT
  5
22F17
  8
1TEXT
 10
2928.428467418286
 20
-526.525992793484
 30
0.0
 40
4.0
  1
SE-62W-XT
 41
0.85
 72
     1
 11
2943.740272973842
 21
-526.525992793484
 31
0.0
  0
LINE
  5
22F18
  8
1DIM
 10
2891.340272973842
 20
-541.8116358098348
 30
0.0
 11
2961.340272973842
 21
-541.8116358098348
 31
0.0
  0
LINE
  5
22F1B
  8
1DIM
 10
2891.340272973842
 20
-548.8116358098348
 30
0.0
 11
2961.340272973842
 21
-548.8116358098348
 31
0.0
  0
TEXT
  5
22F1C
  8
1TEXT
 10
2892.32805075162
 20
-533.146924469359
 30
0.0
 40
4.0
  1
Royal Rose Gold
 41
0.6
 72
     1
 11
2908.740272973842
 21
-533.146924469359
 31
0.0
  0
LINE
  5
22F1E
  8
1DIM
 10
2891.340272973842
 20
-555.8116358098348
 30
0.0
 11
2961.340272973842
 21
-555.8116358098348
 31
0.0
  0
TEXT
  5
22F1F
  8
1TEXT
 10
2891.963954921616
 20
-546.9558844776761
 30
0.0
 40
3.6
  1
Royal Champagne Gold
 41
0.5
 72
     1
 11
2908.772704921616
 21
-546.9558844776761
 31
0.0
  0
TEXT
  5
22F2B
  8
1TEXT
 10
2927.01180075162
 20
-533.525992793484
 30
0.0
 40
4.0
  1
SE-62W-P03
 41
0.85
 72
     1
 11
2943.740272973842
 21
-533.525992793484
 31
0.0
  0
TEXT
  5
22F2E
  8
1TEXT
 10
2898.328606307175
 20
-540.146924469359
 30
0.0
 40
4.0
  1
Royal Gold
 41
0.6
 72
     1
 11
2908.740272973842
 21
-540.146924469359
 31
0.0
  0
TEXT
  5
22F2F
  8
1TEXT
 10
2927.01180075162
 20
-540.525992793484
 30
0.0
 40
4.0
  1
SE-62W-P04
 41
0.85
 72
     1
 11
2943.740272973842
 21
-540.525992793484
 31
0.0
  0
TEXT
  5
22F32
  8
1TEXT
 10
2927.01180075162
 20
-547.525992793484
 30
0.0
 40
4.0
  1
SE-62W-P06
 41
0.85
 72
     1
 11
2943.740272973842
 21
-547.525992793484
 31
0.0
  0
TEXT
  5
22F39
  8
1TEXT
 10
2897.136939640508
 20
-554.146924469359
 30
0.0
 40
4.0
  1
Royal Black
 41
0.6
 72
     1
 11
2908.740272973842
 21
-554.146924469359
 31
0.0
  0
TEXT
  5
22F3A
  8
1TEXT
 10
2927.01180075162
 20
-554.525992793484
 30
0.0
 40
4.0
  1
SE-62W-P08
 41
0.85
 72
     1
 11
2943.740272973842
 21
-554.525992793484
 31
0.0
  0
LINE
  5
22F82
  8
1DIM
 10
2783.483470339563
 20
-530.4681170559691
 30
0.0
 11
2782.822539949853
 21
-530.4681170559691
 31
0.0
  0
LINE
  5
22F83
  8
1DIM
 10
2782.822539949851
 20
-535.748117055969
 30
0.0
 11
2783.483470339563
 21
-535.748117055969
 31
0.0
  0
LINE
  5
22F84
  8
1DIM
 10
2876.544400729274
 20
-530.46811705597
 30
0.0
 11
2875.883470339563
 21
-530.46811705597
 31
0.0
  0
LINE
  5
22F85
  8
1DIM
 10
2875.883470339563
 20
-535.7481170559702
 30
0.0
 11
2876.544400729274
 21
-535.7481170559709
 31
0.0
  0
LINE
  5
22F86
  8
01
 10
2856.083470339563
 20
-510.008117055969
 30
0.0
 11
2856.083470339563
 21
-510.998117055969
 31
0.0
  0
LINE
  5
22F87
  8
01
 10
2803.283470339563
 20
-510.998117055969
 30
0.0
 11
2803.283470339563
 21
-510.008117055969
 31
0.0
  0
LINE
  5
22F88
  8
01
 10
2856.083470339563
 20
-510.998117055969
 30
0.0
 11
2874.893470339563
 21
-510.998117055969
 31
0.0
  0
LINE
  5
22F89
  8
01
 10
2803.283470339563
 20
-510.008117055969
 30
0.0
 11
2856.083470339563
 21
-510.008117055969
 31
0.0
  0
ARC
  5
22F8A
  8
01
 10
2784.473470339563
 20
-511.9881170559687
 30
0.0
 40
0.989999999999925
 50
90.0
 51
180.0
  0
LINE
  5
22F8B
  8
01
 10
2783.483470339563
 20
-543.008117055969
 30
0.0
 11
2783.483470339563
 21
-511.9881170559689
 31
0.0
  0
ARC
  5
22F8C
  8
01
 10
2784.473470339563
 20
-543.008117055969
 30
0.0
 40
0.99
 50
180.0
 51
270.0
  0
LINE
  5
22F8D
  8
01
 10
2874.893470339563
 20
-543.998117055969
 30
0.0
 11
2784.473470339563
 21
-543.998117055969
 31
0.0
  0
ARC
  5
22F8E
  8
01
 10
2874.893470339563
 20
-543.0081170559687
 30
0.0
 40
0.990000000000075
 50
270.0
 51
0.0
  0
LINE
  5
22F8F
  8
01
 10
2875.883470339563
 20
-511.9881170559689
 30
0.0
 11
2875.883470339563
 21
-543.008117055969
 31
0.0
  0
ARC
  5
22F90
  8
01
 10
2874.893470339562
 20
-511.9881170559693
 30
0.0
 40
0.9900000000003377
 50
0.0000000000197387
 51
89.99999999994738
  0
LINE
  5
22F91
  8
01
 10
2784.473470339563
 20
-510.998117055969
 30
0.0
 11
2803.283470339563
 21
-510.998117055969
 31
0.0
  0
LINE
  5
22F92
  8
01
 10
2876.544400729274
 20
-535.7481170559709
 30
0.0
 11
2876.54382864479
 21
-535.7922514976781
 31
0.0
  0
LINE
  5
22F93
  8
01
 10
2876.54382864479
 20
-535.7922514976781
 30
0.0
 11
2876.542073079279
 21
-535.8370729494898
 31
0.0
  0
LINE
  5
22F94
  8
01
 10
2876.542073079279
 20
-535.8370729494898
 30
0.0
 11
2876.539078388456
 21
-535.8824554938302
 31
0.0
  0
LINE
  5
22F95
  8
01
 10
2876.539078388456
 20
-535.8824554938302
 30
0.0
 11
2876.534794207343
 21
-535.928260477859
 31
0.0
  0
LINE
  5
22F96
  8
01
 10
2876.534794207343
 20
-535.928260477859
 30
0.0
 11
2876.529176516544
 21
-535.9743371667535
 31
0.0
  0
LINE
  5
22F97
  8
01
 10
2876.529176516544
 20
-535.9743371667535
 30
0.0
 11
2876.522188693454
 21
-536.0205236886682
 31
0.0
  0
LINE
  5
22F98
  8
01
 10
2876.522188693454
 20
-536.0205236886682
 30
0.0
 11
2876.513802518609
 21
-536.0666482785896
 31
0.0
  0
LINE
  5
22F99
  8
01
 10
2876.513802518609
 20
-536.0666482785896
 30
0.0
 11
2876.503999105417
 21
-536.1125308184378
 31
0.0
  0
LINE
  5
22F9A
  8
01
 10
2876.503999105417
 20
-536.1125308184378
 30
0.0
 11
2876.492769720586
 21
-536.1579846597012
 31
0.0
  0
LINE
  5
22F9B
  8
01
 10
2876.492769720586
 20
-536.1579846597012
 30
0.0
 11
2876.480116463216
 21
-536.2028187030974
 31
0.0
  0
LINE
  5
22F9C
  8
01
 10
2876.480116463216
 20
-536.2028187030974
 30
0.0
 11
2876.466052772643
 21
-536.2468396978481
 31
0.0
  0
LINE
  5
22F9D
  8
01
 10
2876.466052772643
 20
-536.2468396978481
 30
0.0
 11
2876.458499396369
 21
-536.268484928117
 31
0.0
  0
LINE
  5
22F9E
  8
01
 10
2876.458499396369
 20
-536.268484928117
 30
0.0
 11
2876.450603738993
 21
-536.2898547118235
 31
0.0
  0
LINE
  5
22F9F
  8
01
 10
2876.450603738993
 20
-536.2898547118235
 30
0.0
 11
2876.442370772443
 21
-536.3109254060954
 31
0.0
  0
LINE
  5
22FA0
  8
01
 10
2876.442370772443
 20
-536.3109254060954
 30
0.0
 11
2876.433806195771
 21
-536.3316737138
 31
0.0
  0
LINE
  5
22FA1
  8
01
 10
2876.433806195771
 20
-536.3316737138
 30
0.0
 11
2876.424916425242
 21
-536.3520767656155
 31
0.0
  0
LINE
  5
22FA2
  8
01
 10
2876.424916425242
 20
-536.3520767656155
 30
0.0
 11
2876.415708580683
 21
-536.3721122011078
 31
0.0
  0
LINE
  5
22FA3
  8
01
 10
2876.415708580683
 20
-536.3721122011078
 30
0.0
 11
2876.406190468123
 21
-536.3917582482311
 31
0.0
  0
LINE
  5
22FA4
  8
01
 10
2876.406190468123
 20
-536.3917582482311
 30
0.0
 11
2876.396370558833
 21
-536.4109938006708
 31
0.0
  0
LINE
  5
22FA5
  8
01
 10
2876.396370558833
 20
-536.4109938006708
 30
0.0
 11
2876.386257964838
 21
-536.4297984924646
 31
0.0
  0
LINE
  5
22FA6
  8
01
 10
2876.386257964838
 20
-536.4297984924646
 30
0.0
 11
2876.375862411073
 21
-536.4481527693474
 31
0.0
  0
LINE
  5
22FA7
  8
01
 10
2876.375862411073
 20
-536.4481527693474
 30
0.0
 11
2876.365194204331
 21
-536.4660379563112
 31
0.0
  0
LINE
  5
22FA8
  8
01
 10
2876.365194204331
 20
-536.4660379563112
 30
0.0
 11
2876.35426419924
 21
-536.4834363208763
 31
0.0
  0
LINE
  5
22FA9
  8
01
 10
2876.35426419924
 20
-536.4834363208763
 30
0.0
 11
2876.343083761485
 21
-536.5003311316375
 31
0.0
  0
LINE
  5
22FAA
  8
01
 10
2876.343083761485
 20
-536.5003311316375
 30
0.0
 11
2876.331664728541
 21
-536.5167067116722
 31
0.0
  0
LINE
  5
22FAB
  8
01
 10
2876.331664728541
 20
-536.5167067116722
 30
0.0
 11
2876.320019368205
 21
-536.5325484864549
 31
0.0
  0
LINE
  5
22FAC
  8
01
 10
2876.320019368205
 20
-536.5325484864549
 30
0.0
 11
2876.308160335221
 21
-536.5478430259809
 31
0.0
  0
LINE
  5
22FAD
  8
01
 10
2876.308160335221
 20
-536.5478430259809
 30
0.0
 11
2876.296100626328
 21
-536.5625780808429
 31
0.0
  0
LINE
  5
22FAE
  8
01
 10
2876.296100626328
 20
-536.5625780808429
 30
0.0
 11
2876.283853534049
 21
-536.5767426120794
 31
0.0
  0
LINE
  5
22FAF
  8
01
 10
2876.283853534049
 20
-536.5767426120794
 30
0.0
 11
2876.271432599568
 21
-536.5903268146669
 31
0.0
  0
LINE
  5
22FB0
  8
01
 10
2876.271432599568
 20
-536.5903268146669
 30
0.0
 11
2876.258851565024
 21
-536.603322134583
 31
0.0
  0
LINE
  5
22FB1
  8
01
 10
2876.258851565024
 20
-536.603322134583
 30
0.0
 11
2876.246124325573
 21
-536.6157212794392
 31
0.0
  0
LINE
  5
22FB2
  8
01
 10
2876.246124325573
 20
-536.6157212794392
 30
0.0
 11
2876.233264881549
 21
-536.6275182227342
 31
0.0
  0
LINE
  5
22FB3
  8
01
 10
2876.233264881549
 20
-536.6275182227342
 30
0.0
 11
2876.220287291027
 21
-536.6387082018355
 31
0.0
  0
LINE
  5
22FB4
  8
01
 10
2876.220287291027
 20
-536.6387082018355
 30
0.0
 11
2876.207205623149
 21
-536.6492877098518
 31
0.0
  0
LINE
  5
22FB5
  8
01
 10
2876.207205623149
 20
-536.6492877098518
 30
0.0
 11
2876.194033912456
 21
-536.6592544816149
 31
0.0
  0
LINE
  5
22FB6
  8
01
 10
2876.194033912456
 20
-536.6592544816149
 30
0.0
 11
2876.180786114555
 21
-536.6686074740245
 31
0.0
  0
LINE
  5
22FB7
  8
01
 10
2876.180786114555
 20
-536.6686074740245
 30
0.0
 11
2876.167476063328
 21
-536.6773468410647
 31
0.0
  0
LINE
  5
22FB8
  8
01
 10
2876.167476063328
 20
-536.6773468410647
 30
0.0
 11
2876.15411742997
 21
-536.6854739038259
 31
0.0
  0
LINE
  5
22FB9
  8
01
 10
2876.15411742997
 20
-536.6854739038259
 30
0.0
 11
2876.147424113124
 21
-536.6893085446468
 31
0.0
  0
LINE
  5
22FBA
  8
01
 10
2876.147424113124
 20
-536.6893085446468
 30
0.0
 11
2876.140723684028
 21
-536.6929911159045
 31
0.0
  0
LINE
  5
22FBB
  8
01
 10
2876.140723684028
 20
-536.6929911159045
 30
0.0
 11
2876.134017788837
 21
-536.6965220948819
 31
0.0
  0
LINE
  5
22FBC
  8
01
 10
2876.134017788837
 20
-536.6965220948819
 30
0.0
 11
2876.127308056638
 21
-536.6999020245775
 31
0.0
  0
LINE
  5
22FBD
  8
01
 10
2876.127308056638
 20
-536.6999020245775
 30
0.0
 11
2876.120596098423
 21
-536.7031315122921
 31
0.0
  0
LINE
  5
22FBE
  8
01
 10
2876.120596098423
 20
-536.7031315122921
 30
0.0
 11
2876.113883506123
 21
-536.7062112281629
 31
0.0
  0
LINE
  5
22FBF
  8
01
 10
2876.113883506123
 20
-536.7062112281629
 30
0.0
 11
2876.107171851662
 21
-536.7091419036544
 31
0.0
  0
LINE
  5
22FC0
  8
01
 10
2876.107171851662
 20
-536.7091419036544
 30
0.0
 11
2876.100462686066
 21
-536.7119243300044
 31
0.0
  0
LINE
  5
22FC1
  8
01
 10
2876.100462686066
 20
-536.7119243300044
 30
0.0
 11
2876.093757538606
 21
-536.7145593566322
 31
0.0
  0
LINE
  5
22FC2
  8
01
 10
2876.093757538606
 20
-536.7145593566322
 30
0.0
 11
2876.087057915983
 21
-536.7170478895114
 31
0.0
  0
LINE
  5
22FC3
  8
01
 10
2876.087057915983
 20
-536.7170478895114
 30
0.0
 11
2876.080365301561
 21
-536.7193908895106
 31
0.0
  0
LINE
  5
22FC4
  8
01
 10
2876.080365301561
 20
-536.7193908895106
 30
0.0
 11
2876.07368115464
 21
-536.7215893707041
 31
0.0
  0
LINE
  5
22FC5
  8
01
 10
2876.07368115464
 20
-536.7215893707041
 30
0.0
 11
2876.067006909766
 21
-536.7236443986601
 31
0.0
  0
LINE
  5
22FC6
  8
01
 10
2876.067006909766
 20
-536.7236443986601
 30
0.0
 11
2876.060343976095
 21
-536.7255570887023
 31
0.0
  0
LINE
  5
22FC7
  8
01
 10
2876.060343976095
 20
-536.7255570887023
 30
0.0
 11
2876.053693736788
 21
-536.7273286041598
 31
0.0
  0
LINE
  5
22FC8
  8
01
 10
2876.053693736788
 20
-536.7273286041598
 30
0.0
 11
2876.04705754846
 21
-536.7289601545931
 31
0.0
  0
LINE
  5
22FC9
  8
01
 10
2876.04705754846
 20
-536.7289601545931
 30
0.0
 11
2876.040436740661
 21
-536.7304529940166
 31
0.0
  0
LINE
  5
22FCA
  8
01
 10
2876.040436740661
 20
-536.7304529940166
 30
0.0
 11
2876.033832615406
 21
-536.731808419105
 31
0.0
  0
LINE
  5
22FCB
  8
01
 10
2876.033832615406
 20
-536.731808419105
 30
0.0
 11
2876.027246446741
 21
-536.7330277673974
 31
0.0
  0
LINE
  5
22FCC
  8
01
 10
2876.027246446741
 20
-536.7330277673974
 30
0.0
 11
2876.020679480361
 21
-536.7341124154981
 31
0.0
  0
LINE
  5
22FCD
  8
01
 10
2876.020679480361
 20
-536.7341124154981
 30
0.0
 11
2876.014132933254
 21
-536.7350637772754
 31
0.0
  0
LINE
  5
22FCE
  8
01
 10
2876.014132933254
 20
-536.7350637772754
 30
0.0
 11
2876.007607993394
 21
-536.7358833020644
 31
0.0
  0
LINE
  5
22FCF
  8
01
 10
2876.007607993394
 20
-536.7358833020644
 30
0.0
 11
2876.001105819474
 21
-536.7365724728757
 31
0.0
  0
LINE
  5
22FD0
  8
01
 10
2876.001105819474
 20
-536.7365724728757
 30
0.0
 11
2875.99462754067
 21
-536.7371328046097
 31
0.0
  0
LINE
  5
22FD1
  8
01
 10
2875.99462754067
 20
-536.7371328046097
 30
0.0
 11
2875.988174256459
 21
-536.7375658422832
 31
0.0
  0
LINE
  5
22FD2
  8
01
 10
2875.988174256459
 20
-536.7375658422832
 30
0.0
 11
2875.981747036449
 21
-536.7378731592676
 31
0.0
  0
LINE
  5
22FD3
  8
01
 10
2875.981747036449
 20
-536.7378731592676
 30
0.0
 11
2875.975346920272
 21
-536.7380563555436
 31
0.0
  0
LINE
  5
22FD4
  8
01
 10
2875.975346920272
 20
-536.7380563555436
 30
0.0
 11
2875.968974917492
 21
-536.7381170559709
 31
0.0
  0
LINE
  5
22FD5
  8
01
 10
2875.968974917492
 20
-536.7381170559709
 30
0.0
 11
2875.883470339563
 21
-536.7381170559709
 31
0.0
  0
LINE
  5
22FD6
  8
01
 10
2875.883470339563
 20
-529.47811705597
 30
0.0
 11
2875.968974917492
 21
-529.47811705597
 31
0.0
  0
LINE
  5
22FD7
  8
01
 10
2875.968974917492
 20
-529.47811705597
 30
0.0
 11
2875.975346920271
 21
-529.4781777563971
 31
0.0
  0
LINE
  5
22FD8
  8
01
 10
2875.975346920271
 20
-529.4781777563971
 30
0.0
 11
2875.981747036449
 21
-529.4783609526734
 31
0.0
  0
LINE
  5
22FD9
  8
01
 10
2875.981747036449
 20
-529.4783609526734
 30
0.0
 11
2875.988174256458
 21
-529.4786682696579
 31
0.0
  0
LINE
  5
22FDA
  8
01
 10
2875.988174256458
 20
-529.4786682696579
 30
0.0
 11
2875.99462754067
 21
-529.4791013073312
 31
0.0
  0
LINE
  5
22FDB
  8
01
 10
2875.99462754067
 20
-529.4791013073312
 30
0.0
 11
2876.001105819473
 21
-529.4796616390653
 31
0.0
  0
LINE
  5
22FDC
  8
01
 10
2876.001105819473
 20
-529.4796616390653
 30
0.0
 11
2876.007607993394
 21
-529.4803508098767
 31
0.0
  0
LINE
  5
22FDD
  8
01
 10
2876.007607993394
 20
-529.4803508098767
 30
0.0
 11
2876.014132933254
 21
-529.4811703346659
 31
0.0
  0
LINE
  5
22FDE
  8
01
 10
2876.014132933254
 20
-529.4811703346659
 30
0.0
 11
2876.020679480361
 21
-529.482121696443
 31
0.0
  0
LINE
  5
22FDF
  8
01
 10
2876.020679480361
 20
-529.482121696443
 30
0.0
 11
2876.027246446741
 21
-529.483206344544
 31
0.0
  0
LINE
  5
22FE0
  8
01
 10
2876.027246446741
 20
-529.483206344544
 30
0.0
 11
2876.033832615406
 21
-529.4844256928363
 31
0.0
  0
LINE
  5
22FE1
  8
01
 10
2876.033832615406
 20
-529.4844256928363
 30
0.0
 11
2876.04043674066
 21
-529.4857811179247
 31
0.0
  0
LINE
  5
22FE2
  8
01
 10
2876.04043674066
 20
-529.4857811179247
 30
0.0
 11
2876.04705754846
 21
-529.4872739573482
 31
0.0
  0
LINE
  5
22FE3
  8
01
 10
2876.04705754846
 20
-529.4872739573482
 30
0.0
 11
2876.053693736788
 21
-529.4889055077817
 31
0.0
  0
LINE
  5
22FE4
  8
01
 10
2876.053693736788
 20
-529.4889055077817
 30
0.0
 11
2876.060343976095
 21
-529.490677023239
 31
0.0
  0
LINE
  5
22FE5
  8
01
 10
2876.060343976095
 20
-529.490677023239
 30
0.0
 11
2876.067006909766
 21
-529.4925897132815
 31
0.0
  0
LINE
  5
22FE6
  8
01
 10
2876.067006909766
 20
-529.4925897132815
 30
0.0
 11
2876.07368115464
 21
-529.4946447412374
 31
0.0
  0
LINE
  5
22FE7
  8
01
 10
2876.07368115464
 20
-529.4946447412374
 30
0.0
 11
2876.080365301561
 21
-529.4968432224309
 31
0.0
  0
LINE
  5
22FE8
  8
01
 10
2876.080365301561
 20
-529.4968432224309
 30
0.0
 11
2876.087057915983
 21
-529.4991862224304
 31
0.0
  0
LINE
  5
22FE9
  8
01
 10
2876.087057915983
 20
-529.4991862224304
 30
0.0
 11
2876.093757538606
 21
-529.5016747553098
 31
0.0
  0
LINE
  5
22FEA
  8
01
 10
2876.093757538606
 20
-529.5016747553098
 30
0.0
 11
2876.100462686066
 21
-529.5043097819375
 31
0.0
  0
LINE
  5
22FEB
  8
01
 10
2876.100462686066
 20
-529.5043097819375
 30
0.0
 11
2876.107171851661
 21
-529.5070922082872
 31
0.0
  0
LINE
  5
22FEC
  8
01
 10
2876.107171851661
 20
-529.5070922082872
 30
0.0
 11
2876.113883506122
 21
-529.510022883779
 31
0.0
  0
LINE
  5
22FED
  8
01
 10
2876.113883506122
 20
-529.510022883779
 30
0.0
 11
2876.120596098422
 21
-529.5131025996498
 31
0.0
  0
LINE
  5
22FEE
  8
01
 10
2876.120596098422
 20
-529.5131025996498
 30
0.0
 11
2876.127308056638
 21
-529.5163320873645
 31
0.0
  0
LINE
  5
22FEF
  8
01
 10
2876.127308056638
 20
-529.5163320873645
 30
0.0
 11
2876.134017788837
 21
-529.5197120170603
 31
0.0
  0
LINE
  5
22FF0
  8
01
 10
2876.134017788837
 20
-529.5197120170603
 30
0.0
 11
2876.140723684027
 21
-529.5232429960374
 31
0.0
  0
LINE
  5
22FF1
  8
01
 10
2876.140723684027
 20
-529.5232429960374
 30
0.0
 11
2876.147424113122
 21
-529.5269255672954
 31
0.0
  0
LINE
  5
22FF2
  8
01
 10
2876.147424113122
 20
-529.5269255672954
 30
0.0
 11
2876.15411742997
 21
-529.5307602081162
 31
0.0
  0
LINE
  5
22FF3
  8
01
 10
2876.15411742997
 20
-529.5307602081162
 30
0.0
 11
2876.167476063326
 21
-529.5388872708777
 31
0.0
  0
LINE
  5
22FF4
  8
01
 10
2876.167476063326
 20
-529.5388872708777
 30
0.0
 11
2876.180786114554
 21
-529.5476266379177
 31
0.0
  0
LINE
  5
22FF5
  8
01
 10
2876.180786114554
 20
-529.5476266379177
 30
0.0
 11
2876.194033912456
 21
-529.5569796303273
 31
0.0
  0
LINE
  5
22FF6
  8
01
 10
2876.194033912456
 20
-529.5569796303273
 30
0.0
 11
2876.207205623147
 21
-529.5669464020904
 31
0.0
  0
LINE
  5
22FF7
  8
01
 10
2876.207205623147
 20
-529.5669464020904
 30
0.0
 11
2876.220287291026
 21
-529.5775259101067
 31
0.0
  0
LINE
  5
22FF8
  8
01
 10
2876.220287291026
 20
-529.5775259101067
 30
0.0
 11
2876.233264881548
 21
-529.5887158892083
 31
0.0
  0
LINE
  5
22FF9
  8
01
 10
2876.233264881548
 20
-529.5887158892083
 30
0.0
 11
2876.246124325573
 21
-529.6005128325033
 31
0.0
  0
LINE
  5
22FFA
  8
01
 10
2876.246124325573
 20
-529.6005128325033
 30
0.0
 11
2876.258851565022
 21
-529.6129119773595
 31
0.0
  0
LINE
  5
22FFB
  8
01
 10
2876.258851565022
 20
-529.6129119773595
 30
0.0
 11
2876.271432599567
 21
-529.6259072972756
 31
0.0
  0
LINE
  5
22FFC
  8
01
 10
2876.271432599567
 20
-529.6259072972756
 30
0.0
 11
2876.283853534048
 21
-529.639491499863
 31
0.0
  0
LINE
  5
22FFD
  8
01
 10
2876.283853534048
 20
-529.639491499863
 30
0.0
 11
2876.296100626327
 21
-529.6536560310999
 31
0.0
  0
LINE
  5
22FFE
  8
01
 10
2876.296100626327
 20
-529.6536560310999
 30
0.0
 11
2876.30816033522
 21
-529.6683910859616
 31
0.0
  0
LINE
  5
22FFF
  8
01
 10
2876.30816033522
 20
-529.6683910859616
 30
0.0
 11
2876.320019368204
 21
-529.6836856254877
 31
0.0
  0
LINE
  5
23000
  8
01
 10
2876.320019368204
 20
-529.6836856254877
 30
0.0
 11
2876.33166472854
 21
-529.6995274002704
 31
0.0
  0
LINE
  5
23001
  8
01
 10
2876.33166472854
 20
-529.6995274002704
 30
0.0
 11
2876.343083761484
 21
-529.7159029803047
 31
0.0
  0
LINE
  5
23002
  8
01
 10
2876.343083761484
 20
-529.7159029803047
 30
0.0
 11
2876.354264199239
 21
-529.732797791066
 31
0.0
  0
LINE
  5
23003
  8
01
 10
2876.354264199239
 20
-529.732797791066
 30
0.0
 11
2876.36519420433
 21
-529.7501961556313
 31
0.0
  0
LINE
  5
23004
  8
01
 10
2876.36519420433
 20
-529.7501961556313
 30
0.0
 11
2876.375862411072
 21
-529.7680813425948
 31
0.0
  0
LINE
  5
23005
  8
01
 10
2876.375862411072
 20
-529.7680813425948
 30
0.0
 11
2876.386257964837
 21
-529.786435619478
 31
0.0
  0
LINE
  5
23006
  8
01
 10
2876.386257964837
 20
-529.786435619478
 30
0.0
 11
2876.396370558832
 21
-529.8052403112714
 31
0.0
  0
LINE
  5
23007
  8
01
 10
2876.396370558832
 20
-529.8052403112714
 30
0.0
 11
2876.406190468121
 21
-529.8244758637112
 31
0.0
  0
LINE
  5
23008
  8
01
 10
2876.406190468121
 20
-529.8244758637112
 30
0.0
 11
2876.415708580681
 21
-529.8441219108345
 31
0.0
  0
LINE
  5
23009
  8
01
 10
2876.415708580681
 20
-529.8441219108345
 30
0.0
 11
2876.424916425241
 21
-529.8641573463267
 31
0.0
  0
LINE
  5
2300A
  8
01
 10
2876.424916425241
 20
-529.8641573463267
 30
0.0
 11
2876.43380619577
 21
-529.8845603981422
 31
0.0
  0
LINE
  5
2300B
  8
01
 10
2876.43380619577
 20
-529.8845603981422
 30
0.0
 11
2876.442370772442
 21
-529.9053087058468
 31
0.0
  0
LINE
  5
2300C
  8
01
 10
2876.442370772442
 20
-529.9053087058468
 30
0.0
 11
2876.450603738992
 21
-529.9263794001183
 31
0.0
  0
LINE
  5
2300D
  8
01
 10
2876.450603738992
 20
-529.9263794001183
 30
0.0
 11
2876.458499396367
 21
-529.947749183825
 31
0.0
  0
LINE
  5
2300E
  8
01
 10
2876.458499396367
 20
-529.947749183825
 30
0.0
 11
2876.466052772642
 21
-529.9693944140938
 31
0.0
  0
LINE
  5
2300F
  8
01
 10
2876.466052772642
 20
-529.9693944140938
 30
0.0
 11
2876.480116463215
 21
-530.0134154088441
 31
0.0
  0
LINE
  5
23010
  8
01
 10
2876.480116463215
 20
-530.0134154088441
 30
0.0
 11
2876.492769720585
 21
-530.0582494522404
 31
0.0
  0
LINE
  5
23011
  8
01
 10
2876.492769720585
 20
-530.0582494522404
 30
0.0
 11
2876.503999105415
 21
-530.1037032935035
 31
0.0
  0
LINE
  5
23012
  8
01
 10
2876.503999105415
 20
-530.1037032935035
 30
0.0
 11
2876.513802518607
 21
-530.1495858333517
 31
0.0
  0
LINE
  5
23013
  8
01
 10
2876.513802518607
 20
-530.1495858333517
 30
0.0
 11
2876.522188693453
 21
-530.1957104232729
 31
0.0
  0
LINE
  5
23014
  8
01
 10
2876.522188693453
 20
-530.1957104232729
 30
0.0
 11
2876.529176516544
 21
-530.2418969451876
 31
0.0
  0
LINE
  5
23015
  8
01
 10
2876.529176516544
 20
-530.2418969451876
 30
0.0
 11
2876.534794207342
 21
-530.2879736340819
 31
0.0
  0
LINE
  5
23016
  8
01
 10
2876.534794207342
 20
-530.2879736340819
 30
0.0
 11
2876.539078388456
 21
-530.3337786181107
 31
0.0
  0
LINE
  5
23017
  8
01
 10
2876.539078388456
 20
-530.3337786181107
 30
0.0
 11
2876.542073079278
 21
-530.379161162451
 31
0.0
  0
LINE
  5
23018
  8
01
 10
2876.542073079278
 20
-530.379161162451
 30
0.0
 11
2876.54382864479
 21
-530.4239826142626
 31
0.0
  0
LINE
  5
23019
  8
01
 10
2876.54382864479
 20
-530.4239826142626
 30
0.0
 11
2876.544400729274
 21
-530.46811705597
 31
0.0
  0
LINE
  5
2301A
  8
01
 10
2783.483470339563
 20
-536.7381170559687
 30
0.0
 11
2783.397965761634
 21
-536.7381170559687
 31
0.0
  0
LINE
  5
2301B
  8
01
 10
2783.397965761634
 20
-536.7381170559687
 30
0.0
 11
2783.391593758854
 21
-536.7380563555414
 31
0.0
  0
LINE
  5
2301C
  8
01
 10
2783.391593758854
 20
-536.7380563555414
 30
0.0
 11
2783.385193642676
 21
-536.7378731592655
 31
0.0
  0
LINE
  5
2301D
  8
01
 10
2783.385193642676
 20
-536.7378731592655
 30
0.0
 11
2783.378766422667
 21
-536.737565842281
 31
0.0
  0
LINE
  5
2301E
  8
01
 10
2783.378766422667
 20
-536.737565842281
 30
0.0
 11
2783.372313138455
 21
-536.7371328046077
 31
0.0
  0
LINE
  5
2301F
  8
01
 10
2783.372313138455
 20
-536.7371328046077
 30
0.0
 11
2783.365834859652
 21
-536.7365724728736
 31
0.0
  0
LINE
  5
23020
  8
01
 10
2783.365834859652
 20
-536.7365724728736
 30
0.0
 11
2783.359332685731
 21
-536.7358833020622
 31
0.0
  0
LINE
  5
23021
  8
01
 10
2783.359332685731
 20
-536.7358833020622
 30
0.0
 11
2783.352807745871
 21
-536.7350637772729
 31
0.0
  0
LINE
  5
23022
  8
01
 10
2783.352807745871
 20
-536.7350637772729
 30
0.0
 11
2783.346261198764
 21
-536.7341124154957
 31
0.0
  0
LINE
  5
23023
  8
01
 10
2783.346261198764
 20
-536.7341124154957
 30
0.0
 11
2783.339694232385
 21
-536.733027767395
 31
0.0
  0
LINE
  5
23024
  8
01
 10
2783.339694232385
 20
-536.733027767395
 30
0.0
 11
2783.333108063721
 21
-536.7318084191023
 31
0.0
  0
LINE
  5
23025
  8
01
 10
2783.333108063721
 20
-536.7318084191023
 30
0.0
 11
2783.326503938465
 21
-536.7304529940143
 31
0.0
  0
LINE
  5
23026
  8
01
 10
2783.326503938465
 20
-536.7304529940143
 30
0.0
 11
2783.319883130666
 21
-536.7289601545904
 31
0.0
  0
LINE
  5
23027
  8
01
 10
2783.319883130666
 20
-536.7289601545904
 30
0.0
 11
2783.313246942338
 21
-536.7273286041568
 31
0.0
  0
LINE
  5
23028
  8
01
 10
2783.313246942338
 20
-536.7273286041568
 30
0.0
 11
2783.30659670303
 21
-536.7255570886997
 31
0.0
  0
LINE
  5
23029
  8
01
 10
2783.30659670303
 20
-536.7255570886997
 30
0.0
 11
2783.299933769359
 21
-536.7236443986571
 31
0.0
  0
LINE
  5
2302A
  8
01
 10
2783.299933769359
 20
-536.7236443986571
 30
0.0
 11
2783.293259524485
 21
-536.7215893707015
 31
0.0
  0
LINE
  5
2302B
  8
01
 10
2783.293259524485
 20
-536.7215893707015
 30
0.0
 11
2783.286575377565
 21
-536.7193908895076
 31
0.0
  0
LINE
  5
2302C
  8
01
 10
2783.286575377565
 20
-536.7193908895076
 30
0.0
 11
2783.279882763143
 21
-536.7170478895083
 31
0.0
  0
LINE
  5
2302D
  8
01
 10
2783.279882763143
 20
-536.7170478895083
 30
0.0
 11
2783.27318314052
 21
-536.7145593566291
 31
0.0
  0
LINE
  5
2302E
  8
01
 10
2783.27318314052
 20
-536.7145593566291
 30
0.0
 11
2783.26647799306
 21
-536.7119243300014
 31
0.0
  0
LINE
  5
2302F
  8
01
 10
2783.26647799306
 20
-536.7119243300014
 30
0.0
 11
2783.259768827464
 21
-536.7091419036515
 31
0.0
  0
LINE
  5
23030
  8
01
 10
2783.259768827464
 20
-536.7091419036515
 30
0.0
 11
2783.253057173004
 21
-536.7062112281599
 31
0.0
  0
LINE
  5
23031
  8
01
 10
2783.253057173004
 20
-536.7062112281599
 30
0.0
 11
2783.246344580703
 21
-536.7031315122888
 31
0.0
  0
LINE
  5
23032
  8
01
 10
2783.246344580703
 20
-536.7031315122888
 30
0.0
 11
2783.239632622488
 21
-536.6999020245744
 31
0.0
  0
LINE
  5
23033
  8
01
 10
2783.239632622488
 20
-536.6999020245744
 30
0.0
 11
2783.232922890288
 21
-536.6965220948786
 31
0.0
  0
LINE
  5
23034
  8
01
 10
2783.232922890288
 20
-536.6965220948786
 30
0.0
 11
2783.226216995098
 21
-536.6929911159011
 31
0.0
  0
LINE
  5
23035
  8
01
 10
2783.226216995098
 20
-536.6929911159011
 30
0.0
 11
2783.219516566003
 21
-536.6893085446435
 31
0.0
  0
LINE
  5
23036
  8
01
 10
2783.219516566003
 20
-536.6893085446435
 30
0.0
 11
2783.212823249157
 21
-536.6854739038223
 31
0.0
  0
LINE
  5
23037
  8
01
 10
2783.212823249157
 20
-536.6854739038223
 30
0.0
 11
2783.199464615799
 21
-536.6773468410612
 31
0.0
  0
LINE
  5
23038
  8
01
 10
2783.199464615799
 20
-536.6773468410612
 30
0.0
 11
2783.186154564571
 21
-536.6686074740209
 31
0.0
  0
LINE
  5
23039
  8
01
 10
2783.186154564571
 20
-536.6686074740209
 30
0.0
 11
2783.17290676667
 21
-536.6592544816112
 31
0.0
  0
LINE
  5
2303A
  8
01
 10
2783.17290676667
 20
-536.6592544816112
 30
0.0
 11
2783.159735055978
 21
-536.6492877098485
 31
0.0
  0
LINE
  5
2303B
  8
01
 10
2783.159735055978
 20
-536.6492877098485
 30
0.0
 11
2783.146653388099
 21
-536.6387082018318
 31
0.0
  0
LINE
  5
2303C
  8
01
 10
2783.146653388099
 20
-536.6387082018318
 30
0.0
 11
2783.133675797577
 21
-536.6275182227307
 31
0.0
  0
LINE
  5
2303D
  8
01
 10
2783.133675797577
 20
-536.6275182227307
 30
0.0
 11
2783.120816353553
 21
-536.6157212794355
 31
0.0
  0
LINE
  5
2303E
  8
01
 10
2783.120816353553
 20
-536.6157212794355
 30
0.0
 11
2783.108089114103
 21
-536.6033221345791
 31
0.0
  0
LINE
  5
2303F
  8
01
 10
2783.108089114103
 20
-536.6033221345791
 30
0.0
 11
2783.095508079559
 21
-536.5903268146633
 31
0.0
  0
LINE
  5
23040
  8
01
 10
2783.095508079559
 20
-536.5903268146633
 30
0.0
 11
2783.083087145077
 21
-536.5767426120756
 31
0.0
  0
LINE
  5
23041
  8
01
 10
2783.083087145077
 20
-536.5767426120756
 30
0.0
 11
2783.070840052798
 21
-536.562578080839
 31
0.0
  0
LINE
  5
23042
  8
01
 10
2783.070840052798
 20
-536.562578080839
 30
0.0
 11
2783.058780343905
 21
-536.5478430259773
 31
0.0
  0
LINE
  5
23043
  8
01
 10
2783.058780343905
 20
-536.5478430259773
 30
0.0
 11
2783.046921310921
 21
-536.5325484864512
 31
0.0
  0
LINE
  5
23044
  8
01
 10
2783.046921310921
 20
-536.5325484864512
 30
0.0
 11
2783.035275950586
 21
-536.5167067116682
 31
0.0
  0
LINE
  5
23045
  8
01
 10
2783.035275950586
 20
-536.5167067116682
 30
0.0
 11
2783.023856917643
 21
-536.5003311316339
 31
0.0
  0
LINE
  5
23046
  8
01
 10
2783.023856917643
 20
-536.5003311316339
 30
0.0
 11
2783.012676479887
 21
-536.4834363208727
 31
0.0
  0
LINE
  5
23047
  8
01
 10
2783.012676479887
 20
-536.4834363208727
 30
0.0
 11
2783.001746474795
 21
-536.4660379563076
 31
0.0
  0
LINE
  5
23048
  8
01
 10
2783.001746474795
 20
-536.4660379563076
 30
0.0
 11
2782.991078268053
 21
-536.4481527693438
 31
0.0
  0
LINE
  5
23049
  8
01
 10
2782.991078268053
 20
-536.4481527693438
 30
0.0
 11
2782.980682714288
 21
-536.4297984924609
 31
0.0
  0
LINE
  5
2304A
  8
01
 10
2782.980682714288
 20
-536.4297984924609
 30
0.0
 11
2782.970570120295
 21
-536.4109938006675
 31
0.0
  0
LINE
  5
2304B
  8
01
 10
2782.970570120295
 20
-536.4109938006675
 30
0.0
 11
2782.960750211004
 21
-536.3917582482277
 31
0.0
  0
LINE
  5
2304C
  8
01
 10
2782.960750211004
 20
-536.3917582482277
 30
0.0
 11
2782.951232098444
 21
-536.3721122011045
 31
0.0
  0
LINE
  5
2304D
  8
01
 10
2782.951232098444
 20
-536.3721122011045
 30
0.0
 11
2782.942024253884
 21
-536.3520767656123
 31
0.0
  0
LINE
  5
2304E
  8
01
 10
2782.942024253884
 20
-536.3520767656123
 30
0.0
 11
2782.933134483355
 21
-536.3316737137967
 31
0.0
  0
LINE
  5
2304F
  8
01
 10
2782.933134483355
 20
-536.3316737137967
 30
0.0
 11
2782.924569906684
 21
-536.3109254060921
 31
0.0
  0
LINE
  5
23050
  8
01
 10
2782.924569906684
 20
-536.3109254060921
 30
0.0
 11
2782.916336940133
 21
-536.2898547118206
 31
0.0
  0
LINE
  5
23051
  8
01
 10
2782.916336940133
 20
-536.2898547118206
 30
0.0
 11
2782.908441282758
 21
-536.2684849281139
 31
0.0
  0
LINE
  5
23052
  8
01
 10
2782.908441282758
 20
-536.2684849281139
 30
0.0
 11
2782.900887906483
 21
-536.2468396978451
 31
0.0
  0
LINE
  5
23053
  8
01
 10
2782.900887906483
 20
-536.2468396978451
 30
0.0
 11
2782.886824215911
 21
-536.2028187030946
 31
0.0
  0
LINE
  5
23054
  8
01
 10
2782.886824215911
 20
-536.2028187030946
 30
0.0
 11
2782.87417095854
 21
-536.1579846596985
 31
0.0
  0
LINE
  5
23055
  8
01
 10
2782.87417095854
 20
-536.1579846596985
 30
0.0
 11
2782.86294157371
 21
-536.1125308184352
 31
0.0
  0
LINE
  5
23056
  8
01
 10
2782.86294157371
 20
-536.1125308184352
 30
0.0
 11
2782.853138160518
 21
-536.0666482785873
 31
0.0
  0
LINE
  5
23057
  8
01
 10
2782.853138160518
 20
-536.0666482785873
 30
0.0
 11
2782.844751985673
 21
-536.020523688666
 31
0.0
  0
LINE
  5
23058
  8
01
 10
2782.844751985673
 20
-536.020523688666
 30
0.0
 11
2782.837764162583
 21
-535.9743371667513
 31
0.0
  0
LINE
  5
23059
  8
01
 10
2782.837764162583
 20
-535.9743371667513
 30
0.0
 11
2782.832146471783
 21
-535.928260477857
 31
0.0
  0
LINE
  5
2305A
  8
01
 10
2782.832146471783
 20
-535.928260477857
 30
0.0
 11
2782.827862290669
 21
-535.8824554938282
 31
0.0
  0
LINE
  5
2305B
  8
01
 10
2782.827862290669
 20
-535.8824554938282
 30
0.0
 11
2782.824867599847
 21
-535.8370729494876
 31
0.0
  0
LINE
  5
2305C
  8
01
 10
2782.824867599847
 20
-535.8370729494876
 30
0.0
 11
2782.823112034336
 21
-535.792251497676
 31
0.0
  0
LINE
  5
2305D
  8
01
 10
2782.823112034336
 20
-535.792251497676
 30
0.0
 11
2782.822539949851
 21
-535.748117055969
 31
0.0
  0
LINE
  5
2305E
  8
01
 10
2782.822539949853
 20
-530.4681170559691
 30
0.0
 11
2782.823112034337
 21
-530.4239826142617
 31
0.0
  0
LINE
  5
2305F
  8
01
 10
2782.823112034337
 20
-530.4239826142617
 30
0.0
 11
2782.824867599848
 21
-530.3791611624501
 31
0.0
  0
LINE
  5
23060
  8
01
 10
2782.824867599848
 20
-530.3791611624501
 30
0.0
 11
2782.827862290671
 21
-530.3337786181098
 31
0.0
  0
LINE
  5
23061
  8
01
 10
2782.827862290671
 20
-530.3337786181098
 30
0.0
 11
2782.832146471784
 21
-530.287973634081
 31
0.0
  0
LINE
  5
23062
  8
01
 10
2782.832146471784
 20
-530.287973634081
 30
0.0
 11
2782.837764162583
 21
-530.2418969451867
 31
0.0
  0
LINE
  5
23063
  8
01
 10
2782.837764162583
 20
-530.2418969451867
 30
0.0
 11
2782.844751985674
 21
-530.1957104232723
 31
0.0
  0
LINE
  5
23064
  8
01
 10
2782.844751985674
 20
-530.1957104232723
 30
0.0
 11
2782.853138160518
 21
-530.149585833351
 31
0.0
  0
LINE
  5
23065
  8
01
 10
2782.853138160518
 20
-530.149585833351
 30
0.0
 11
2782.862941573711
 21
-530.1037032935028
 31
0.0
  0
LINE
  5
23066
  8
01
 10
2782.862941573711
 20
-530.1037032935028
 30
0.0
 11
2782.874170958542
 21
-530.0582494522398
 31
0.0
  0
LINE
  5
23067
  8
01
 10
2782.874170958542
 20
-530.0582494522398
 30
0.0
 11
2782.886824215913
 21
-530.0134154088439
 31
0.0
  0
LINE
  5
23068
  8
01
 10
2782.886824215913
 20
-530.0134154088439
 30
0.0
 11
2782.900887906485
 21
-529.9693944140935
 31
0.0
  0
LINE
  5
23069
  8
01
 10
2782.900887906485
 20
-529.9693944140935
 30
0.0
 11
2782.908441282759
 21
-529.9477491838246
 31
0.0
  0
LINE
  5
2306A
  8
01
 10
2782.908441282759
 20
-529.9477491838246
 30
0.0
 11
2782.916336940135
 21
-529.9263794001181
 31
0.0
  0
LINE
  5
2306B
  8
01
 10
2782.916336940135
 20
-529.9263794001181
 30
0.0
 11
2782.924569906686
 21
-529.9053087058464
 31
0.0
  0
LINE
  5
2306C
  8
01
 10
2782.924569906686
 20
-529.9053087058464
 30
0.0
 11
2782.933134483358
 21
-529.8845603981418
 31
0.0
  0
LINE
  5
2306D
  8
01
 10
2782.933134483358
 20
-529.8845603981418
 30
0.0
 11
2782.942024253885
 21
-529.8641573463267
 31
0.0
  0
LINE
  5
2306E
  8
01
 10
2782.942024253885
 20
-529.8641573463267
 30
0.0
 11
2782.951232098446
 21
-529.8441219108345
 31
0.0
  0
LINE
  5
2306F
  8
01
 10
2782.951232098446
 20
-529.8441219108345
 30
0.0
 11
2782.960750211006
 21
-529.8244758637112
 31
0.0
  0
LINE
  5
23070
  8
01
 10
2782.960750211006
 20
-529.8244758637112
 30
0.0
 11
2782.970570120296
 21
-529.8052403112714
 31
0.0
  0
LINE
  5
23071
  8
01
 10
2782.970570120296
 20
-529.8052403112714
 30
0.0
 11
2782.980682714289
 21
-529.786435619478
 31
0.0
  0
LINE
  5
23072
  8
01
 10
2782.980682714289
 20
-529.786435619478
 30
0.0
 11
2782.991078268054
 21
-529.7680813425951
 31
0.0
  0
LINE
  5
23073
  8
01
 10
2782.991078268054
 20
-529.7680813425951
 30
0.0
 11
2783.001746474798
 21
-529.7501961556313
 31
0.0
  0
LINE
  5
23074
  8
01
 10
2783.001746474798
 20
-529.7501961556313
 30
0.0
 11
2783.012676479888
 21
-529.7327977910663
 31
0.0
  0
LINE
  5
23075
  8
01
 10
2783.012676479888
 20
-529.7327977910663
 30
0.0
 11
2783.023856917644
 21
-529.715902980305
 31
0.0
  0
LINE
  5
23076
  8
01
 10
2783.023856917644
 20
-529.715902980305
 30
0.0
 11
2783.035275950587
 21
-529.6995274002707
 31
0.0
  0
LINE
  5
23077
  8
01
 10
2783.035275950587
 20
-529.6995274002707
 30
0.0
 11
2783.046921310924
 21
-529.683685625488
 31
0.0
  0
LINE
  5
23078
  8
01
 10
2783.046921310924
 20
-529.683685625488
 30
0.0
 11
2783.058780343907
 21
-529.668391085962
 31
0.0
  0
LINE
  5
23079
  8
01
 10
2783.058780343907
 20
-529.668391085962
 30
0.0
 11
2783.070840052801
 21
-529.6536560311002
 31
0.0
  0
LINE
  5
2307A
  8
01
 10
2783.070840052801
 20
-529.6536560311002
 30
0.0
 11
2783.083087145079
 21
-529.6394914998633
 31
0.0
  0
LINE
  5
2307B
  8
01
 10
2783.083087145079
 20
-529.6394914998633
 30
0.0
 11
2783.095508079561
 21
-529.625907297276
 31
0.0
  0
LINE
  5
2307C
  8
01
 10
2783.095508079561
 20
-529.625907297276
 30
0.0
 11
2783.108089114104
 21
-529.6129119773598
 31
0.0
  0
LINE
  5
2307D
  8
01
 10
2783.108089114104
 20
-529.6129119773598
 30
0.0
 11
2783.120816353554
 21
-529.6005128325037
 31
0.0
  0
LINE
  5
2307E
  8
01
 10
2783.120816353554
 20
-529.6005128325037
 30
0.0
 11
2783.133675797578
 21
-529.5887158892083
 31
0.0
  0
LINE
  5
2307F
  8
01
 10
2783.133675797578
 20
-529.5887158892083
 30
0.0
 11
2783.1466533881
 21
-529.577525910107
 31
0.0
  0
LINE
  5
23080
  8
01
 10
2783.1466533881
 20
-529.577525910107
 30
0.0
 11
2783.159735055979
 21
-529.5669464020907
 31
0.0
  0
LINE
  5
23081
  8
01
 10
2783.159735055979
 20
-529.5669464020907
 30
0.0
 11
2783.172906766671
 21
-529.5569796303276
 31
0.0
  0
LINE
  5
23082
  8
01
 10
2783.172906766671
 20
-529.5569796303276
 30
0.0
 11
2783.186154564572
 21
-529.547626637918
 31
0.0
  0
LINE
  5
23083
  8
01
 10
2783.186154564572
 20
-529.547626637918
 30
0.0
 11
2783.1994646158
 21
-529.5388872708777
 31
0.0
  0
LINE
  5
23084
  8
01
 10
2783.1994646158
 20
-529.5388872708777
 30
0.0
 11
2783.212823249158
 21
-529.5307602081162
 31
0.0
  0
LINE
  5
23085
  8
01
 10
2783.212823249158
 20
-529.5307602081162
 30
0.0
 11
2783.219516566004
 21
-529.5269255672954
 31
0.0
  0
LINE
  5
23086
  8
01
 10
2783.219516566004
 20
-529.5269255672954
 30
0.0
 11
2783.2262169951
 21
-529.5232429960374
 31
0.0
  0
LINE
  5
23087
  8
01
 10
2783.2262169951
 20
-529.5232429960374
 30
0.0
 11
2783.232922890289
 21
-529.51971201706
 31
0.0
  0
LINE
  5
23088
  8
01
 10
2783.232922890289
 20
-529.51971201706
 30
0.0
 11
2783.239632622489
 21
-529.5163320873645
 31
0.0
  0
LINE
  5
23089
  8
01
 10
2783.239632622489
 20
-529.5163320873645
 30
0.0
 11
2783.246344580704
 21
-529.5131025996498
 31
0.0
  0
LINE
  5
2308A
  8
01
 10
2783.246344580704
 20
-529.5131025996498
 30
0.0
 11
2783.253057173004
 21
-529.5100228837787
 31
0.0
  0
LINE
  5
2308B
  8
01
 10
2783.253057173004
 20
-529.5100228837787
 30
0.0
 11
2783.259768827465
 21
-529.5070922082872
 31
0.0
  0
LINE
  5
2308C
  8
01
 10
2783.259768827465
 20
-529.5070922082872
 30
0.0
 11
2783.266477993061
 21
-529.5043097819373
 31
0.0
  0
LINE
  5
2308D
  8
01
 10
2783.266477993061
 20
-529.5043097819373
 30
0.0
 11
2783.273183140521
 21
-529.5016747553095
 31
0.0
  0
LINE
  5
2308E
  8
01
 10
2783.273183140521
 20
-529.5016747553095
 30
0.0
 11
2783.279882763145
 21
-529.49918622243
 31
0.0
  0
LINE
  5
2308F
  8
01
 10
2783.279882763145
 20
-529.49918622243
 30
0.0
 11
2783.286575377565
 21
-529.4968432224307
 31
0.0
  0
LINE
  5
23090
  8
01
 10
2783.286575377565
 20
-529.4968432224307
 30
0.0
 11
2783.293259524486
 21
-529.4946447412372
 31
0.0
  0
LINE
  5
23091
  8
01
 10
2783.293259524486
 20
-529.4946447412372
 30
0.0
 11
2783.29993376936
 21
-529.4925897132812
 31
0.0
  0
LINE
  5
23092
  8
01
 10
2783.29993376936
 20
-529.4925897132812
 30
0.0
 11
2783.306596703032
 21
-529.4906770232386
 31
0.0
  0
LINE
  5
23093
  8
01
 10
2783.306596703032
 20
-529.4906770232386
 30
0.0
 11
2783.313246942338
 21
-529.4889055077812
 31
0.0
  0
LINE
  5
23094
  8
01
 10
2783.313246942338
 20
-529.4889055077812
 30
0.0
 11
2783.319883130667
 21
-529.4872739573476
 31
0.0
  0
LINE
  5
23095
  8
01
 10
2783.319883130667
 20
-529.4872739573476
 30
0.0
 11
2783.326503938466
 21
-529.485781117924
 31
0.0
  0
LINE
  5
23096
  8
01
 10
2783.326503938466
 20
-529.485781117924
 30
0.0
 11
2783.333108063722
 21
-529.4844256928357
 31
0.0
  0
LINE
  5
23097
  8
01
 10
2783.333108063722
 20
-529.4844256928357
 30
0.0
 11
2783.339694232387
 21
-529.4832063445431
 31
0.0
  0
LINE
  5
23098
  8
01
 10
2783.339694232387
 20
-529.4832063445431
 30
0.0
 11
2783.346261198765
 21
-529.4821216964424
 31
0.0
  0
LINE
  5
23099
  8
01
 10
2783.346261198765
 20
-529.4821216964424
 30
0.0
 11
2783.352807745873
 21
-529.4811703346651
 31
0.0
  0
LINE
  5
2309A
  8
01
 10
2783.352807745873
 20
-529.4811703346651
 30
0.0
 11
2783.359332685733
 21
-529.4803508098757
 31
0.0
  0
LINE
  5
2309B
  8
01
 10
2783.359332685733
 20
-529.4803508098757
 30
0.0
 11
2783.365834859654
 21
-529.4796616390644
 31
0.0
  0
LINE
  5
2309C
  8
01
 10
2783.365834859654
 20
-529.4796616390644
 30
0.0
 11
2783.372313138456
 21
-529.4791013073303
 31
0.0
  0
LINE
  5
2309D
  8
01
 10
2783.372313138456
 20
-529.4791013073303
 30
0.0
 11
2783.378766422668
 21
-529.478668269657
 31
0.0
  0
LINE
  5
2309E
  8
01
 10
2783.378766422668
 20
-529.478668269657
 30
0.0
 11
2783.385193642677
 21
-529.4783609526721
 31
0.0
  0
LINE
  5
2309F
  8
01
 10
2783.385193642677
 20
-529.4783609526721
 30
0.0
 11
2783.391593758855
 21
-529.4781777563962
 31
0.0
  0
LINE
  5
230A0
  8
01
 10
2783.391593758855
 20
-529.4781777563962
 30
0.0
 11
2783.397965761634
 21
-529.478117055969
 31
0.0
  0
LINE
  5
230A1
  8
01
 10
2783.397965761634
 20
-529.478117055969
 30
0.0
 11
2783.483470339563
 21
-529.478117055969
 31
0.0
  0
LINE
  5
230A2
  8
01
 10
2876.544400729274
 20
-530.46811705597
 30
0.0
 11
2876.544400729274
 21
-535.7481170559709
 31
0.0
  0
LINE
  5
230A3
  8
01
 10
2782.822539949851
 20
-535.748117055969
 30
0.0
 11
2782.822539949853
 21
-530.4681170559691
 31
0.0
  0
LINE
  5
230A4
  8
01
 10
2826.760532360056
 20
-510.008117055969
 30
0.0
 11
2832.606408319071
 21
-510.008117055969
 31
0.0
  0
LINE
  5
230A5
  8
01
 10
2834.680532360054
 20
-510.008117055969
 30
0.0
 11
2843.460970339562
 21
-510.008117055969
 31
0.0
  0
LINE
  5
230A6
  8
01
 10
2845.605970339562
 20
-510.008117055969
 30
0.0
 11
2856.083470339563
 21
-510.008117055969
 31
0.0
  0
LINE
  5
230A7
  8
01
 10
2803.283470339563
 20
-510.008117055969
 30
0.0
 11
2813.760970339563
 21
-510.008117055969
 31
0.0
  0
LINE
  5
230A8
  8
01
 10
2815.905970339563
 20
-510.008117055969
 30
0.0
 11
2824.686408319071
 21
-510.008117055969
 31
0.0
  0
LINE
  5
230A9
  8
1DIM
 10
2856.083470339563
 20
-510.6681170559702
 30
0.0
 11
2803.283470339562
 21
-510.6681170559789
 31
0.0
  0
LINE
  5
230AA
  8
01
 10
2803.283470339562
 20
-510.6681170559789
 30
0.0
 11
2803.283470339563
 21
-510.008117055969
 31
0.0
  0
LINE
  5
230AB
  8
01
 10
2856.083470339563
 20
-510.008117055969
 30
0.0
 11
2856.083470339563
 21
-510.6681170559702
 31
0.0
  0
LINE
  5
230AC
  8
01
 10
2843.460970339562
 20
-510.008117055969
 30
0.0
 11
2845.605970339562
 21
-510.008117055969
 31
0.0
  0
LINE
  5
230AD
  8
01
 10
2813.760970339563
 20
-510.008117055969
 30
0.0
 11
2815.905970339563
 21
-510.008117055969
 31
0.0
  0
LINE
  5
230AE
  8
01
 10
2834.68053236031
 20
-510.008117055969
 30
0.0
 11
2832.606408319069
 21
-510.008117055969
 31
0.0
  0
LINE
  5
230AF
  8
01
 10
2824.686408319071
 20
-510.008117055969
 30
0.0
 11
2826.76053236031
 21
-510.008117055969
 31
0.0
  0
ARC
  5
230B0
  8
01
 10
2855.093470339562
 20
-558.4859782210265
 30
0.0
 40
0.989999999999925
 50
270.0
 51
0.0
  0
LINE
  5
230B1
  8
01
 10
2856.083470339562
 20
-552.7109782210265
 30
0.0
 11
2856.083470339562
 21
-558.4859782210265
 31
0.0
  0
LINE
  5
230B2
  8
01
 10
2803.283470339562
 20
-558.4859782210265
 30
0.0
 11
2803.283470339562
 21
-552.7109782210265
 31
0.0
  0
ARC
  5
230B3
  8
01
 10
2804.273470339562
 20
-558.4859782210265
 30
0.0
 40
0.9899999999999063
 50
180.0
 51
270.0
  0
LINE
  5
230B4
  8
01
 10
2855.093470339562
 20
-559.4759782210265
 30
0.0
 11
2804.273470339562
 21
-559.4759782210265
 31
0.0
  0
LINE
  5
230B5
  8
01
 10
2856.083470339562
 20
-552.7109782210265
 30
0.0
 11
2803.283470339562
 21
-552.7109782210265
 31
0.0
  0
LINE
  5
230B6
  8
01
 10
2823.743470339562
 20
-572.0159782210264
 30
0.0
 11
2823.743470339562
 21
-559.4759782210265
 31
0.0
  0
LINE
  5
230B7
  8
01
 10
2835.623470339562
 20
-559.4759782210265
 30
0.0
 11
2835.623470339562
 21
-572.0159782210264
 31
0.0
  0
LINE
  5
230B8
  8
01
 10
2873.23382252867
 20
-572.0159782210268
 30
0.0
 11
2786.133118150454
 21
-572.0159782210271
 31
0.0
  0
LINE
  5
230B9
  8
01
 10
2786.133118150455
 20
-573.0059782210265
 30
0.0
 11
2873.23382252867
 21
-573.0059782210265
 31
0.0
  0
LINE
  5
230BA
  8
01
 10
2783.397965761634
 20
-570.3655322148012
 30
0.0
 11
2784.790457922964
 21
-572.3150212406629
 31
0.0
  0
LINE
  5
230BB
  8
01
 10
2874.576482756161
 20
-572.3150212406629
 30
0.0
 11
2875.968974917492
 21
-570.3655322147997
 31
0.0
  0
ARC
  5
230BC
  8
01
 10
2873.23382252867
 20
-571.3559782210268
 30
0.0
 40
1.649999999999653
 50
270.0
 51
324.4623222080476
  0
ARC
  5
230BD
  8
01
 10
2786.133118150455
 20
-571.3559782210261
 30
0.0
 40
1.650000000000103
 50
215.5376777919748
 51
270.0
  0
LINE
  5
230BE
  8
01
 10
2785.596054059458
 20
-571.7395954288813
 30
0.0
 11
2784.203561898128
 21
-569.790106403019
 31
0.0
  0
LINE
  5
230BF
  8
01
 10
2875.163378780997
 20
-569.7901064030177
 30
0.0
 11
2873.770886619666
 21
-571.7395954288813
 31
0.0
  0
ARC
  5
230C0
  8
01
 10
2786.133118150451
 20
-571.355978221034
 30
0.0
 40
0.6599999999929937
 50
215.5376777916635
 51
270.0000000002763
  0
ARC
  5
230C1
  8
01
 10
2873.233822528673
 20
-571.3559782210314
 30
0.0
 40
0.6599999999953513
 50
269.9999999997631
 51
324.4623222082367
  0
LINE
  5
230C2
  8
01
 10
2782.822539949851
 20
-569.5599360783062
 30
0.0
 11
2783.628136086346
 21
-568.9845102665244
 31
0.0
  0
LINE
  5
230C3
  8
01
 10
2783.397965761634
 20
-570.3655322148012
 30
0.0
 11
2782.822539949851
 21
-569.5599360783062
 31
0.0
  0
LINE
  5
230C4
  8
01
 10
2783.628136086346
 20
-568.9845102665244
 30
0.0
 11
2784.203561898128
 21
-569.790106403019
 31
0.0
  0
LINE
  5
230C5
  8
01
 10
2875.738804592779
 20
-568.9845102665234
 30
0.0
 11
2876.544400729274
 21
-569.5599360783053
 31
0.0
  0
LINE
  5
230C6
  8
01
 10
2875.163378780997
 20
-569.7901064030177
 30
0.0
 11
2875.738804592779
 21
-568.9845102665234
 31
0.0
  0
LINE
  5
230C7
  8
01
 10
2876.544400729274
 20
-569.5599360783053
 30
0.0
 11
2875.968974917492
 21
-570.3655322147997
 31
0.0
  0
LINE
  5
230C8
  8
01
 10
2803.283470339562
 20
-552.7109782210265
 30
0.0
 11
2803.283470339562
 21
-552.5459782210265
 31
0.0
  0
LINE
  5
230C9
  8
01
 10
2856.083470339562
 20
-552.5459782210265
 30
0.0
 11
2856.083470339562
 21
-552.7109782210265
 31
0.0
  0
LINE
  5
230CA
  8
01
 10
2803.943470339562
 20
-552.7109782210265
 30
0.0
 11
2803.943470339562
 21
-552.5459782210265
 31
0.0
  0
LINE
  5
230CB
  8
01
 10
2855.423470339783
 20
-552.7109782210265
 30
0.0
 11
2855.423470339562
 21
-552.5459782210265
 31
0.0
  0
LINE
  5
230CC
  8
01
 10
2875.883470339563
 20
-551.8859782210266
 30
0.0
 11
2875.883470339563
 21
-552.5459782210265
 31
0.0
  0
LINE
  5
230CD
  8
01
 10
2875.883470339563
 20
-551.8859782210266
 30
0.0
 11
2874.893470339563
 21
-551.8859782210266
 31
0.0
  0
LINE
  5
230CE
  8
01
 10
2874.893470339563
 20
-552.5459782210265
 30
0.0
 11
2875.883470339563
 21
-552.5459782210265
 31
0.0
  0
LINE
  5
230CF
  8
01
 10
2874.893470339563
 20
-551.8859782210266
 30
0.0
 11
2784.473470339563
 21
-551.8859782210266
 31
0.0
  0
LINE
  5
230D0
  8
01
 10
2784.473470339563
 20
-552.5459782210265
 30
0.0
 11
2874.893470339563
 21
-552.5459782210265
 31
0.0
  0
LINE
  5
230D1
  8
01
 10
2784.473470339563
 20
-551.8859782210266
 30
0.0
 11
2783.483470339563
 21
-551.8859782210266
 31
0.0
  0
LINE
  5
230D2
  8
01
 10
2783.483470339563
 20
-551.8859782210266
 30
0.0
 11
2783.483470339563
 21
-552.5459782210265
 31
0.0
  0
LINE
  5
230D3
  8
01
 10
2783.483470339563
 20
-552.5459782210265
 30
0.0
 11
2784.473470339563
 21
-552.5459782210265
 31
0.0
  0
LINE
  5
230D4
  8
1DIM
 10
2875.968974917492
 20
-570.3655322147997
 30
0.0
 11
2875.163378780997
 21
-569.7901064030177
 31
0.0
  0
LINE
  5
230D5
  8
1DIM
 10
2784.203561898128
 20
-569.790106403019
 30
0.0
 11
2783.397965761634
 21
-570.3655322148012
 31
0.0
  0
LINE
  5
230D6
  8
1DIM
 10
2784.473470339563
 20
-551.8859782210266
 30
0.0
 11
2784.473470339563
 21
-552.5459782210265
 31
0.0
  0
LINE
  5
230D7
  8
1DIM
 10
2874.893470339563
 20
-551.8859782210266
 30
0.0
 11
2874.893470339563
 21
-552.5459782210265
 31
0.0
  0
LINE
  5
230D8
  8
1DIM
 10
2808.233470339562
 20
-553.644427189909
 30
0.0
 11
2808.233470339562
 21
-556.0675295580082
 31
0.0
  0
LINE
  5
230D9
  8
1DIM
 10
2807.026042845761
 20
-554.8559783739588
 30
0.0
 11
2809.440897833364
 21
-554.8559783739588
 31
0.0
  0
LINE
  5
230DA
  8
1DIM
 10
2829.683470339562
 20
-553.644427189909
 30
0.0
 11
2829.683470339562
 21
-556.0675295580082
 31
0.0
  0
LINE
  5
230DB
  8
1DIM
 10
2828.476042845761
 20
-554.8559783739588
 30
0.0
 11
2830.890897833364
 21
-554.8559783739588
 31
0.0
  0
LINE
  5
230DC
  8
1DIM
 10
2851.13347033956
 20
-553.644427189909
 30
0.0
 11
2851.13347033956
 21
-556.0675295580082
 31
0.0
  0
LINE
  5
230DD
  8
1DIM
 10
2849.926042845759
 20
-554.8559783739588
 30
0.0
 11
2852.340897833362
 21
-554.8559783739588
 31
0.0
  0
LINE
  5
230E4
  8
01
 10
2830.703033929424
 20
-512.3181060181472
 30
0.0
 11
2831.147416630818
 21
-513.3115099705938
 31
0.0
  0
LINE
  5
230E5
  8
01
 10
2831.657253614857
 20
-512.318117055969
 30
0.0
 11
2831.420050826658
 21
-512.318117055969
 31
0.0
  0
LINE
  5
230E6
  8
01
 10
2830.874892813196
 20
-512.318117055969
 30
0.0
 11
2830.703033929424
 21
-512.318117055969
 31
0.0
  0
LINE
  5
230E7
  8
01
 10
2830.010300239918
 20
-512.318117055969
 30
0.0
 11
2829.838441356144
 21
-512.318117055969
 31
0.0
  0
LINE
  5
23274
  8
1DIM
 10
2669.252819826371
 20
-506.2732756898873
 30
0.0
 11
2674.752818899139
 21
-506.2732756898873
 31
0.0
  0
LINE
  5
23275
  8
1DIM
 10
2676.502819826186
 20
-506.2732756898873
 30
0.0
 11
2674.752818899139
 21
-506.2732756898873
 31
0.0
  0
LINE
  5
23279
  8
1DIM
 10
2670.252819362755
 20
-507.5732758898881
 30
0.0
 11
2667.502819362755
 21
-507.5732758898881
 31
0.0
  0
LINE
  5
2327F
  8
1DIM
 10
2676.502819362755
 20
-507.5732758898881
 30
0.0
 11
2673.752819362755
 21
-507.5732758898881
 31
0.0
  0
LINE
  5
232BB
  8
1DIM
 10
2673.752819362755
 20
-507.5732758898881
 30
0.0
 11
2670.252819362755
 21
-507.5732758898881
 31
0.0
  0
LINE
  5
232BE
  8
1DIM
 10
2672.652819162755
 20
-507.5732758898881
 30
0.0
 11
2671.352819212756
 21
-506.2732756898873
 31
0.0
  0
LINE
  5
232C1
  8
1DIM
 10
2604.252819826374
 20
-506.2732756898873
 30
0.0
 11
2609.752818899143
 21
-506.2732756898873
 31
0.0
  0
LINE
  5
232C2
  8
1DIM
 10
2611.50281982619
 20
-506.2732756898873
 30
0.0
 11
2609.752818899143
 21
-506.2732756898873
 31
0.0
  0
LINE
  5
232C3
  8
1DIM
 10
2605.252819362759
 20
-507.5732758898881
 30
0.0
 11
2602.502819362759
 21
-507.5732758898881
 31
0.0
  0
LINE
  5
232C4
  8
1DIM
 10
2611.502819362759
 20
-507.5732758898881
 30
0.0
 11
2608.752819362759
 21
-507.5732758898881
 31
0.0
  0
LINE
  5
232C5
  8
1DIM
 10
2608.752819362759
 20
-507.5732758898881
 30
0.0
 11
2605.252819362759
 21
-507.5732758898881
 31
0.0
  0
LINE
  5
232C7
  8
1DIM
 10
2607.652819162759
 20
-507.5732758898881
 30
0.0
 11
2606.35281921276
 21
-506.2732756898873
 31
0.0
  0
LINE
  5
232C9
  8
1DIM
 10
2539.252819826378
 20
-506.2732756898873
 30
0.0
 11
2544.752818899146
 21
-506.2732756898873
 31
0.0
  0
LINE
  5
232CA
  8
1DIM
 10
2546.502819826193
 20
-506.2732756898873
 30
0.0
 11
2544.752818899146
 21
-506.2732756898873
 31
0.0
  0
LINE
  5
232CB
  8
1DIM
 10
2540.252819362762
 20
-507.5732758898881
 30
0.0
 11
2537.502819362762
 21
-507.5732758898881
 31
0.0
  0
LINE
  5
232CC
  8
1DIM
 10
2546.502819362762
 20
-507.5732758898881
 30
0.0
 11
2543.752819362762
 21
-507.5732758898881
 31
0.0
  0
LINE
  5
232CD
  8
1DIM
 10
2543.752819362762
 20
-507.5732758898881
 30
0.0
 11
2540.252819362762
 21
-507.5732758898881
 31
0.0
  0
LINE
  5
232CF
  8
1DIM
 10
2542.652819162762
 20
-507.5732758898881
 30
0.0
 11
2541.352819212763
 21
-506.2732756898873
 31
0.0
  0
LINE
  5
232D1
  8
1DIM
 10
2807.325970492557
 20
-511.3281170559683
 30
0.0
 11
2809.14097018657
 21
-511.3281170559683
 31
0.0
  0
LINE
  5
232D2
  8
1DIM
 10
2809.718470492496
 20
-511.3281170559683
 30
0.0
 11
2809.14097018657
 21
-511.3281170559683
 31
0.0
  0
LINE
  5
232D3
  8
1DIM
 10
2807.655970339563
 20
-511.7571171219686
 30
0.0
 11
2806.748470339563
 21
-511.7571171219686
 31
0.0
  0
LINE
  5
232D4
  8
1DIM
 10
2809.718470339563
 20
-511.7571171219686
 30
0.0
 11
2808.810970339563
 21
-511.7571171219686
 31
0.0
  0
LINE
  5
232D5
  8
1DIM
 10
2808.810970339563
 20
-511.7571171219686
 30
0.0
 11
2807.655970339563
 21
-511.7571171219686
 31
0.0
  0
LINE
  5
232D7
  8
1DIM
 10
2808.447970273563
 20
-511.7571171219686
 30
0.0
 11
2808.018970290063
 21
-511.3281170559683
 31
0.0
  0
LINE
  5
232D9
  8
1DIM
 10
2828.775970492556
 20
-511.3281170559683
 30
0.0
 11
2830.590970186569
 21
-511.3281170559683
 31
0.0
  0
LINE
  5
232DA
  8
1DIM
 10
2831.168470492495
 20
-511.3281170559683
 30
0.0
 11
2830.590970186569
 21
-511.3281170559683
 31
0.0
  0
LINE
  5
232DB
  8
1DIM
 10
2829.105970339562
 20
-511.7571171219686
 30
0.0
 11
2828.198470339562
 21
-511.7571171219686
 31
0.0
  0
LINE
  5
232DC
  8
1DIM
 10
2831.168470339562
 20
-511.7571171219686
 30
0.0
 11
2830.260970339562
 21
-511.7571171219686
 31
0.0
  0
LINE
  5
232DD
  8
1DIM
 10
2830.260970339562
 20
-511.7571171219686
 30
0.0
 11
2829.105970339562
 21
-511.7571171219686
 31
0.0
  0
LINE
  5
232DF
  8
1DIM
 10
2829.897970273562
 20
-511.7571171219686
 30
0.0
 11
2829.468970290062
 21
-511.3281170559683
 31
0.0
  0
LINE
  5
232E1
  8
1DIM
 10
2850.225970492555
 20
-511.3281170559683
 30
0.0
 11
2852.040970186568
 21
-511.3281170559683
 31
0.0
  0
LINE
  5
232E2
  8
1DIM
 10
2852.618470492494
 20
-511.3281170559683
 30
0.0
 11
2852.040970186568
 21
-511.3281170559683
 31
0.0
  0
LINE
  5
232E3
  8
1DIM
 10
2850.555970339561
 20
-511.7571171219686
 30
0.0
 11
2849.648470339561
 21
-511.7571171219686
 31
0.0
  0
LINE
  5
232E4
  8
1DIM
 10
2852.618470339561
 20
-511.7571171219686
 30
0.0
 11
2851.710970339561
 21
-511.7571171219686
 31
0.0
  0
LINE
  5
232E5
  8
1DIM
 10
2851.710970339561
 20
-511.7571171219686
 30
0.0
 11
2850.555970339561
 21
-511.7571171219686
 31
0.0
  0
LINE
  5
232E7
  8
1DIM
 10
2851.347970273561
 20
-511.7571171219686
 30
0.0
 11
2850.918970290061
 21
-511.3281170559683
 31
0.0
  0
LINE
  5
232E9
  8
1DIM
 10
2884.293579936206
 20
-635.4258862080197
 30
0.0
 11
2884.293579936206
 21
-640.9258852807881
 31
0.0
  0
LINE
  5
232EA
  8
1DIM
 10
2884.293579936206
 20
-642.6758862078351
 30
0.0
 11
2884.293579936206
 21
-640.9258852807881
 31
0.0
  0
LINE
  5
232EB
  8
1DIM
 10
2882.993579736205
 20
-636.4258857444039
 30
0.0
 11
2882.993579736205
 21
-633.6758857444039
 31
0.0
  0
LINE
  5
232EC
  8
1DIM
 10
2882.993579736205
 20
-642.6758857444039
 30
0.0
 11
2882.993579736205
 21
-639.9258857444039
 31
0.0
  0
LINE
  5
232ED
  8
1DIM
 10
2882.993579736205
 20
-639.9258857444039
 30
0.0
 11
2882.993579736205
 21
-636.4258857444039
 31
0.0
  0
LINE
  5
232EF
  8
1DIM
 10
2882.993579736205
 20
-638.8258855444038
 30
0.0
 11
2884.293579936206
 21
-637.5258855944049
 31
0.0
  0
LINE
  5
23338
  8
01
 10
2900.793579736205
 20
-613.5395234717163
 30
0.0
 11
2900.793579736205
 21
-695.5
 31
0.0
  0
LINE
  5
23339
  8
01
 10
2909.793579736205
 20
-613.5395234717163
 30
0.0
 11
2909.793579736205
 21
-695.5
 31
0.0
  0
LINE
  5
2333A
  8
01
 10
2888.293579736205
 20
-613.5395234717163
 30
0.0
 11
2888.293579736205
 21
-695.5
 31
0.0
  0
LINE
  5
233CD
  8
01
 10
2611.003528007615
 20
-512.2043525167188
 30
0.0
 11
2610.504819154721
 21
-512.2043525167188
 31
0.0
  0
LINE
  5
233CE
  8
01
 10
2610.504819154721
 20
-512.2043525167188
 30
0.0
 11
2609.737523307278
 21
-510.3823426345094
 31
0.0
  0
LINE
  5
233CF
  8
01
 10
2609.737523307278
 20
-510.3823426345094
 30
0.0
 11
2609.022740732737
 21
-512.2835572493583
 31
0.0
  0
LINE
  5
233D0
  8
01
 10
2609.022740732737
 20
-512.2835572493583
 30
0.0
 11
2608.307958158195
 21
-510.3823426345094
 31
0.0
  0
LINE
  5
233D1
  8
01
 10
2608.307958158195
 20
-510.3823426345094
 30
0.0
 11
2607.540996790198
 21
-512.2043525167188
 31
0.0
  0
LINE
  5
233D2
  8
01
 10
2607.540996790198
 20
-512.2043525167188
 30
0.0
 11
2607.042287937304
 21
-512.2043525167188
 31
0.0
  0
LINE
  5
233D3
  8
01
 10
2607.042287937304
 20
-512.2043525167188
 30
0.0
 11
2608.30996503487
 21
-509.1940375093051
 31
0.0
  0
LINE
  5
233D4
  8
01
 10
2608.30996503487
 20
-509.1940375093051
 30
0.0
 11
2609.022740732737
 21
-511.0904690680869
 31
0.0
  0
LINE
  5
233D5
  8
01
 10
2609.022740732737
 20
-511.0904690680869
 30
0.0
 11
2609.735850910049
 21
-509.1940375093051
 31
0.0
  0
LINE
  5
233D6
  8
01
 10
2609.735850910049
 20
-509.1940375093051
 30
0.0
 11
2611.003528007615
 21
-512.2043525167188
 31
0.0
  0
LINE
  5
233D7
  8
01
 10
2606.174648256278
 20
-510.0654568080623
 30
0.0
 11
2605.825399647623
 21
-509.2843469595242
 31
0.0
  0
LINE
  5
233D8
  8
01
 10
2605.825399647623
 20
-509.2843469595242
 30
0.0
 11
2605.028721676787
 21
-509.2843469595242
 31
0.0
  0
ARC
  5
233D9
  8
01
 10
2605.028721676789
 20
-510.0670288614511
 30
0.0
 40
0.7826819019269351
 50
90.0
 51
180.0
  0
LINE
  5
233DA
  8
01
 10
2604.246039774862
 20
-510.0670288614534
 30
0.0
 11
2604.246039774862
 21
-512.2043525167188
 31
0.0
  0
LINE
  5
233DB
  8
01
 10
2604.246039774862
 20
-512.2043525167188
 30
0.0
 11
2604.727690176052
 21
-512.2043525167188
 31
0.0
  0
LINE
  5
233DC
  8
01
 10
2604.727690176052
 20
-512.2043525167188
 30
0.0
 11
2604.727690176052
 21
-510.0369257113795
 31
0.0
  0
ARC
  5
233DD
  8
01
 10
2605.028721676791
 20
-510.0369257113754
 30
0.0
 40
0.3010315007381905
 50
90.0
 51
180.0
  0
LINE
  5
233DE
  8
01
 10
2605.028721676787
 20
-509.7358942106372
 30
0.0
 11
2605.506495819671
 21
-509.7358942106372
 31
0.0
  0
LINE
  5
233DF
  8
01
 10
2605.506495819671
 20
-509.7358942106372
 30
0.0
 11
2606.646264274106
 21
-512.2835572493583
 31
0.0
  0
LINE
  5
233E0
  8
01
 10
2606.646264274106
 20
-512.2835572493583
 30
0.0
 11
2607.993213000202
 21
-509.2732422419446
 31
0.0
  0
LINE
  5
233E1
  8
01
 10
2602.409747620342
 20
-512.2043525167188
 30
0.0
 11
2602.409747620342
 21
-510.1033263778369
 31
0.0
  0
ARC
  5
233E2
  8
01
 10
2602.801088571304
 20
-510.1033263778327
 30
0.0
 40
0.3913409509618851
 50
119.9999999999701
 51
180.0
  0
ARC
  5
233E3
  8
01
 10
2602.936552746636
 20
-510.3379572121215
 30
0.0
 40
0.6622693016330695
 50
60.00000000002957
 51
119.9999999999704
  0
ARC
  5
233E4
  8
01
 10
2603.072016921968
 20
-510.1033263778327
 30
0.0
 40
0.3913409509618932
 50
359.9999999993934
 51
59.99999999942195
  0
LINE
  5
233E5
  8
01
 10
2603.46335787293
 20
-510.1033263778369
 30
0.0
 11
2603.46335787293
 21
-512.2043525167188
 31
0.0
  0
LINE
  5
233E6
  8
01
 10
2603.46335787293
 20
-512.2043525167188
 30
0.0
 11
2603.94500827412
 21
-512.2043525167188
 31
0.0
  0
LINE
  5
233E7
  8
01
 10
2603.94500827412
 20
-512.2043525167188
 30
0.0
 11
2603.94500827412
 21
-510.1033263778369
 31
0.0
  0
ARC
  5
233E8
  8
01
 10
2603.072016921969
 20
-510.1033263778376
 30
0.0
 40
0.8729913521509346
 50
0.0
 51
60.00000000002854
  0
ARC
  5
233E9
  8
01
 10
2602.936552746636
 20
-510.3379572121193
 30
0.0
 40
1.143919702816764
 50
60.00000000002888
 51
119.9999999999711
  0
ARC
  5
233EA
  8
01
 10
2602.801088571303
 20
-510.1033263778376
 30
0.0
 40
0.8729913521509346
 50
119.9999999999257
 51
179.9999999999543
  0
LINE
  5
233EB
  8
01
 10
2601.928097219152
 20
-510.1033263778369
 30
0.0
 11
2601.928097219152
 21
-512.2043525167188
 31
0.0
  0
LINE
  5
233EC
  8
01
 10
2601.928097219152
 20
-512.2043525167188
 30
0.0
 11
2602.409747620342
 21
-512.2043525167188
 31
0.0
  0
LINE
  5
233ED
  8
01
 10
2601.616027896718
 20
-512.2835906973029
 30
0.0
 11
2601.616027896718
 21
-509.2732756898891
 31
0.0
  0
LINE
  5
233EE
  8
01
 10
2601.616027896718
 20
-509.2732756898891
 30
0.0
 11
2601.140732604992
 21
-509.2732756898891
 31
0.0
  0
LINE
  5
233EF
  8
01
 10
2601.140732604992
 20
-509.2732756898891
 30
0.0
 11
2601.140732604992
 21
-511.0599979906225
 31
0.0
  0
LINE
  5
233F0
  8
01
 10
2601.140732604992
 20
-511.0599979906225
 30
0.0
 11
2599.477031844228
 21
-509.1940375093051
 31
0.0
  0
LINE
  5
233F1
  8
01
 10
2599.477031844228
 20
-509.1940375093051
 30
0.0
 11
2599.477031844228
 21
-512.2043525167188
 31
0.0
  0
LINE
  5
233F2
  8
01
 10
2599.477031844228
 20
-512.2043525167188
 30
0.0
 11
2599.952327135954
 21
-512.2043525167188
 31
0.0
  0
LINE
  5
233F3
  8
01
 10
2599.952327135954
 20
-512.2043525167188
 30
0.0
 11
2599.952327135954
 21
-510.4175967680409
 31
0.0
  0
LINE
  5
233F4
  8
01
 10
2599.952327135954
 20
-510.4175967680409
 30
0.0
 11
2601.616027896718
 21
-512.2835572493583
 31
0.0
  0
LINE
  5
233F5
  8
01
 10
2606.922878775342
 20
-510.5011497334687
 30
0.0
 11
2606.369649772871
 21
-510.5011497334687
 31
0.0
  0
LINE
  5
233F6
  8
01
 10
2606.369649772871
 20
-510.5011497334687
 30
0.0
 11
2606.646264274106
 21
-511.1196356757142
 31
0.0
  0
LINE
  5
233F7
  8
01
 10
2606.646264274106
 20
-511.1196356757142
 30
0.0
 11
2606.922878775342
 21
-510.5011497334687
 31
0.0
  0
LINE
  5
233F8
  8
01
 10
2611.439020245354
 20
-511.1196356757142
 30
0.0
 11
2611.71563474659
 21
-510.5011497334687
 31
0.0
  0
LINE
  5
233F9
  8
01
 10
2611.71563474659
 20
-510.5011497334687
 30
0.0
 11
2611.162405744119
 21
-510.5011497334687
 31
0.0
  0
LINE
  5
233FA
  8
01
 10
2611.162405744119
 20
-510.5011497334687
 30
0.0
 11
2611.439020245354
 21
-511.1196356757142
 31
0.0
  0
LINE
  5
233FB
  8
01
 10
2607.472428503916
 20
-509.2732422419446
 30
0.0
 11
2607.117880291935
 21
-510.0654568080623
 31
0.0
  0
LINE
  5
233FC
  8
01
 10
2607.117880291935
 20
-510.0654568080623
 30
0.0
 11
2606.174648256278
 21
-510.0654568080623
 31
0.0
  0
LINE
  5
233FD
  8
01
 10
2612.983980803048
 20
-509.2732422419446
 30
0.0
 11
2614.053311589571
 21
-510.8576379262355
 31
0.0
  0
LINE
  5
233FE
  8
01
 10
2614.053311589571
 20
-510.8576379262355
 30
0.0
 11
2612.983980803048
 21
-512.2043525167188
 31
0.0
  0
LINE
  5
233FF
  8
01
 10
2612.983980803048
 20
-512.2043525167188
 30
0.0
 11
2612.376900609885
 21
-512.2043525167188
 31
0.0
  0
LINE
  5
23400
  8
01
 10
2612.376900609885
 20
-512.2043525167188
 30
0.0
 11
2613.464293286455
 21
-510.8348264280681
 31
0.0
  0
LINE
  5
23401
  8
01
 10
2613.464293286455
 20
-510.8348264280681
 30
0.0
 11
2612.636122179971
 21
-509.6077551351578
 31
0.0
  0
LINE
  5
23402
  8
01
 10
2612.636122179971
 20
-509.6077551351578
 30
0.0
 11
2611.439020245354
 21
-512.2835906973029
 31
0.0
  0
LINE
  5
23403
  8
01
 10
2614.053311589571
 20
-509.2732756898891
 30
0.0
 11
2614.528606881297
 21
-509.2732756898891
 31
0.0
  0
LINE
  5
23404
  8
01
 10
2614.528606881297
 20
-509.2732756898891
 30
0.0
 11
2614.528606881297
 21
-512.2043525167188
 31
0.0
  0
LINE
  5
23405
  8
01
 10
2614.528606881297
 20
-512.2043525167188
 30
0.0
 11
2614.053311589571
 21
-512.2043525167188
 31
0.0
  0
LINE
  5
23406
  8
01
 10
2614.053311589571
 20
-512.2043525167188
 30
0.0
 11
2614.053311589571
 21
-509.2732756898891
 31
0.0
  0
LINE
  5
23407
  8
01
 10
2612.265184475171
 20
-509.2732422419446
 30
0.0
 11
2611.910636263183
 21
-510.0654568080623
 31
0.0
  0
LINE
  5
23408
  8
01
 10
2611.910636263183
 20
-510.0654568080623
 30
0.0
 11
2610.967404227526
 21
-510.0654568080623
 31
0.0
  0
LINE
  5
23409
  8
01
 10
2610.967404227526
 20
-510.0654568080623
 30
0.0
 11
2610.613190494983
 21
-509.2732422419446
 31
0.0
  0
LINE
  5
2340A
  8
01
 10
2831.003704192365
 20
-513.2853724088227
 30
0.0
 11
2830.83913027091
 21
-513.2853724088227
 31
0.0
  0
LINE
  5
2340B
  8
01
 10
2830.83913027091
 20
-513.2853724088227
 30
0.0
 11
2830.585922641254
 21
-512.6841091476937
 31
0.0
  0
LINE
  5
2340C
  8
01
 10
2830.585922641254
 20
-512.6841091476937
 30
0.0
 11
2830.350044391655
 21
-513.3115099705938
 31
0.0
  0
LINE
  5
2340D
  8
01
 10
2830.350044391655
 20
-513.3115099705938
 30
0.0
 11
2830.114166142056
 21
-512.6841091476937
 31
0.0
  0
LINE
  5
2340E
  8
01
 10
2830.114166142056
 20
-512.6841091476937
 30
0.0
 11
2829.861068890617
 21
-513.2853724088227
 31
0.0
  0
LINE
  5
2340F
  8
01
 10
2829.861068890617
 20
-513.2853724088227
 30
0.0
 11
2829.696494969162
 21
-513.2853724088227
 31
0.0
  0
LINE
  5
23410
  8
01
 10
2829.696494969162
 20
-513.2853724088227
 30
0.0
 11
2830.114828411359
 21
-512.2919684563763
 31
0.0
  0
LINE
  5
23411
  8
01
 10
2830.114828411359
 20
-512.2919684563763
 30
0.0
 11
2830.350044391655
 21
-512.9177908707742
 31
0.0
  0
LINE
  5
23412
  8
01
 10
2830.350044391655
 20
-512.9177908707742
 30
0.0
 11
2830.585370750168
 21
-512.2919684563763
 31
0.0
  0
LINE
  5
23413
  8
01
 10
2830.585370750168
 20
-512.2919684563763
 30
0.0
 11
2831.003704192365
 21
-513.2853724088227
 31
0.0
  0
LINE
  5
23414
  8
01
 10
2829.410173874423
 20
-512.5795368249661
 30
0.0
 11
2829.294921833568
 21
-512.3217705749486
 31
0.0
  0
LINE
  5
23415
  8
01
 10
2829.294921833568
 20
-512.3217705749486
 30
0.0
 11
2829.032018103191
 21
-512.3217705749486
 31
0.0
  0
ARC
  5
23416
  8
01
 10
2829.032018103192
 20
-512.5800556025845
 30
0.0
 40
0.2582850276359636
 50
90.0
 51
180.0
  0
LINE
  5
23417
  8
01
 10
2828.773733075556
 20
-512.5800556025852
 30
0.0
 11
2828.773733075556
 21
-513.2853724088227
 31
0.0
  0
LINE
  5
23418
  8
01
 10
2828.773733075556
 20
-513.2853724088227
 30
0.0
 11
2828.932677707949
 21
-513.2853724088227
 31
0.0
  0
LINE
  5
23419
  8
01
 10
2828.932677707949
 20
-513.2853724088227
 30
0.0
 11
2828.932677707949
 21
-512.5701215630608
 31
0.0
  0
ARC
  5
2341A
  8
01
 10
2829.032018103193
 20
-512.5701215630593
 30
0.0
 40
0.0993403952434733
 50
90.0
 51
180.0
  0
LINE
  5
2341B
  8
01
 10
2829.032018103191
 20
-512.4707811678159
 30
0.0
 11
2829.189683570343
 21
-512.4707811678159
 31
0.0
  0
LINE
  5
2341C
  8
01
 10
2829.189683570343
 20
-512.4707811678159
 30
0.0
 11
2829.565807160307
 21
-513.3115099705938
 31
0.0
  0
LINE
  5
2341D
  8
01
 10
2829.565807160307
 20
-513.3115099705938
 30
0.0
 11
2830.010300239918
 21
-512.3181060181472
 31
0.0
  0
LINE
  5
2341E
  8
01
 10
2828.167756664564
 20
-513.2853724088227
 30
0.0
 11
2828.167756664564
 21
-512.5920337829917
 31
0.0
  0
ARC
  5
2341F
  8
01
 10
2828.296899178382
 20
-512.5920337829904
 30
0.0
 40
0.1291425138174615
 50
119.9999999999701
 51
180.0
  0
ARC
  5
23420
  8
01
 10
2828.341602356241
 20
-512.6694619583055
 30
0.0
 40
0.2185488695388038
 50
60.00000000002957
 51
119.9999999999704
  0
ARC
  5
23421
  8
01
 10
2828.386305534101
 20
-512.5920337829904
 30
0.0
 40
0.1291425138174642
 50
359.9999999993833
 51
59.99999999941186
  0
LINE
  5
23422
  8
01
 10
2828.515448047918
 20
-512.5920337829917
 30
0.0
 11
2828.515448047918
 21
-513.2853724088227
 31
0.0
  0
LINE
  5
23423
  8
01
 10
2828.515448047918
 20
-513.2853724088227
 30
0.0
 11
2828.674392680311
 21
-513.2853724088227
 31
0.0
  0
LINE
  5
23424
  8
01
 10
2828.674392680311
 20
-513.2853724088227
 30
0.0
 11
2828.674392680311
 21
-512.5920337829917
 31
0.0
  0
ARC
  5
23425
  8
01
 10
2828.386305534102
 20
-512.5920337829923
 30
0.0
 40
0.2880871462100061
 50
0.0
 51
60.00000000002854
  0
ARC
  5
23426
  8
01
 10
2828.341602356241
 20
-512.6694619583049
 30
0.0
 40
0.3774935019294957
 50
60.00000000002888
 51
119.9999999999711
  0
ARC
  5
23427
  8
01
 10
2828.296899178381
 20
-512.5920337829918
 30
0.0
 40
0.2880871462097787
 50
119.9999999999432
 51
179.9999999999717
  0
LINE
  5
23428
  8
01
 10
2828.008812032172
 20
-512.5920337829917
 30
0.0
 11
2828.008812032172
 21
-513.2853724088227
 31
0.0
  0
LINE
  5
23429
  8
01
 10
2828.008812032172
 20
-513.2853724088227
 30
0.0
 11
2828.167756664564
 21
-513.2853724088227
 31
0.0
  0
LINE
  5
2342A
  8
01
 10
2827.905829155769
 20
-513.3115210084155
 30
0.0
 11
2827.905829155769
 21
-512.318117055969
 31
0.0
  0
LINE
  5
2342B
  8
01
 10
2827.905829155769
 20
-512.318117055969
 30
0.0
 11
2827.748981709499
 21
-512.318117055969
 31
0.0
  0
LINE
  5
2342C
  8
01
 10
2827.748981709499
 20
-512.318117055969
 30
0.0
 11
2827.748981709499
 21
-512.9077354152109
 31
0.0
  0
LINE
  5
2342D
  8
01
 10
2827.748981709499
 20
-512.9077354152109
 30
0.0
 11
2827.199960458447
 21
-512.2919684563763
 31
0.0
  0
LINE
  5
2342E
  8
01
 10
2827.199960458447
 20
-512.2919684563763
 30
0.0
 11
2827.199960458447
 21
-513.2853724088227
 31
0.0
  0
LINE
  5
2342F
  8
01
 10
2827.199960458447
 20
-513.2853724088227
 30
0.0
 11
2827.356807904716
 21
-513.2853724088227
 31
0.0
  0
LINE
  5
23430
  8
01
 10
2827.356807904716
 20
-513.2853724088227
 30
0.0
 11
2827.356807904716
 21
-512.6957430117591
 31
0.0
  0
LINE
  5
23431
  8
01
 10
2827.356807904716
 20
-512.6957430117591
 30
0.0
 11
2827.905829155769
 21
-513.3115099705938
 31
0.0
  0
LINE
  5
23432
  8
01
 10
2829.657089945714
 20
-512.7233154903502
 30
0.0
 11
2829.474524374899
 21
-512.7233154903502
 31
0.0
  0
LINE
  5
23433
  8
01
 10
2829.474524374899
 20
-512.7233154903502
 30
0.0
 11
2829.565807160307
 21
-512.9274158512912
 31
0.0
  0
LINE
  5
23434
  8
01
 10
2829.565807160307
 20
-512.9274158512912
 30
0.0
 11
2829.657089945714
 21
-512.7233154903502
 31
0.0
  0
LINE
  5
23435
  8
01
 10
2831.147416630818
 20
-512.9274158512912
 30
0.0
 11
2831.238699416226
 21
-512.7233154903502
 31
0.0
  0
LINE
  5
23436
  8
01
 10
2831.238699416226
 20
-512.7233154903502
 30
0.0
 11
2831.056133845411
 21
-512.7233154903502
 31
0.0
  0
LINE
  5
23437
  8
01
 10
2831.056133845411
 20
-512.7233154903502
 30
0.0
 11
2831.147416630818
 21
-512.9274158512912
 31
0.0
  0
LINE
  5
23438
  8
01
 10
2829.838441356144
 20
-512.3181060181472
 30
0.0
 11
2829.72144044619
 21
-512.5795368249661
 31
0.0
  0
LINE
  5
23439
  8
01
 10
2829.72144044619
 20
-512.5795368249661
 30
0.0
 11
2829.410173874423
 21
-512.5795368249661
 31
0.0
  0
LINE
  5
2343A
  8
01
 10
2831.657253614857
 20
-512.3181060181472
 30
0.0
 11
2832.01013277441
 21
-512.8409565939633
 31
0.0
  0
LINE
  5
2343B
  8
01
 10
2832.01013277441
 20
-512.8409565939633
 30
0.0
 11
2831.657253614857
 21
-513.2853724088227
 31
0.0
  0
LINE
  5
2343C
  8
01
 10
2831.657253614857
 20
-513.2853724088227
 30
0.0
 11
2831.456917151113
 21
-513.2853724088227
 31
0.0
  0
LINE
  5
2343D
  8
01
 10
2831.456917151113
 20
-513.2853724088227
 30
0.0
 11
2831.815756734382
 21
-512.8334287995681
 31
0.0
  0
LINE
  5
2343E
  8
01
 10
2831.815756734382
 20
-512.8334287995681
 30
0.0
 11
2831.542460269242
 21
-512.4284952729076
 31
0.0
  0
LINE
  5
2343F
  8
01
 10
2831.542460269242
 20
-512.4284952729076
 30
0.0
 11
2831.147416630818
 21
-513.3115210084155
 31
0.0
  0
LINE
  5
23440
  8
01
 10
2832.01013277441
 20
-512.318117055969
 30
0.0
 11
2832.166980220679
 21
-512.318117055969
 31
0.0
  0
LINE
  5
23441
  8
01
 10
2832.166980220679
 20
-512.318117055969
 30
0.0
 11
2832.166980220679
 21
-513.2853724088227
 31
0.0
  0
LINE
  5
23442
  8
01
 10
2832.166980220679
 20
-513.2853724088227
 30
0.0
 11
2832.01013277441
 21
-513.2853724088227
 31
0.0
  0
LINE
  5
23443
  8
01
 10
2832.01013277441
 20
-513.2853724088227
 30
0.0
 11
2832.01013277441
 21
-512.318117055969
 31
0.0
  0
LINE
  5
23444
  8
01
 10
2831.420050826658
 20
-512.3181060181472
 30
0.0
 11
2831.303049916702
 21
-512.5795368249661
 31
0.0
  0
LINE
  5
23445
  8
01
 10
2831.303049916702
 20
-512.5795368249661
 30
0.0
 11
2830.991783344935
 21
-512.5795368249661
 31
0.0
  0
LINE
  5
23446
  8
01
 10
2830.991783344935
 20
-512.5795368249661
 30
0.0
 11
2830.874892813196
 21
-512.3181060181472
 31
0.0
  0
TEXT
  5
23447
  8
01
  6
CONTINUOUS
 10
2895.031095247028
 20
-606.336628009879
 30
0.0
 40
3.5
  1
PB
  0
TEXT
  5
23448
  8
01
  6
CONTINUOUS
 10
2908.166513392193
 20
-600.4984335654345
 30
0.0
 40
3.5
  1
Plywood 9mm
  0
TEXT
  5
23449
  8
01
  6
CONTINUOUS
 10
2908.166513392193
 20
-606.3317668987679
 30
0.0
 40
3.5
  1
and above
  0
LINE
  5
23489
  8
0
 10
2609.502819362759
 20
-491.4554103038423
 30
0.0
 11
2604.502819362759
 21
-490.4554103038423
 31
0.0
  0
LINE
  5
2348A
  8
1CENTER
 10
2607.002819362759
 20
-466.12692265934
 30
0.0
 11
2607.002819362759
 21
-512.5562286400341
 31
0.0
  0
LINE
  5
2348C
  8
0
 10
2609.319086303794
 20
-473.4186636920494
 30
0.0
 11
2608.569086303794
 21
-473.5686636920494
 31
0.0
  0
LINE
  5
2348D
  8
0
 10
2609.319086303794
 20
-473.4186636920494
 30
0.0
 11
2604.922181822704
 21
-472.5392827958312
 31
0.0
  0
LINE
  5
2348E
  8
0
 10
2606.689462675815
 20
-468.5927389664535
 30
0.0
 11
2605.939462675815
 21
-468.7427389664535
 31
0.0
  0
LINE
  5
2348F
  8
0
 10
2608.186599763276
 20
-469.1921663839457
 30
0.0
 11
2607.436599763276
 21
-469.3421663839457
 31
0.0
  0
LINE
  5
23490
  8
0
 10
2608.186599763276
 20
-469.1921663839457
 30
0.0
 11
2605.939462675815
 21
-468.7427389664535
 31
0.0
  0
LINE
  5
23491
  8
0
 10
2605.672181822704
 20
-472.3892827958313
 30
0.0
 11
2604.922181822704
 21
-472.5392827958312
 31
0.0
  0
LINE
  5
23492
  8
0
 10
2606.18082224926
 20
-470.4910108811424
 30
0.0
 11
2605.43082224926
 21
-470.6410108811424
 31
0.0
  0
LINE
  5
23493
  8
0
 10
2608.752843033535
 20
-471.3054150379976
 30
0.0
 11
2608.002843033535
 21
-471.4554150379976
 31
0.0
  0
LINE
  5
23494
  8
0
 10
2608.752843033535
 20
-471.3054150379976
 30
0.0
 11
2605.43082224926
 21
-470.6410108811424
 31
0.0
  0
LINE
  5
23495
  8
0
 10
2605.252819362759
 20
-482.3054103038422
 30
0.0
 11
2604.502819362759
 21
-482.4554103038423
 31
0.0
  0
LINE
  5
23496
  8
0
 10
2609.502819362759
 20
-479.4554103038423
 30
0.0
 11
2608.752819362759
 21
-479.6054103038423
 31
0.0
  0
LINE
  5
23497
  8
0
 10
2609.502819362759
 20
-481.4554103038423
 30
0.0
 11
2608.752819362759
 21
-481.6054103038423
 31
0.0
  0
LINE
  5
23498
  8
0
 10
2609.502819362759
 20
-481.4554103038423
 30
0.0
 11
2604.502819362759
 21
-480.4554103038423
 31
0.0
  0
LINE
  5
23499
  8
0
 10
2609.502819362759
 20
-477.4554103038423
 30
0.0
 11
2608.752819362759
 21
-477.6054103038423
 31
0.0
  0
LINE
  5
2349A
  8
0
 10
2609.502819362759
 20
-475.4554103038423
 30
0.0
 11
2608.752819362759
 21
-475.6054103038423
 31
0.0
  0
LINE
  5
2349B
  8
0
 10
2609.502819362759
 20
-475.4554103038423
 30
0.0
 11
2604.502819362759
 21
-474.4554103038423
 31
0.0
  0
LINE
  5
2349C
  8
0
 10
2609.502819362759
 20
-477.4554103038423
 30
0.0
 11
2604.502819362759
 21
-476.4554103038423
 31
0.0
  0
LINE
  5
2349D
  8
0
 10
2609.502819362759
 20
-479.4554103038423
 30
0.0
 11
2604.502819362759
 21
-478.4554103038423
 31
0.0
  0
LINE
  5
2349E
  8
0
 10
2605.252819362759
 20
-474.3054103038422
 30
0.0
 11
2604.502819362759
 21
-474.4554103038423
 31
0.0
  0
LINE
  5
2349F
  8
0
 10
2605.252819362759
 20
-476.3054103038422
 30
0.0
 11
2604.502819362759
 21
-476.4554103038423
 31
0.0
  0
LINE
  5
234A0
  8
0
 10
2605.252819362759
 20
-480.3054103038422
 30
0.0
 11
2604.502819362759
 21
-480.4554103038423
 31
0.0
  0
LINE
  5
234A1
  8
0
 10
2605.252819362759
 20
-478.3054103038422
 30
0.0
 11
2604.502819362759
 21
-478.4554103038423
 31
0.0
  0
LINE
  5
234A2
  8
0
 10
2609.502819362759
 20
-485.4554103038423
 30
0.0
 11
2608.752819362759
 21
-485.6054103038423
 31
0.0
  0
LINE
  5
234A3
  8
0
 10
2609.502819362759
 20
-483.4554103038423
 30
0.0
 11
2608.752819362759
 21
-483.6054103038423
 31
0.0
  0
LINE
  5
234A4
  8
0
 10
2609.502819362759
 20
-489.4554103038423
 30
0.0
 11
2608.752819362759
 21
-489.6054103038423
 31
0.0
  0
LINE
  5
234A5
  8
0
 10
2609.502819362759
 20
-487.4554103038423
 30
0.0
 11
2608.752819362759
 21
-487.6054103038423
 31
0.0
  0
LINE
  5
234A6
  8
0
 10
2609.502819362759
 20
-483.4554103038423
 30
0.0
 11
2604.502819362759
 21
-482.4554103038423
 31
0.0
  0
LINE
  5
234A7
  8
0
 10
2609.502819362759
 20
-485.4554103038423
 30
0.0
 11
2604.502819362759
 21
-484.4554103038423
 31
0.0
  0
LINE
  5
234A8
  8
0
 10
2609.502819362759
 20
-487.4554103038423
 30
0.0
 11
2604.502819362759
 21
-486.4554103038423
 31
0.0
  0
LINE
  5
234A9
  8
0
 10
2609.502819362759
 20
-489.4554103038423
 30
0.0
 11
2604.502819362759
 21
-488.4554103038423
 31
0.0
  0
LINE
  5
234AA
  8
0
 10
2605.252819362759
 20
-486.3054103038422
 30
0.0
 11
2604.502819362759
 21
-486.4554103038423
 31
0.0
  0
LINE
  5
234AB
  8
0
 10
2605.252819362759
 20
-484.3054103038422
 30
0.0
 11
2604.502819362759
 21
-484.4554103038423
 31
0.0
  0
LINE
  5
234AC
  8
0
 10
2605.252819362759
 20
-490.3054103038422
 30
0.0
 11
2604.502819362759
 21
-490.4554103038423
 31
0.0
  0
LINE
  5
234AD
  8
0
 10
2605.252819362759
 20
-488.3054103038422
 30
0.0
 11
2604.502819362759
 21
-488.4554103038423
 31
0.0
  0
LINE
  5
234AE
  8
0
 10
2609.502819362759
 20
-507.4554103038423
 30
0.0
 11
2604.502819362759
 21
-506.4554103038423
 31
0.0
  0
LINE
  5
234AF
  8
0
 10
2609.502819362759
 20
-499.4554103038423
 30
0.0
 11
2604.502819362759
 21
-498.4554103038423
 31
0.0
  0
LINE
  5
234B0
  8
0
 10
2609.502819362759
 20
-491.4554103038423
 30
0.0
 11
2608.752819362759
 21
-491.6054103038423
 31
0.0
  0
LINE
  5
234B1
  8
0
 10
2609.502819362759
 20
-493.4554103038423
 30
0.0
 11
2608.752819362759
 21
-493.6054103038423
 31
0.0
  0
LINE
  5
234B2
  8
0
 10
2609.502819362759
 20
-495.4554103038423
 30
0.0
 11
2608.752819362759
 21
-495.6054103038423
 31
0.0
  0
LINE
  5
234B3
  8
0
 10
2609.502819362759
 20
-497.4554103038423
 30
0.0
 11
2608.752819362759
 21
-497.6054103038423
 31
0.0
  0
LINE
  5
234B4
  8
0
 10
2609.502819362759
 20
-493.4554103038423
 30
0.0
 11
2604.502819362759
 21
-492.4554103038423
 31
0.0
  0
LINE
  5
234B5
  8
0
 10
2609.502819362759
 20
-495.4554103038423
 30
0.0
 11
2604.502819362759
 21
-494.4554103038423
 31
0.0
  0
LINE
  5
234B6
  8
0
 10
2609.502819362759
 20
-497.4554103038423
 30
0.0
 11
2604.502819362759
 21
-496.4554103038423
 31
0.0
  0
LINE
  5
234B7
  8
0
 10
2605.252819362759
 20
-492.3054103038422
 30
0.0
 11
2604.502819362759
 21
-492.4554103038423
 31
0.0
  0
LINE
  5
234B8
  8
0
 10
2605.252819362759
 20
-494.3054103038422
 30
0.0
 11
2604.502819362759
 21
-494.4554103038423
 31
0.0
  0
LINE
  5
234B9
  8
0
 10
2605.252819362759
 20
-496.3054103038422
 30
0.0
 11
2604.502819362759
 21
-496.4554103038423
 31
0.0
  0
LINE
  5
234BA
  8
0
 10
2605.252819362759
 20
-498.3054103038422
 30
0.0
 11
2604.502819362759
 21
-498.4554103038423
 31
0.0
  0
LINE
  5
234BB
  8
0
 10
2609.502819362759
 20
-503.4554103038423
 30
0.0
 11
2608.752819362759
 21
-503.6054103038423
 31
0.0
  0
LINE
  5
234BC
  8
0
 10
2609.502819362759
 20
-501.4554103038423
 30
0.0
 11
2608.752819362759
 21
-501.6054103038423
 31
0.0
  0
LINE
  5
234BD
  8
0
 10
2609.502819362759
 20
-499.4554103038423
 30
0.0
 11
2608.752819362759
 21
-499.6054103038423
 31
0.0
  0
LINE
  5
234BE
  8
0
 10
2609.502819362759
 20
-505.4554103038423
 30
0.0
 11
2608.752819362759
 21
-505.6054103038423
 31
0.0
  0
LINE
  5
234BF
  8
0
 10
2609.502819362759
 20
-501.4554103038423
 30
0.0
 11
2604.502819362759
 21
-500.4554103038423
 31
0.0
  0
LINE
  5
234C0
  8
0
 10
2609.502819362759
 20
-503.4554103038423
 30
0.0
 11
2604.502819362759
 21
-502.4554103038423
 31
0.0
  0
LINE
  5
234C1
  8
0
 10
2609.502819362759
 20
-505.4554103038423
 30
0.0
 11
2604.502819362759
 21
-504.4554103038423
 31
0.0
  0
LINE
  5
234C2
  8
0
 10
2605.252819362759
 20
-502.3054103038422
 30
0.0
 11
2604.502819362759
 21
-502.4554103038423
 31
0.0
  0
LINE
  5
234C3
  8
0
 10
2605.252819362759
 20
-500.3054103038422
 30
0.0
 11
2604.502819362759
 21
-500.4554103038423
 31
0.0
  0
LINE
  5
234C4
  8
0
 10
2605.252819362759
 20
-504.3054103038422
 30
0.0
 11
2604.502819362759
 21
-504.4554103038423
 31
0.0
  0
LINE
  5
234C5
  8
0
 10
2605.252819362759
 20
-506.3054103038422
 30
0.0
 11
2604.502819362759
 21
-506.4554103038423
 31
0.0
  0
LINE
  5
234C6
  8
0
 10
2609.502819362759
 20
-507.4554103038423
 30
0.0
 11
2608.752819362759
 21
-507.6054103038423
 31
0.0
  0
LINE
  5
234C7
  8
0
 10
2605.252819362759
 20
-507.5732758898881
 30
0.0
 11
2608.752819362759
 21
-507.5732758898881
 31
0.0
  0
LINE
  5
23507
  8
0
 10
2544.502819362762
 20
-491.4554103038423
 30
0.0
 11
2539.502819362762
 21
-490.4554103038423
 31
0.0
  0
LINE
  5
23508
  8
1CENTER
 10
2542.002819362762
 20
-466.12692265934
 30
0.0
 11
2542.002819362762
 21
-512.5562286400341
 31
0.0
  0
LINE
  5
2350A
  8
0
 10
2544.319086303798
 20
-473.4186636920494
 30
0.0
 11
2543.569086303798
 21
-473.5686636920494
 31
0.0
  0
LINE
  5
2350B
  8
0
 10
2544.319086303798
 20
-473.4186636920494
 30
0.0
 11
2539.922181822707
 21
-472.5392827958312
 31
0.0
  0
LINE
  5
2350C
  8
0
 10
2541.689462675819
 20
-468.5927389664535
 30
0.0
 11
2540.939462675819
 21
-468.7427389664535
 31
0.0
  0
LINE
  5
2350D
  8
0
 10
2543.186599763279
 20
-469.1921663839457
 30
0.0
 11
2542.436599763279
 21
-469.3421663839457
 31
0.0
  0
LINE
  5
2350E
  8
0
 10
2543.186599763279
 20
-469.1921663839457
 30
0.0
 11
2540.939462675819
 21
-468.7427389664535
 31
0.0
  0
LINE
  5
2350F
  8
0
 10
2540.672181822707
 20
-472.3892827958313
 30
0.0
 11
2539.922181822707
 21
-472.5392827958312
 31
0.0
  0
LINE
  5
23510
  8
0
 10
2541.180822249263
 20
-470.4910108811424
 30
0.0
 11
2540.430822249263
 21
-470.6410108811424
 31
0.0
  0
LINE
  5
23511
  8
0
 10
2543.752843033539
 20
-471.3054150379976
 30
0.0
 11
2543.002843033539
 21
-471.4554150379976
 31
0.0
  0
LINE
  5
23512
  8
0
 10
2543.752843033539
 20
-471.3054150379976
 30
0.0
 11
2540.430822249263
 21
-470.6410108811424
 31
0.0
  0
LINE
  5
23513
  8
0
 10
2540.252819362762
 20
-482.3054103038422
 30
0.0
 11
2539.502819362762
 21
-482.4554103038423
 31
0.0
  0
LINE
  5
23514
  8
0
 10
2544.502819362762
 20
-479.4554103038423
 30
0.0
 11
2543.752819362762
 21
-479.6054103038423
 31
0.0
  0
LINE
  5
23515
  8
0
 10
2544.502819362762
 20
-481.4554103038423
 30
0.0
 11
2543.752819362762
 21
-481.6054103038423
 31
0.0
  0
LINE
  5
23516
  8
0
 10
2544.502819362762
 20
-481.4554103038423
 30
0.0
 11
2539.502819362762
 21
-480.4554103038423
 31
0.0
  0
LINE
  5
23517
  8
0
 10
2544.502819362762
 20
-477.4554103038423
 30
0.0
 11
2543.752819362762
 21
-477.6054103038423
 31
0.0
  0
LINE
  5
23518
  8
0
 10
2544.502819362762
 20
-475.4554103038423
 30
0.0
 11
2543.752819362762
 21
-475.6054103038423
 31
0.0
  0
LINE
  5
23519
  8
0
 10
2544.502819362762
 20
-475.4554103038423
 30
0.0
 11
2539.502819362762
 21
-474.4554103038423
 31
0.0
  0
LINE
  5
2351A
  8
0
 10
2544.502819362762
 20
-477.4554103038423
 30
0.0
 11
2539.502819362762
 21
-476.4554103038423
 31
0.0
  0
LINE
  5
2351B
  8
0
 10
2544.502819362762
 20
-479.4554103038423
 30
0.0
 11
2539.502819362762
 21
-478.4554103038423
 31
0.0
  0
LINE
  5
2351C
  8
0
 10
2540.252819362762
 20
-474.3054103038422
 30
0.0
 11
2539.502819362762
 21
-474.4554103038423
 31
0.0
  0
LINE
  5
2351D
  8
0
 10
2540.252819362762
 20
-476.3054103038422
 30
0.0
 11
2539.502819362762
 21
-476.4554103038423
 31
0.0
  0
LINE
  5
2351E
  8
0
 10
2540.252819362762
 20
-480.3054103038422
 30
0.0
 11
2539.502819362762
 21
-480.4554103038423
 31
0.0
  0
LINE
  5
2351F
  8
0
 10
2540.252819362762
 20
-478.3054103038422
 30
0.0
 11
2539.502819362762
 21
-478.4554103038423
 31
0.0
  0
LINE
  5
23520
  8
0
 10
2544.502819362762
 20
-485.4554103038423
 30
0.0
 11
2543.752819362762
 21
-485.6054103038423
 31
0.0
  0
LINE
  5
23521
  8
0
 10
2544.502819362762
 20
-483.4554103038423
 30
0.0
 11
2543.752819362762
 21
-483.6054103038423
 31
0.0
  0
LINE
  5
23522
  8
0
 10
2544.502819362762
 20
-489.4554103038423
 30
0.0
 11
2543.752819362762
 21
-489.6054103038423
 31
0.0
  0
LINE
  5
23523
  8
0
 10
2544.502819362762
 20
-487.4554103038423
 30
0.0
 11
2543.752819362762
 21
-487.6054103038423
 31
0.0
  0
LINE
  5
23524
  8
0
 10
2544.502819362762
 20
-483.4554103038423
 30
0.0
 11
2539.502819362762
 21
-482.4554103038423
 31
0.0
  0
LINE
  5
23525
  8
0
 10
2544.502819362762
 20
-485.4554103038423
 30
0.0
 11
2539.502819362762
 21
-484.4554103038423
 31
0.0
  0
LINE
  5
23526
  8
0
 10
2544.502819362762
 20
-487.4554103038423
 30
0.0
 11
2539.502819362762
 21
-486.4554103038423
 31
0.0
  0
LINE
  5
23527
  8
0
 10
2544.502819362762
 20
-489.4554103038423
 30
0.0
 11
2539.502819362762
 21
-488.4554103038423
 31
0.0
  0
LINE
  5
23528
  8
0
 10
2540.252819362762
 20
-486.3054103038422
 30
0.0
 11
2539.502819362762
 21
-486.4554103038423
 31
0.0
  0
LINE
  5
23529
  8
0
 10
2540.252819362762
 20
-484.3054103038422
 30
0.0
 11
2539.502819362762
 21
-484.4554103038423
 31
0.0
  0
LINE
  5
2352A
  8
0
 10
2540.252819362762
 20
-490.3054103038422
 30
0.0
 11
2539.502819362762
 21
-490.4554103038423
 31
0.0
  0
LINE
  5
2352B
  8
0
 10
2540.252819362762
 20
-488.3054103038422
 30
0.0
 11
2539.502819362762
 21
-488.4554103038423
 31
0.0
  0
LINE
  5
2352C
  8
0
 10
2544.502819362762
 20
-507.4554103038423
 30
0.0
 11
2539.502819362762
 21
-506.4554103038423
 31
0.0
  0
LINE
  5
2352D
  8
0
 10
2544.502819362762
 20
-499.4554103038423
 30
0.0
 11
2539.502819362762
 21
-498.4554103038423
 31
0.0
  0
LINE
  5
2352E
  8
0
 10
2544.502819362762
 20
-491.4554103038423
 30
0.0
 11
2543.752819362762
 21
-491.6054103038423
 31
0.0
  0
LINE
  5
2352F
  8
0
 10
2544.502819362762
 20
-493.4554103038423
 30
0.0
 11
2543.752819362762
 21
-493.6054103038423
 31
0.0
  0
LINE
  5
23530
  8
0
 10
2544.502819362762
 20
-495.4554103038423
 30
0.0
 11
2543.752819362762
 21
-495.6054103038423
 31
0.0
  0
LINE
  5
23531
  8
0
 10
2544.502819362762
 20
-497.4554103038423
 30
0.0
 11
2543.752819362762
 21
-497.6054103038423
 31
0.0
  0
LINE
  5
23532
  8
0
 10
2544.502819362762
 20
-493.4554103038423
 30
0.0
 11
2539.502819362762
 21
-492.4554103038423
 31
0.0
  0
LINE
  5
23533
  8
0
 10
2544.502819362762
 20
-495.4554103038423
 30
0.0
 11
2539.502819362762
 21
-494.4554103038423
 31
0.0
  0
LINE
  5
23534
  8
0
 10
2544.502819362762
 20
-497.4554103038423
 30
0.0
 11
2539.502819362762
 21
-496.4554103038423
 31
0.0
  0
LINE
  5
23535
  8
0
 10
2540.252819362762
 20
-492.3054103038422
 30
0.0
 11
2539.502819362762
 21
-492.4554103038423
 31
0.0
  0
LINE
  5
23536
  8
0
 10
2540.252819362762
 20
-494.3054103038422
 30
0.0
 11
2539.502819362762
 21
-494.4554103038423
 31
0.0
  0
LINE
  5
23537
  8
0
 10
2540.252819362762
 20
-496.3054103038422
 30
0.0
 11
2539.502819362762
 21
-496.4554103038423
 31
0.0
  0
LINE
  5
23538
  8
0
 10
2540.252819362762
 20
-498.3054103038422
 30
0.0
 11
2539.502819362762
 21
-498.4554103038423
 31
0.0
  0
LINE
  5
23539
  8
0
 10
2544.502819362762
 20
-503.4554103038423
 30
0.0
 11
2543.752819362762
 21
-503.6054103038423
 31
0.0
  0
LINE
  5
2353A
  8
0
 10
2544.502819362762
 20
-501.4554103038423
 30
0.0
 11
2543.752819362762
 21
-501.6054103038423
 31
0.0
  0
LINE
  5
2353B
  8
0
 10
2544.502819362762
 20
-499.4554103038423
 30
0.0
 11
2543.752819362762
 21
-499.6054103038423
 31
0.0
  0
LINE
  5
2353C
  8
0
 10
2544.502819362762
 20
-505.4554103038423
 30
0.0
 11
2543.752819362762
 21
-505.6054103038423
 31
0.0
  0
LINE
  5
2353D
  8
0
 10
2544.502819362762
 20
-501.4554103038423
 30
0.0
 11
2539.502819362762
 21
-500.4554103038423
 31
0.0
  0
LINE
  5
2353E
  8
0
 10
2544.502819362762
 20
-503.4554103038423
 30
0.0
 11
2539.502819362762
 21
-502.4554103038423
 31
0.0
  0
LINE
  5
2353F
  8
0
 10
2544.502819362762
 20
-505.4554103038423
 30
0.0
 11
2539.502819362762
 21
-504.4554103038423
 31
0.0
  0
LINE
  5
23540
  8
0
 10
2540.252819362762
 20
-502.3054103038422
 30
0.0
 11
2539.502819362762
 21
-502.4554103038423
 31
0.0
  0
LINE
  5
23541
  8
0
 10
2540.252819362762
 20
-500.3054103038422
 30
0.0
 11
2539.502819362762
 21
-500.4554103038423
 31
0.0
  0
LINE
  5
23542
  8
0
 10
2540.252819362762
 20
-504.3054103038422
 30
0.0
 11
2539.502819362762
 21
-504.4554103038423
 31
0.0
  0
LINE
  5
23543
  8
0
 10
2540.252819362762
 20
-506.3054103038422
 30
0.0
 11
2539.502819362762
 21
-506.4554103038423
 31
0.0
  0
LINE
  5
23544
  8
0
 10
2544.502819362762
 20
-507.4554103038423
 30
0.0
 11
2543.752819362762
 21
-507.6054103038423
 31
0.0
  0
LINE
  5
23545
  8
0
 10
2540.252819362762
 20
-507.5732758898881
 30
0.0
 11
2543.752819362762
 21
-507.5732758898881
 31
0.0
  0
LINE
  5
23546
  8
0
 10
2669.502819362755
 20
-491.4554103038423
 30
0.0
 11
2674.502819362755
 21
-490.4554103038423
 31
0.0
  0
LINE
  5
23547
  8
1CENTER
 10
2672.002819362755
 20
-466.12692265934
 30
0.0
 11
2672.002819362755
 21
-512.5562286400341
 31
0.0
  0
LINE
  5
23549
  8
0
 10
2669.686552421719
 20
-473.4186636920494
 30
0.0
 11
2670.436552421719
 21
-473.5686636920494
 31
0.0
  0
LINE
  5
2354A
  8
0
 10
2669.686552421719
 20
-473.4186636920494
 30
0.0
 11
2674.08345690281
 21
-472.5392827958312
 31
0.0
  0
LINE
  5
2354B
  8
0
 10
2672.316176049699
 20
-468.5927389664535
 30
0.0
 11
2673.066176049699
 21
-468.7427389664535
 31
0.0
  0
LINE
  5
2354C
  8
0
 10
2670.819038962238
 20
-469.1921663839457
 30
0.0
 11
2671.569038962238
 21
-469.3421663839457
 31
0.0
  0
LINE
  5
2354D
  8
0
 10
2670.819038962238
 20
-469.1921663839457
 30
0.0
 11
2673.066176049699
 21
-468.7427389664535
 31
0.0
  0
LINE
  5
2354E
  8
0
 10
2673.33345690281
 20
-472.3892827958313
 30
0.0
 11
2674.08345690281
 21
-472.5392827958312
 31
0.0
  0
LINE
  5
2354F
  8
0
 10
2672.824816476254
 20
-470.4910108811424
 30
0.0
 11
2673.574816476254
 21
-470.6410108811424
 31
0.0
  0
LINE
  5
23550
  8
0
 10
2670.252795691978
 20
-471.3054150379976
 30
0.0
 11
2671.002795691978
 21
-471.4554150379976
 31
0.0
  0
LINE
  5
23551
  8
0
 10
2670.252795691978
 20
-471.3054150379976
 30
0.0
 11
2673.574816476254
 21
-470.6410108811424
 31
0.0
  0
LINE
  5
23552
  8
0
 10
2673.752819362755
 20
-482.3054103038422
 30
0.0
 11
2674.502819362755
 21
-482.4554103038423
 31
0.0
  0
LINE
  5
23553
  8
0
 10
2669.502819362755
 20
-479.4554103038423
 30
0.0
 11
2670.252819362755
 21
-479.6054103038423
 31
0.0
  0
LINE
  5
23554
  8
0
 10
2669.502819362755
 20
-481.4554103038423
 30
0.0
 11
2670.252819362755
 21
-481.6054103038423
 31
0.0
  0
LINE
  5
23555
  8
0
 10
2669.502819362755
 20
-481.4554103038423
 30
0.0
 11
2674.502819362755
 21
-480.4554103038423
 31
0.0
  0
LINE
  5
23556
  8
0
 10
2669.502819362755
 20
-477.4554103038423
 30
0.0
 11
2670.252819362755
 21
-477.6054103038423
 31
0.0
  0
LINE
  5
23557
  8
0
 10
2669.502819362755
 20
-475.4554103038423
 30
0.0
 11
2670.252819362755
 21
-475.6054103038423
 31
0.0
  0
LINE
  5
23558
  8
0
 10
2669.502819362755
 20
-475.4554103038423
 30
0.0
 11
2674.502819362755
 21
-474.4554103038423
 31
0.0
  0
LINE
  5
23559
  8
0
 10
2669.502819362755
 20
-477.4554103038423
 30
0.0
 11
2674.502819362755
 21
-476.4554103038423
 31
0.0
  0
LINE
  5
2355A
  8
0
 10
2669.502819362755
 20
-479.4554103038423
 30
0.0
 11
2674.502819362755
 21
-478.4554103038423
 31
0.0
  0
LINE
  5
2355B
  8
0
 10
2673.752819362755
 20
-474.3054103038422
 30
0.0
 11
2674.502819362755
 21
-474.4554103038423
 31
0.0
  0
LINE
  5
2355C
  8
0
 10
2673.752819362755
 20
-476.3054103038422
 30
0.0
 11
2674.502819362755
 21
-476.4554103038423
 31
0.0
  0
LINE
  5
2355D
  8
0
 10
2673.752819362755
 20
-480.3054103038422
 30
0.0
 11
2674.502819362755
 21
-480.4554103038423
 31
0.0
  0
LINE
  5
2355E
  8
0
 10
2673.752819362755
 20
-478.3054103038422
 30
0.0
 11
2674.502819362755
 21
-478.4554103038423
 31
0.0
  0
LINE
  5
2355F
  8
0
 10
2669.502819362755
 20
-485.4554103038423
 30
0.0
 11
2670.252819362755
 21
-485.6054103038423
 31
0.0
  0
LINE
  5
23560
  8
0
 10
2669.502819362755
 20
-483.4554103038423
 30
0.0
 11
2670.252819362755
 21
-483.6054103038423
 31
0.0
  0
LINE
  5
23561
  8
0
 10
2669.502819362755
 20
-489.4554103038423
 30
0.0
 11
2670.252819362755
 21
-489.6054103038423
 31
0.0
  0
LINE
  5
23562
  8
0
 10
2669.502819362755
 20
-487.4554103038423
 30
0.0
 11
2670.252819362755
 21
-487.6054103038423
 31
0.0
  0
LINE
  5
23563
  8
0
 10
2669.502819362755
 20
-483.4554103038423
 30
0.0
 11
2674.502819362755
 21
-482.4554103038423
 31
0.0
  0
LINE
  5
23564
  8
0
 10
2669.502819362755
 20
-485.4554103038423
 30
0.0
 11
2674.502819362755
 21
-484.4554103038423
 31
0.0
  0
LINE
  5
23565
  8
0
 10
2669.502819362755
 20
-487.4554103038423
 30
0.0
 11
2674.502819362755
 21
-486.4554103038423
 31
0.0
  0
LINE
  5
23566
  8
0
 10
2669.502819362755
 20
-489.4554103038423
 30
0.0
 11
2674.502819362755
 21
-488.4554103038423
 31
0.0
  0
LINE
  5
23567
  8
0
 10
2673.752819362755
 20
-486.3054103038422
 30
0.0
 11
2674.502819362755
 21
-486.4554103038423
 31
0.0
  0
LINE
  5
23568
  8
0
 10
2673.752819362755
 20
-484.3054103038422
 30
0.0
 11
2674.502819362755
 21
-484.4554103038423
 31
0.0
  0
LINE
  5
23569
  8
0
 10
2673.752819362755
 20
-490.3054103038422
 30
0.0
 11
2674.502819362755
 21
-490.4554103038423
 31
0.0
  0
LINE
  5
2356A
  8
0
 10
2673.752819362755
 20
-488.3054103038422
 30
0.0
 11
2674.502819362755
 21
-488.4554103038423
 31
0.0
  0
LINE
  5
2356B
  8
0
 10
2669.502819362755
 20
-507.4554103038423
 30
0.0
 11
2674.502819362755
 21
-506.4554103038423
 31
0.0
  0
LINE
  5
2356C
  8
0
 10
2669.502819362755
 20
-499.4554103038423
 30
0.0
 11
2674.502819362755
 21
-498.4554103038423
 31
0.0
  0
LINE
  5
2356D
  8
0
 10
2669.502819362755
 20
-491.4554103038423
 30
0.0
 11
2670.252819362755
 21
-491.6054103038423
 31
0.0
  0
LINE
  5
2356E
  8
0
 10
2669.502819362755
 20
-493.4554103038423
 30
0.0
 11
2670.252819362755
 21
-493.6054103038423
 31
0.0
  0
LINE
  5
2356F
  8
0
 10
2669.502819362755
 20
-495.4554103038423
 30
0.0
 11
2670.252819362755
 21
-495.6054103038423
 31
0.0
  0
LINE
  5
23570
  8
0
 10
2669.502819362755
 20
-497.4554103038423
 30
0.0
 11
2670.252819362755
 21
-497.6054103038423
 31
0.0
  0
LINE
  5
23571
  8
0
 10
2669.502819362755
 20
-493.4554103038423
 30
0.0
 11
2674.502819362755
 21
-492.4554103038423
 31
0.0
  0
LINE
  5
23572
  8
0
 10
2669.502819362755
 20
-495.4554103038423
 30
0.0
 11
2674.502819362755
 21
-494.4554103038423
 31
0.0
  0
LINE
  5
23573
  8
0
 10
2669.502819362755
 20
-497.4554103038423
 30
0.0
 11
2674.502819362755
 21
-496.4554103038423
 31
0.0
  0
LINE
  5
23574
  8
0
 10
2673.752819362755
 20
-492.3054103038422
 30
0.0
 11
2674.502819362755
 21
-492.4554103038423
 31
0.0
  0
LINE
  5
23575
  8
0
 10
2673.752819362755
 20
-494.3054103038422
 30
0.0
 11
2674.502819362755
 21
-494.4554103038423
 31
0.0
  0
LINE
  5
23576
  8
0
 10
2673.752819362755
 20
-496.3054103038422
 30
0.0
 11
2674.502819362755
 21
-496.4554103038423
 31
0.0
  0
LINE
  5
23577
  8
0
 10
2673.752819362755
 20
-498.3054103038422
 30
0.0
 11
2674.502819362755
 21
-498.4554103038423
 31
0.0
  0
LINE
  5
23578
  8
0
 10
2669.502819362755
 20
-503.4554103038423
 30
0.0
 11
2670.252819362755
 21
-503.6054103038423
 31
0.0
  0
LINE
  5
23579
  8
0
 10
2669.502819362755
 20
-501.4554103038423
 30
0.0
 11
2670.252819362755
 21
-501.6054103038423
 31
0.0
  0
LINE
  5
2357A
  8
0
 10
2669.502819362755
 20
-499.4554103038423
 30
0.0
 11
2670.252819362755
 21
-499.6054103038423
 31
0.0
  0
LINE
  5
2357B
  8
0
 10
2669.502819362755
 20
-505.4554103038423
 30
0.0
 11
2670.252819362755
 21
-505.6054103038423
 31
0.0
  0
LINE
  5
2357C
  8
0
 10
2669.502819362755
 20
-501.4554103038423
 30
0.0
 11
2674.502819362755
 21
-500.4554103038423
 31
0.0
  0
LINE
  5
2357D
  8
0
 10
2669.502819362755
 20
-503.4554103038423
 30
0.0
 11
2674.502819362755
 21
-502.4554103038423
 31
0.0
  0
LINE
  5
2357E
  8
0
 10
2669.502819362755
 20
-505.4554103038423
 30
0.0
 11
2674.502819362755
 21
-504.4554103038423
 31
0.0
  0
LINE
  5
2357F
  8
0
 10
2673.752819362755
 20
-502.3054103038422
 30
0.0
 11
2674.502819362755
 21
-502.4554103038423
 31
0.0
  0
LINE
  5
23580
  8
0
 10
2673.752819362755
 20
-500.3054103038422
 30
0.0
 11
2674.502819362755
 21
-500.4554103038423
 31
0.0
  0
LINE
  5
23581
  8
0
 10
2673.752819362755
 20
-504.3054103038422
 30
0.0
 11
2674.502819362755
 21
-504.4554103038423
 31
0.0
  0
LINE
  5
23582
  8
0
 10
2673.752819362755
 20
-506.3054103038422
 30
0.0
 11
2674.502819362755
 21
-506.4554103038423
 31
0.0
  0
LINE
  5
23583
  8
0
 10
2669.502819362755
 20
-507.4554103038423
 30
0.0
 11
2670.252819362755
 21
-507.6054103038423
 31
0.0
  0
LINE
  5
23584
  8
0
 10
2673.752819362755
 20
-507.5732758898881
 30
0.0
 11
2670.252819362755
 21
-507.5732758898881
 31
0.0
  0
LINE
  5
23585
  8
0
 10
2899.111445322251
 20
-635.6758857444038
 30
0.0
 11
2900.111445322251
 21
-640.6758857444038
 31
0.0
  0
LINE
  5
23586
  8
1CENTER
 10
2924.439932966753
 20
-638.1758857444038
 30
0.0
 11
2878.010626986059
 21
-638.1758857444038
 31
0.0
  0
LINE
  5
23588
  8
0
 10
2917.148191934044
 20
-635.859618803368
 30
0.0
 11
2916.998191934043
 21
-636.609618803368
 31
0.0
  0
LINE
  5
23589
  8
0
 10
2917.148191934044
 20
-635.8596188033679
 30
0.0
 11
2918.027572830262
 21
-640.2565232844587
 31
0.0
  0
LINE
  5
2358A
  8
0
 10
2921.97411665964
 20
-638.4892424313475
 30
0.0
 11
2921.824116659639
 21
-639.2392424313475
 31
0.0
  0
LINE
  5
2358B
  8
0
 10
2921.374689242147
 20
-636.9921053438867
 30
0.0
 11
2921.224689242147
 21
-637.7421053438867
 31
0.0
  0
LINE
  5
2358C
  8
0
 10
2921.374689242147
 20
-636.9921053438867
 30
0.0
 11
2921.824116659639
 21
-639.2392424313475
 31
0.0
  0
LINE
  5
2358D
  8
0
 10
2918.177572830262
 20
-639.5065232844587
 30
0.0
 11
2918.027572830262
 21
-640.2565232844587
 31
0.0
  0
LINE
  5
2358E
  8
0
 10
2920.075844744951
 20
-638.997882857903
 30
0.0
 11
2919.925844744951
 21
-639.747882857903
 31
0.0
  0
LINE
  5
2358F
  8
0
 10
2919.261440588095
 20
-636.4258620736273
 30
0.0
 11
2919.111440588095
 21
-637.1758620736273
 31
0.0
  0
LINE
  5
23590
  8
0
 10
2919.261440588095
 20
-636.4258620736273
 30
0.0
 11
2919.925844744951
 21
-639.7478828579032
 31
0.0
  0
LINE
  5
23591
  8
0
 10
2908.261445322251
 20
-639.9258857444038
 30
0.0
 11
2908.111445322251
 21
-640.6758857444038
 31
0.0
  0
LINE
  5
23592
  8
0
 10
2911.111445322251
 20
-635.6758857444038
 30
0.0
 11
2910.961445322251
 21
-636.4258857444038
 31
0.0
  0
LINE
  5
23593
  8
0
 10
2909.111445322251
 20
-635.6758857444038
 30
0.0
 11
2908.961445322251
 21
-636.4258857444038
 31
0.0
  0
LINE
  5
23594
  8
0
 10
2909.111445322251
 20
-635.6758857444038
 30
0.0
 11
2910.111445322251
 21
-640.6758857444038
 31
0.0
  0
LINE
  5
23595
  8
0
 10
2913.111445322251
 20
-635.6758857444038
 30
0.0
 11
2912.961445322251
 21
-636.4258857444038
 31
0.0
  0
LINE
  5
23596
  8
0
 10
2915.111445322251
 20
-635.6758857444038
 30
0.0
 11
2914.961445322251
 21
-636.4258857444038
 31
0.0
  0
LINE
  5
23597
  8
0
 10
2915.111445322251
 20
-635.6758857444038
 30
0.0
 11
2916.111445322251
 21
-640.6758857444038
 31
0.0
  0
LINE
  5
23598
  8
0
 10
2913.111445322251
 20
-635.6758857444038
 30
0.0
 11
2914.111445322251
 21
-640.6758857444038
 31
0.0
  0
LINE
  5
23599
  8
0
 10
2911.111445322251
 20
-635.6758857444038
 30
0.0
 11
2912.111445322251
 21
-640.6758857444038
 31
0.0
  0
LINE
  5
2359A
  8
0
 10
2916.261445322251
 20
-639.9258857444038
 30
0.0
 11
2916.111445322251
 21
-640.6758857444038
 31
0.0
  0
LINE
  5
2359B
  8
0
 10
2914.261445322251
 20
-639.9258857444038
 30
0.0
 11
2914.111445322251
 21
-640.6758857444038
 31
0.0
  0
LINE
  5
2359C
  8
0
 10
2910.261445322251
 20
-639.9258857444038
 30
0.0
 11
2910.111445322251
 21
-640.6758857444038
 31
0.0
  0
LINE
  5
2359D
  8
0
 10
2912.261445322251
 20
-639.9258857444038
 30
0.0
 11
2912.111445322251
 21
-640.6758857444038
 31
0.0
  0
LINE
  5
2359E
  8
0
 10
2905.111445322251
 20
-635.6758857444038
 30
0.0
 11
2904.961445322251
 21
-636.4258857444038
 31
0.0
  0
LINE
  5
2359F
  8
0
 10
2907.111445322251
 20
-635.6758857444038
 30
0.0
 11
2906.961445322251
 21
-636.4258857444038
 31
0.0
  0
LINE
  5
235A0
  8
0
 10
2901.111445322251
 20
-635.6758857444038
 30
0.0
 11
2900.961445322251
 21
-636.4258857444038
 31
0.0
  0
LINE
  5
235A1
  8
0
 10
2903.111445322251
 20
-635.6758857444038
 30
0.0
 11
2902.961445322251
 21
-636.4258857444038
 31
0.0
  0
LINE
  5
235A2
  8
0
 10
2907.111445322251
 20
-635.6758857444038
 30
0.0
 11
2908.111445322251
 21
-640.6758857444038
 31
0.0
  0
LINE
  5
235A3
  8
0
 10
2905.111445322251
 20
-635.6758857444038
 30
0.0
 11
2906.111445322251
 21
-640.6758857444038
 31
0.0
  0
LINE
  5
235A4
  8
0
 10
2903.111445322251
 20
-635.6758857444038
 30
0.0
 11
2904.111445322251
 21
-640.6758857444038
 31
0.0
  0
LINE
  5
235A5
  8
0
 10
2901.111445322251
 20
-635.6758857444038
 30
0.0
 11
2902.111445322251
 21
-640.6758857444038
 31
0.0
  0
LINE
  5
235A6
  8
0
 10
2904.261445322251
 20
-639.9258857444038
 30
0.0
 11
2904.111445322251
 21
-640.6758857444038
 31
0.0
  0
LINE
  5
235A7
  8
0
 10
2906.261445322251
 20
-639.9258857444038
 30
0.0
 11
2906.111445322251
 21
-640.6758857444038
 31
0.0
  0
LINE
  5
235A8
  8
0
 10
2900.261445322251
 20
-639.9258857444038
 30
0.0
 11
2900.111445322251
 21
-640.6758857444038
 31
0.0
  0
LINE
  5
235A9
  8
0
 10
2902.261445322251
 20
-639.9258857444038
 30
0.0
 11
2902.111445322251
 21
-640.6758857444038
 31
0.0
  0
LINE
  5
235AA
  8
0
 10
2883.111445322251
 20
-635.6758857444038
 30
0.0
 11
2884.111445322251
 21
-640.6758857444038
 31
0.0
  0
LINE
  5
235AB
  8
0
 10
2891.111445322251
 20
-635.6758857444038
 30
0.0
 11
2892.111445322251
 21
-640.6758857444038
 31
0.0
  0
LINE
  5
235AC
  8
0
 10
2899.111445322251
 20
-635.6758857444038
 30
0.0
 11
2898.961445322251
 21
-636.4258857444038
 31
0.0
  0
LINE
  5
235AD
  8
0
 10
2897.111445322251
 20
-635.6758857444038
 30
0.0
 11
2896.961445322251
 21
-636.4258857444038
 31
0.0
  0
LINE
  5
235AE
  8
0
 10
2895.111445322251
 20
-635.6758857444038
 30
0.0
 11
2894.961445322251
 21
-636.4258857444038
 31
0.0
  0
LINE
  5
235AF
  8
0
 10
2893.111445322251
 20
-635.6758857444038
 30
0.0
 11
2892.961445322251
 21
-636.4258857444038
 31
0.0
  0
LINE
  5
235B0
  8
0
 10
2897.111445322251
 20
-635.6758857444038
 30
0.0
 11
2898.111445322251
 21
-640.6758857444038
 31
0.0
  0
LINE
  5
235B1
  8
0
 10
2895.111445322251
 20
-635.6758857444038
 30
0.0
 11
2896.111445322251
 21
-640.6758857444038
 31
0.0
  0
LINE
  5
235B2
  8
0
 10
2893.111445322251
 20
-635.6758857444038
 30
0.0
 11
2894.111445322251
 21
-640.6758857444038
 31
0.0
  0
LINE
  5
235B3
  8
0
 10
2898.261445322251
 20
-639.9258857444038
 30
0.0
 11
2898.111445322251
 21
-640.6758857444038
 31
0.0
  0
LINE
  5
235B4
  8
0
 10
2896.261445322251
 20
-639.9258857444038
 30
0.0
 11
2896.111445322251
 21
-640.6758857444038
 31
0.0
  0
LINE
  5
235B5
  8
0
 10
2894.261445322251
 20
-639.9258857444038
 30
0.0
 11
2894.111445322251
 21
-640.6758857444038
 31
0.0
  0
LINE
  5
235B6
  8
0
 10
2892.261445322251
 20
-639.9258857444038
 30
0.0
 11
2892.111445322251
 21
-640.6758857444038
 31
0.0
  0
LINE
  5
235B7
  8
0
 10
2887.111445322251
 20
-635.6758857444038
 30
0.0
 11
2886.961445322251
 21
-636.4258857444038
 31
0.0
  0
LINE
  5
235B8
  8
0
 10
2889.111445322251
 20
-635.6758857444038
 30
0.0
 11
2888.961445322251
 21
-636.4258857444038
 31
0.0
  0
LINE
  5
235B9
  8
0
 10
2891.111445322251
 20
-635.6758857444038
 30
0.0
 11
2890.961445322251
 21
-636.4258857444038
 31
0.0
  0
LINE
  5
235BA
  8
0
 10
2885.111445322251
 20
-635.6758857444038
 30
0.0
 11
2884.961445322251
 21
-636.4258857444038
 31
0.0
  0
LINE
  5
235BB
  8
0
 10
2889.111445322251
 20
-635.6758857444038
 30
0.0
 11
2890.111445322251
 21
-640.6758857444038
 31
0.0
  0
LINE
  5
235BC
  8
0
 10
2887.111445322251
 20
-635.6758857444038
 30
0.0
 11
2888.111445322251
 21
-640.6758857444038
 31
0.0
  0
LINE
  5
235BD
  8
0
 10
2885.111445322251
 20
-635.6758857444038
 30
0.0
 11
2886.111445322251
 21
-640.6758857444038
 31
0.0
  0
LINE
  5
235BE
  8
0
 10
2888.261445322251
 20
-639.9258857444038
 30
0.0
 11
2888.111445322251
 21
-640.6758857444038
 31
0.0
  0
LINE
  5
235BF
  8
0
 10
2890.261445322251
 20
-639.9258857444038
 30
0.0
 11
2890.111445322251
 21
-640.6758857444038
 31
0.0
  0
LINE
  5
235C0
  8
0
 10
2886.261445322251
 20
-639.9258857444038
 30
0.0
 11
2886.111445322251
 21
-640.6758857444038
 31
0.0
  0
LINE
  5
235C1
  8
0
 10
2884.261445322251
 20
-639.9258857444038
 30
0.0
 11
2884.111445322251
 21
-640.6758857444038
 31
0.0
  0
LINE
  5
235C2
  8
0
 10
2883.111445322251
 20
-635.6758857444038
 30
0.0
 11
2882.961445322251
 21
-636.4258857444038
 31
0.0
  0
LINE
  5
235C3
  8
0
 10
2882.993579736205
 20
-639.9258857444038
 30
0.0
 11
2882.993579736205
 21
-636.4258857444038
 31
0.0
  0
LINE
  5
235C4
  8
1DIM
 10
2885.293579736205
 20
-629.1758852809726
 30
0.0
 11
2933.489932966753
 21
-629.1758852809726
 31
0.0
  0
LINE
  5
235C5
  8
1DIM
 10
2924.439932966753
 20
-638.1758857444038
 30
0.0
 11
2933.489932966753
 21
-638.1758857444038
 31
0.0
  0
LINE
  5
235C6
  8
1DIM
 10
2932.489932966753
 20
-631.1758852809726
 30
0.0
 11
2932.489932966753
 21
-636.1758857444038
 31
0.0
  0
LINE
  5
235CA
  8
1DIM
 10
2885.293579736205
 20
-629.1758852809719
 30
0.0
 11
2944.493579736205
 21
-629.1758852809719
 31
0.0
  0
LINE
  5
235CB
  8
1DIM
 10
2888.293579736205
 20
-652.1758852809662
 30
0.0
 11
2944.493579736205
 21
-652.1758852809662
 31
0.0
  0
LINE
  5
235CC
  8
1DIM
 10
2943.493579736205
 20
-631.1758852809719
 30
0.0
 11
2943.493579736205
 21
-650.1758852809662
 31
0.0
  0
LINE
  5
235D0
  8
1DIM
 10
2807.293579736205
 20
-693.1758852809726
 30
0.0
 11
2807.293579736205
 21
-706.2729044899086
 31
0.0
  0
LINE
  5
235D1
  8
1DIM
 10
2888.293579736205
 20
-701.2229044899086
 30
0.0
 11
2888.293579736205
 21
-706.2729044899086
 31
0.0
  0
LINE
  5
235D2
  8
1DIM
 10
2809.293579736205
 20
-705.2729044899086
 30
0.0
 11
2886.293579736205
 21
-705.2729044899086
 31
0.0
  0
SOLID
  5
235D6
  8
1DIM
 10
2716.097766325412
 20
-627.3704692521508
 30
0.0
 11
2716.49249356794
 21
-629.3592632372374
 31
0.0
 12
2715.474088667682
 22
-627.6059912759484
 32
0.0
 13
2715.474088667682
 23
-627.6059912759484
 33
0.0
1001
ACAD
1000
DSTYLE
1002
{
1070
    45
1040
0.5
1002
}
  0
LINE
  5
235D7
  8
1DIM
 10
2715.785927496547
 20
-627.4882302640495
 30
0.0
 11
2714.076873835931
 21
-622.9625448661418
 31
0.0
1001
ACAD
1000
DSTYLE
1002
{
1070
    45
1040
0.5
1002
}
  0
LINE
  5
235D8
  8
1DIM
 10
2714.076873835931
 20
-622.9625448661418
 30
0.0
 11
2649.176873835931
 21
-622.9625448661418
 31
0.0
1001
ACAD
1000
DSTYLE
1002
{
1070
    45
1040
0.5
1002
}
  0
TEXT
  5
235D9
  8
1DIM
  6
CONTINUOUS
 10
2638.932836798894
 20
-616.4292115328084
 30
0.0
 40
3.5
  1
Material
  0
TEXT
  5
235DA
  8
1DIM
  6
CONTINUOUS
 10
2662.831679391486
 20
-616.4292115328084
 30
0.0
 40
3.5
  1
\U+FF1A
  0
TEXT
  5
235DB
  8
1DIM
  6
CONTINUOUS
 10
2665.376179391486
 20
-616.4292115328084
 30
0.0
 40
3.5
  1
Stainless Steel
  0
TEXT
  5
235DC
  8
1DIM
  6
CONTINUOUS
 10
2643.605984947042
 20
-622.2625448661418
 30
0.0
 40
3.5
  1
Finish
  0
TEXT
  5
235DD
  8
1DIM
  6
CONTINUOUS
 10
2659.895568280375
 20
-622.2625448661418
 30
0.0
 40
3.5
  1
\U+FF1A
  0
TEXT
  5
235DE
  8
1DIM
  6
CONTINUOUS
 10
2662.440068280375
 20
-622.2625448661418
 30
0.0
 40
3.5
  1
Various Finishes
  0
LINE
  5
2361E
  8
0
 10
2830.508470339562
 20
-506.4382214785734
 30
0.0
 11
2828.858470339562
 21
-506.1082214785735
 31
0.0
  0
LINE
  5
2361F
  8
1CENTER
 10
2829.683470339562
 20
-498.0798205558877
 30
0.0
 11
2829.683470339562
 21
-513.4014915295168
 31
0.0
  0
LINE
  5
23621
  8
0
 10
2830.447838430104
 20
-500.4860950966818
 30
0.0
 11
2830.200338430104
 21
-500.5355950966818
 31
0.0
  0
LINE
  5
23622
  8
0
 10
2830.447838430104
 20
-500.4860950966818
 30
0.0
 11
2828.996859951344
 21
-500.1958994009298
 31
0.0
  0
LINE
  5
23623
  8
0
 10
2829.580062632871
 20
-498.8935399372352
 30
0.0
 11
2829.332562632871
 21
-498.9430399372351
 31
0.0
  0
LINE
  5
23624
  8
0
 10
2830.074117871733
 20
-499.0913509850076
 30
0.0
 11
2829.826617871733
 21
-499.1408509850076
 31
0.0
  0
LINE
  5
23625
  8
0
 10
2830.074117871733
 20
-499.0913509850076
 30
0.0
 11
2829.332562632871
 21
-498.9430399372351
 31
0.0
  0
LINE
  5
23626
  8
0
 10
2829.244359951344
 20
-500.1463994009298
 30
0.0
 11
2828.996859951344
 21
-500.1958994009298
 31
0.0
  0
LINE
  5
23627
  8
0
 10
2829.412211292107
 20
-499.5199696690825
 30
0.0
 11
2829.164711292107
 21
-499.5694696690825
 31
0.0
  0
LINE
  5
23628
  8
0
 10
2830.260978150918
 20
-499.7887230408447
 30
0.0
 11
2830.013478150918
 21
-499.8382230408447
 31
0.0
  0
LINE
  5
23629
  8
0
 10
2830.260978150918
 20
-499.7887230408447
 30
0.0
 11
2829.164711292107
 21
-499.5694696690825
 31
0.0
  0
LINE
  5
2362A
  8
0
 10
2829.105970339562
 20
-503.4187214785734
 30
0.0
 11
2828.858470339562
 21
-503.4682214785734
 31
0.0
  0
LINE
  5
2362B
  8
0
 10
2830.508470339562
 20
-502.4782214785735
 30
0.0
 11
2830.260970339562
 21
-502.5277214785734
 31
0.0
  0
LINE
  5
2362C
  8
0
 10
2830.508470339562
 20
-503.1382214785734
 30
0.0
 11
2830.260970339562
 21
-503.1877214785735
 31
0.0
  0
LINE
  5
2362D
  8
0
 10
2830.508470339562
 20
-503.1382214785734
 30
0.0
 11
2828.858470339562
 21
-502.8082214785734
 31
0.0
  0
LINE
  5
2362E
  8
0
 10
2830.508470339562
 20
-501.8182214785734
 30
0.0
 11
2830.260970339562
 21
-501.8677214785735
 31
0.0
  0
LINE
  5
2362F
  8
0
 10
2830.508470339562
 20
-501.1582214785735
 30
0.0
 11
2830.260970339562
 21
-501.2077214785734
 31
0.0
  0
LINE
  5
23630
  8
0
 10
2830.508470339562
 20
-501.1582214785735
 30
0.0
 11
2828.858470339562
 21
-500.8282214785734
 31
0.0
  0
LINE
  5
23631
  8
0
 10
2830.508470339562
 20
-501.8182214785734
 30
0.0
 11
2828.858470339562
 21
-501.4882214785735
 31
0.0
  0
LINE
  5
23632
  8
0
 10
2830.508470339562
 20
-502.4782214785735
 30
0.0
 11
2828.858470339562
 21
-502.1482214785734
 31
0.0
  0
LINE
  5
23633
  8
0
 10
2829.105970339562
 20
-500.7787214785735
 30
0.0
 11
2828.858470339562
 21
-500.8282214785734
 31
0.0
  0
LINE
  5
23634
  8
0
 10
2829.105970339562
 20
-501.4387214785734
 30
0.0
 11
2828.858470339562
 21
-501.4882214785735
 31
0.0
  0
LINE
  5
23635
  8
0
 10
2829.105970339562
 20
-502.7587214785734
 30
0.0
 11
2828.858470339562
 21
-502.8082214785734
 31
0.0
  0
LINE
  5
23636
  8
0
 10
2829.105970339562
 20
-502.0987214785735
 30
0.0
 11
2828.858470339562
 21
-502.1482214785734
 31
0.0
  0
LINE
  5
23637
  8
0
 10
2830.508470339562
 20
-504.4582214785734
 30
0.0
 11
2830.260970339562
 21
-504.5077214785734
 31
0.0
  0
LINE
  5
23638
  8
0
 10
2830.508470339562
 20
-503.7982214785735
 30
0.0
 11
2830.260970339562
 21
-503.8477214785734
 31
0.0
  0
LINE
  5
23639
  8
0
 10
2830.508470339562
 20
-505.7782214785735
 30
0.0
 11
2830.260970339562
 21
-505.8277214785734
 31
0.0
  0
LINE
  5
2363A
  8
0
 10
2830.508470339562
 20
-505.1182214785734
 30
0.0
 11
2830.260970339562
 21
-505.1677214785735
 31
0.0
  0
LINE
  5
2363B
  8
0
 10
2830.508470339562
 20
-503.7982214785735
 30
0.0
 11
2828.858470339562
 21
-503.4682214785734
 31
0.0
  0
LINE
  5
2363C
  8
0
 10
2830.508470339562
 20
-504.4582214785734
 30
0.0
 11
2828.858470339562
 21
-504.1282214785734
 31
0.0
  0
LINE
  5
2363D
  8
0
 10
2830.508470339562
 20
-505.1182214785734
 30
0.0
 11
2828.858470339562
 21
-504.7882214785735
 31
0.0
  0
LINE
  5
2363E
  8
0
 10
2830.508470339562
 20
-505.7782214785735
 30
0.0
 11
2828.858470339562
 21
-505.4482214785734
 31
0.0
  0
LINE
  5
2363F
  8
0
 10
2829.105970339562
 20
-504.7387214785734
 30
0.0
 11
2828.858470339562
 21
-504.7882214785735
 31
0.0
  0
LINE
  5
23640
  8
0
 10
2829.105970339562
 20
-504.0787214785734
 30
0.0
 11
2828.858470339562
 21
-504.1282214785734
 31
0.0
  0
LINE
  5
23641
  8
0
 10
2829.105970339562
 20
-506.0587214785734
 30
0.0
 11
2828.858470339562
 21
-506.1082214785735
 31
0.0
  0
LINE
  5
23642
  8
0
 10
2829.105970339562
 20
-505.3987214785735
 30
0.0
 11
2828.858470339562
 21
-505.4482214785734
 31
0.0
  0
LINE
  5
23643
  8
0
 10
2830.508470339562
 20
-511.7182214785735
 30
0.0
 11
2828.858470339562
 21
-511.3882214785734
 31
0.0
  0
LINE
  5
23644
  8
0
 10
2830.508470339562
 20
-509.0782214785734
 30
0.0
 11
2828.858470339562
 21
-508.7482214785734
 31
0.0
  0
LINE
  5
23645
  8
0
 10
2830.508470339562
 20
-506.4382214785734
 30
0.0
 11
2830.260970339562
 21
-506.4877214785735
 31
0.0
  0
LINE
  5
23646
  8
0
 10
2830.508470339562
 20
-507.0982214785735
 30
0.0
 11
2830.260970339562
 21
-507.1477214785734
 31
0.0
  0
LINE
  5
23647
  8
0
 10
2830.508470339562
 20
-507.7582214785734
 30
0.0
 11
2830.260970339562
 21
-507.8077214785735
 31
0.0
  0
LINE
  5
23648
  8
0
 10
2830.508470339562
 20
-508.4182214785735
 30
0.0
 11
2830.260970339562
 21
-508.4677214785734
 31
0.0
  0
LINE
  5
23649
  8
0
 10
2830.508470339562
 20
-507.0982214785735
 30
0.0
 11
2828.858470339562
 21
-506.7682214785734
 31
0.0
  0
LINE
  5
2364A
  8
0
 10
2830.508470339562
 20
-507.7582214785734
 30
0.0
 11
2828.858470339562
 21
-507.4282214785734
 31
0.0
  0
LINE
  5
2364B
  8
0
 10
2830.508470339562
 20
-508.4182214785735
 30
0.0
 11
2828.858470339562
 21
-508.0882214785734
 31
0.0
  0
LINE
  5
2364C
  8
0
 10
2829.105970339562
 20
-506.7187214785735
 30
0.0
 11
2828.858470339562
 21
-506.7682214785734
 31
0.0
  0
LINE
  5
2364D
  8
0
 10
2829.105970339562
 20
-507.3787214785734
 30
0.0
 11
2828.858470339562
 21
-507.4282214785734
 31
0.0
  0
LINE
  5
2364E
  8
0
 10
2829.105970339562
 20
-508.0387214785734
 30
0.0
 11
2828.858470339562
 21
-508.0882214785734
 31
0.0
  0
LINE
  5
2364F
  8
0
 10
2829.105970339562
 20
-508.6987214785734
 30
0.0
 11
2828.858470339562
 21
-508.7482214785734
 31
0.0
  0
LINE
  5
23650
  8
0
 10
2830.508470339562
 20
-510.3982214785734
 30
0.0
 11
2830.260970339562
 21
-510.4477214785734
 31
0.0
  0
LINE
  5
23651
  8
0
 10
2830.508470339562
 20
-509.7382214785735
 30
0.0
 11
2830.260970339562
 21
-509.7877214785734
 31
0.0
  0
LINE
  5
23652
  8
0
 10
2830.508470339562
 20
-509.0782214785734
 30
0.0
 11
2830.260970339562
 21
-509.1277214785734
 31
0.0
  0
LINE
  5
23653
  8
0
 10
2830.508470339562
 20
-511.0582214785734
 30
0.0
 11
2830.260970339562
 21
-511.1077214785735
 31
0.0
  0
LINE
  5
23654
  8
0
 10
2830.508470339562
 20
-509.7382214785735
 30
0.0
 11
2828.858470339562
 21
-509.4082214785734
 31
0.0
  0
LINE
  5
23655
  8
0
 10
2830.508470339562
 20
-510.3982214785734
 30
0.0
 11
2828.858470339562
 21
-510.0682214785734
 31
0.0
  0
LINE
  5
23656
  8
0
 10
2830.508470339562
 20
-511.0582214785734
 30
0.0
 11
2828.858470339562
 21
-510.7282214785735
 31
0.0
  0
LINE
  5
23657
  8
0
 10
2829.105970339562
 20
-510.0187214785734
 30
0.0
 11
2828.858470339562
 21
-510.0682214785734
 31
0.0
  0
LINE
  5
23658
  8
0
 10
2829.105970339562
 20
-509.3587214785734
 30
0.0
 11
2828.858470339562
 21
-509.4082214785734
 31
0.0
  0
LINE
  5
23659
  8
0
 10
2829.105970339562
 20
-510.6787214785734
 30
0.0
 11
2828.858470339562
 21
-510.7282214785735
 31
0.0
  0
LINE
  5
2365A
  8
0
 10
2829.105970339562
 20
-511.3387214785735
 30
0.0
 11
2828.858470339562
 21
-511.3882214785734
 31
0.0
  0
LINE
  5
2365B
  8
0
 10
2830.508470339562
 20
-511.7182214785735
 30
0.0
 11
2830.260970339562
 21
-511.7677214785734
 31
0.0
  0
LINE
  5
2365C
  8
0
 10
2829.105970339562
 20
-511.7571171219686
 30
0.0
 11
2830.260970339562
 21
-511.7571171219686
 31
0.0
  0
LINE
  5
2369C
  8
0
 10
2809.058470339563
 20
-506.4382214785734
 30
0.0
 11
2807.408470339563
 21
-506.1082214785735
 31
0.0
  0
LINE
  5
2369D
  8
1CENTER
 10
2808.233470339563
 20
-498.0798205558877
 30
0.0
 11
2808.233470339563
 21
-513.4014915295168
 31
0.0
  0
LINE
  5
2369F
  8
0
 10
2808.997838430105
 20
-500.4860950966818
 30
0.0
 11
2808.750338430105
 21
-500.5355950966818
 31
0.0
  0
LINE
  5
236A0
  8
0
 10
2808.997838430105
 20
-500.4860950966818
 30
0.0
 11
2807.546859951345
 21
-500.1958994009298
 31
0.0
  0
LINE
  5
236A1
  8
0
 10
2808.130062632872
 20
-498.8935399372352
 30
0.0
 11
2807.882562632872
 21
-498.9430399372351
 31
0.0
  0
LINE
  5
236A2
  8
0
 10
2808.624117871734
 20
-499.0913509850076
 30
0.0
 11
2808.376617871734
 21
-499.1408509850076
 31
0.0
  0
LINE
  5
236A3
  8
0
 10
2808.624117871734
 20
-499.0913509850076
 30
0.0
 11
2807.882562632872
 21
-498.9430399372351
 31
0.0
  0
LINE
  5
236A4
  8
0
 10
2807.794359951345
 20
-500.1463994009298
 30
0.0
 11
2807.546859951345
 21
-500.1958994009298
 31
0.0
  0
LINE
  5
236A5
  8
0
 10
2807.962211292108
 20
-499.5199696690825
 30
0.0
 11
2807.714711292108
 21
-499.5694696690825
 31
0.0
  0
LINE
  5
236A6
  8
0
 10
2808.810978150919
 20
-499.7887230408447
 30
0.0
 11
2808.563478150919
 21
-499.8382230408447
 31
0.0
  0
LINE
  5
236A7
  8
0
 10
2808.810978150919
 20
-499.7887230408447
 30
0.0
 11
2807.714711292108
 21
-499.5694696690825
 31
0.0
  0
LINE
  5
236A8
  8
0
 10
2807.655970339563
 20
-503.4187214785734
 30
0.0
 11
2807.408470339563
 21
-503.4682214785734
 31
0.0
  0
LINE
  5
236A9
  8
0
 10
2809.058470339563
 20
-502.4782214785735
 30
0.0
 11
2808.810970339563
 21
-502.5277214785734
 31
0.0
  0
LINE
  5
236AA
  8
0
 10
2809.058470339563
 20
-503.1382214785734
 30
0.0
 11
2808.810970339563
 21
-503.1877214785735
 31
0.0
  0
LINE
  5
236AB
  8
0
 10
2809.058470339563
 20
-503.1382214785734
 30
0.0
 11
2807.408470339563
 21
-502.8082214785734
 31
0.0
  0
LINE
  5
236AC
  8
0
 10
2809.058470339563
 20
-501.8182214785734
 30
0.0
 11
2808.810970339563
 21
-501.8677214785735
 31
0.0
  0
LINE
  5
236AD
  8
0
 10
2809.058470339563
 20
-501.1582214785735
 30
0.0
 11
2808.810970339563
 21
-501.2077214785734
 31
0.0
  0
LINE
  5
236AE
  8
0
 10
2809.058470339563
 20
-501.1582214785735
 30
0.0
 11
2807.408470339563
 21
-500.8282214785734
 31
0.0
  0
LINE
  5
236AF
  8
0
 10
2809.058470339563
 20
-501.8182214785734
 30
0.0
 11
2807.408470339563
 21
-501.4882214785735
 31
0.0
  0
LINE
  5
236B0
  8
0
 10
2809.058470339563
 20
-502.4782214785735
 30
0.0
 11
2807.408470339563
 21
-502.1482214785734
 31
0.0
  0
LINE
  5
236B1
  8
0
 10
2807.655970339563
 20
-500.7787214785735
 30
0.0
 11
2807.408470339563
 21
-500.8282214785734
 31
0.0
  0
LINE
  5
236B2
  8
0
 10
2807.655970339563
 20
-501.4387214785734
 30
0.0
 11
2807.408470339563
 21
-501.4882214785735
 31
0.0
  0
LINE
  5
236B3
  8
0
 10
2807.655970339563
 20
-502.7587214785734
 30
0.0
 11
2807.408470339563
 21
-502.8082214785734
 31
0.0
  0
LINE
  5
236B4
  8
0
 10
2807.655970339563
 20
-502.0987214785735
 30
0.0
 11
2807.408470339563
 21
-502.1482214785734
 31
0.0
  0
LINE
  5
236B5
  8
0
 10
2809.058470339563
 20
-504.4582214785734
 30
0.0
 11
2808.810970339563
 21
-504.5077214785734
 31
0.0
  0
LINE
  5
236B6
  8
0
 10
2809.058470339563
 20
-503.7982214785735
 30
0.0
 11
2808.810970339563
 21
-503.8477214785734
 31
0.0
  0
LINE
  5
236B7
  8
0
 10
2809.058470339563
 20
-505.7782214785735
 30
0.0
 11
2808.810970339563
 21
-505.8277214785734
 31
0.0
  0
LINE
  5
236B8
  8
0
 10
2809.058470339563
 20
-505.1182214785734
 30
0.0
 11
2808.810970339563
 21
-505.1677214785735
 31
0.0
  0
LINE
  5
236B9
  8
0
 10
2809.058470339563
 20
-503.7982214785735
 30
0.0
 11
2807.408470339563
 21
-503.4682214785734
 31
0.0
  0
LINE
  5
236BA
  8
0
 10
2809.058470339563
 20
-504.4582214785734
 30
0.0
 11
2807.408470339563
 21
-504.1282214785734
 31
0.0
  0
LINE
  5
236BB
  8
0
 10
2809.058470339563
 20
-505.1182214785734
 30
0.0
 11
2807.408470339563
 21
-504.7882214785735
 31
0.0
  0
LINE
  5
236BC
  8
0
 10
2809.058470339563
 20
-505.7782214785735
 30
0.0
 11
2807.408470339563
 21
-505.4482214785734
 31
0.0
  0
LINE
  5
236BD
  8
0
 10
2807.655970339563
 20
-504.7387214785734
 30
0.0
 11
2807.408470339563
 21
-504.7882214785735
 31
0.0
  0
LINE
  5
236BE
  8
0
 10
2807.655970339563
 20
-504.0787214785734
 30
0.0
 11
2807.408470339563
 21
-504.1282214785734
 31
0.0
  0
LINE
  5
236BF
  8
0
 10
2807.655970339563
 20
-506.0587214785734
 30
0.0
 11
2807.408470339563
 21
-506.1082214785735
 31
0.0
  0
LINE
  5
236C0
  8
0
 10
2807.655970339563
 20
-505.3987214785735
 30
0.0
 11
2807.408470339563
 21
-505.4482214785734
 31
0.0
  0
LINE
  5
236C1
  8
0
 10
2809.058470339563
 20
-511.7182214785735
 30
0.0
 11
2807.408470339563
 21
-511.3882214785734
 31
0.0
  0
LINE
  5
236C2
  8
0
 10
2809.058470339563
 20
-509.0782214785734
 30
0.0
 11
2807.408470339563
 21
-508.7482214785734
 31
0.0
  0
LINE
  5
236C3
  8
0
 10
2809.058470339563
 20
-506.4382214785734
 30
0.0
 11
2808.810970339563
 21
-506.4877214785735
 31
0.0
  0
LINE
  5
236C4
  8
0
 10
2809.058470339563
 20
-507.0982214785735
 30
0.0
 11
2808.810970339563
 21
-507.1477214785734
 31
0.0
  0
LINE
  5
236C5
  8
0
 10
2809.058470339563
 20
-507.7582214785734
 30
0.0
 11
2808.810970339563
 21
-507.8077214785735
 31
0.0
  0
LINE
  5
236C6
  8
0
 10
2809.058470339563
 20
-508.4182214785735
 30
0.0
 11
2808.810970339563
 21
-508.4677214785734
 31
0.0
  0
LINE
  5
236C7
  8
0
 10
2809.058470339563
 20
-507.0982214785735
 30
0.0
 11
2807.408470339563
 21
-506.7682214785734
 31
0.0
  0
LINE
  5
236C8
  8
0
 10
2809.058470339563
 20
-507.7582214785734
 30
0.0
 11
2807.408470339563
 21
-507.4282214785734
 31
0.0
  0
LINE
  5
236C9
  8
0
 10
2809.058470339563
 20
-508.4182214785735
 30
0.0
 11
2807.408470339563
 21
-508.0882214785734
 31
0.0
  0
LINE
  5
236CA
  8
0
 10
2807.655970339563
 20
-506.7187214785735
 30
0.0
 11
2807.408470339563
 21
-506.7682214785734
 31
0.0
  0
LINE
  5
236CB
  8
0
 10
2807.655970339563
 20
-507.3787214785734
 30
0.0
 11
2807.408470339563
 21
-507.4282214785734
 31
0.0
  0
LINE
  5
236CC
  8
0
 10
2807.655970339563
 20
-508.0387214785734
 30
0.0
 11
2807.408470339563
 21
-508.0882214785734
 31
0.0
  0
LINE
  5
236CD
  8
0
 10
2807.655970339563
 20
-508.6987214785734
 30
0.0
 11
2807.408470339563
 21
-508.7482214785734
 31
0.0
  0
LINE
  5
236CE
  8
0
 10
2809.058470339563
 20
-510.3982214785734
 30
0.0
 11
2808.810970339563
 21
-510.4477214785734
 31
0.0
  0
LINE
  5
236CF
  8
0
 10
2809.058470339563
 20
-509.7382214785735
 30
0.0
 11
2808.810970339563
 21
-509.7877214785734
 31
0.0
  0
LINE
  5
236D0
  8
0
 10
2809.058470339563
 20
-509.0782214785734
 30
0.0
 11
2808.810970339563
 21
-509.1277214785734
 31
0.0
  0
LINE
  5
236D1
  8
0
 10
2809.058470339563
 20
-511.0582214785734
 30
0.0
 11
2808.810970339563
 21
-511.1077214785735
 31
0.0
  0
LINE
  5
236D2
  8
0
 10
2809.058470339563
 20
-509.7382214785735
 30
0.0
 11
2807.408470339563
 21
-509.4082214785734
 31
0.0
  0
LINE
  5
236D3
  8
0
 10
2809.058470339563
 20
-510.3982214785734
 30
0.0
 11
2807.408470339563
 21
-510.0682214785734
 31
0.0
  0
LINE
  5
236D4
  8
0
 10
2809.058470339563
 20
-511.0582214785734
 30
0.0
 11
2807.408470339563
 21
-510.7282214785735
 31
0.0
  0
LINE
  5
236D5
  8
0
 10
2807.655970339563
 20
-510.0187214785734
 30
0.0
 11
2807.408470339563
 21
-510.0682214785734
 31
0.0
  0
LINE
  5
236D6
  8
0
 10
2807.655970339563
 20
-509.3587214785734
 30
0.0
 11
2807.408470339563
 21
-509.4082214785734
 31
0.0
  0
LINE
  5
236D7
  8
0
 10
2807.655970339563
 20
-510.6787214785734
 30
0.0
 11
2807.408470339563
 21
-510.7282214785735
 31
0.0
  0
LINE
  5
236D8
  8
0
 10
2807.655970339563
 20
-511.3387214785735
 30
0.0
 11
2807.408470339563
 21
-511.3882214785734
 31
0.0
  0
LINE
  5
236D9
  8
0
 10
2809.058470339563
 20
-511.7182214785735
 30
0.0
 11
2808.810970339563
 21
-511.7677214785734
 31
0.0
  0
LINE
  5
236DA
  8
0
 10
2807.655970339563
 20
-511.7571171219686
 30
0.0
 11
2808.810970339563
 21
-511.7571171219686
 31
0.0
  0
LINE
  5
236DB
  8
0
 10
2850.308470339561
 20
-506.4382214785734
 30
0.0
 11
2851.958470339561
 21
-506.1082214785735
 31
0.0
  0
LINE
  5
236DC
  8
1CENTER
 10
2851.133470339561
 20
-498.0798205558877
 30
0.0
 11
2851.133470339561
 21
-513.4014915295168
 31
0.0
  0
LINE
  5
236DE
  8
0
 10
2850.369102249019
 20
-500.4860950966818
 30
0.0
 11
2850.616602249019
 21
-500.5355950966818
 31
0.0
  0
LINE
  5
236DF
  8
0
 10
2850.369102249019
 20
-500.4860950966818
 30
0.0
 11
2851.820080727779
 21
-500.1958994009298
 31
0.0
  0
LINE
  5
236E0
  8
0
 10
2851.236878046253
 20
-498.8935399372352
 30
0.0
 11
2851.484378046252
 21
-498.9430399372351
 31
0.0
  0
LINE
  5
236E1
  8
0
 10
2850.74282280739
 20
-499.0913509850076
 30
0.0
 11
2850.99032280739
 21
-499.1408509850076
 31
0.0
  0
LINE
  5
236E2
  8
0
 10
2850.74282280739
 20
-499.0913509850076
 30
0.0
 11
2851.484378046252
 21
-498.9430399372351
 31
0.0
  0
LINE
  5
236E3
  8
0
 10
2851.572580727779
 20
-500.1463994009298
 30
0.0
 11
2851.820080727779
 21
-500.1958994009298
 31
0.0
  0
LINE
  5
236E4
  8
0
 10
2851.404729387016
 20
-499.5199696690825
 30
0.0
 11
2851.652229387016
 21
-499.5694696690825
 31
0.0
  0
LINE
  5
236E5
  8
0
 10
2850.555962528205
 20
-499.7887230408447
 30
0.0
 11
2850.803462528205
 21
-499.8382230408447
 31
0.0
  0
LINE
  5
236E6
  8
0
 10
2850.555962528205
 20
-499.7887230408447
 30
0.0
 11
2851.652229387016
 21
-499.5694696690825
 31
0.0
  0
LINE
  5
236E7
  8
0
 10
2851.710970339561
 20
-503.4187214785734
 30
0.0
 11
2851.958470339561
 21
-503.4682214785735
 31
0.0
  0
LINE
  5
236E8
  8
0
 10
2850.308470339561
 20
-502.4782214785735
 30
0.0
 11
2850.555970339561
 21
-502.5277214785734
 31
0.0
  0
LINE
  5
236E9
  8
0
 10
2850.308470339561
 20
-503.1382214785734
 30
0.0
 11
2850.555970339561
 21
-503.1877214785735
 31
0.0
  0
LINE
  5
236EA
  8
0
 10
2850.308470339561
 20
-503.1382214785734
 30
0.0
 11
2851.958470339561
 21
-502.8082214785734
 31
0.0
  0
LINE
  5
236EB
  8
0
 10
2850.308470339561
 20
-501.8182214785734
 30
0.0
 11
2850.555970339561
 21
-501.8677214785735
 31
0.0
  0
LINE
  5
236EC
  8
0
 10
2850.308470339561
 20
-501.1582214785735
 30
0.0
 11
2850.555970339561
 21
-501.2077214785734
 31
0.0
  0
LINE
  5
236ED
  8
0
 10
2850.308470339561
 20
-501.1582214785735
 30
0.0
 11
2851.958470339561
 21
-500.8282214785734
 31
0.0
  0
LINE
  5
236EE
  8
0
 10
2850.308470339561
 20
-501.8182214785734
 30
0.0
 11
2851.958470339561
 21
-501.4882214785735
 31
0.0
  0
LINE
  5
236EF
  8
0
 10
2850.308470339561
 20
-502.4782214785735
 30
0.0
 11
2851.958470339561
 21
-502.1482214785734
 31
0.0
  0
LINE
  5
236F0
  8
0
 10
2851.710970339561
 20
-500.7787214785735
 30
0.0
 11
2851.958470339561
 21
-500.8282214785734
 31
0.0
  0
LINE
  5
236F1
  8
0
 10
2851.710970339561
 20
-501.4387214785734
 30
0.0
 11
2851.958470339561
 21
-501.4882214785735
 31
0.0
  0
LINE
  5
236F2
  8
0
 10
2851.710970339561
 20
-502.7587214785734
 30
0.0
 11
2851.958470339561
 21
-502.8082214785734
 31
0.0
  0
LINE
  5
236F3
  8
0
 10
2851.710970339561
 20
-502.0987214785735
 30
0.0
 11
2851.958470339561
 21
-502.1482214785734
 31
0.0
  0
LINE
  5
236F4
  8
0
 10
2850.308470339561
 20
-504.4582214785734
 30
0.0
 11
2850.555970339561
 21
-504.5077214785734
 31
0.0
  0
LINE
  5
236F5
  8
0
 10
2850.308470339561
 20
-503.7982214785735
 30
0.0
 11
2850.555970339561
 21
-503.8477214785734
 31
0.0
  0
LINE
  5
236F6
  8
0
 10
2850.308470339561
 20
-505.7782214785734
 30
0.0
 11
2850.555970339561
 21
-505.8277214785734
 31
0.0
  0
LINE
  5
236F7
  8
0
 10
2850.308470339561
 20
-505.1182214785734
 30
0.0
 11
2850.555970339561
 21
-505.1677214785735
 31
0.0
  0
LINE
  5
236F8
  8
0
 10
2850.308470339561
 20
-503.7982214785735
 30
0.0
 11
2851.958470339561
 21
-503.4682214785735
 31
0.0
  0
LINE
  5
236F9
  8
0
 10
2850.308470339561
 20
-504.4582214785734
 30
0.0
 11
2851.958470339561
 21
-504.1282214785734
 31
0.0
  0
LINE
  5
236FA
  8
0
 10
2850.308470339561
 20
-505.1182214785734
 30
0.0
 11
2851.958470339561
 21
-504.7882214785735
 31
0.0
  0
LINE
  5
236FB
  8
0
 10
2850.308470339561
 20
-505.7782214785734
 30
0.0
 11
2851.958470339561
 21
-505.4482214785734
 31
0.0
  0
LINE
  5
236FC
  8
0
 10
2851.710970339561
 20
-504.7387214785734
 30
0.0
 11
2851.958470339561
 21
-504.7882214785735
 31
0.0
  0
LINE
  5
236FD
  8
0
 10
2851.710970339561
 20
-504.0787214785734
 30
0.0
 11
2851.958470339561
 21
-504.1282214785734
 31
0.0
  0
LINE
  5
236FE
  8
0
 10
2851.710970339561
 20
-506.0587214785734
 30
0.0
 11
2851.958470339561
 21
-506.1082214785735
 31
0.0
  0
LINE
  5
236FF
  8
0
 10
2851.710970339561
 20
-505.3987214785735
 30
0.0
 11
2851.958470339561
 21
-505.4482214785734
 31
0.0
  0
LINE
  5
23700
  8
0
 10
2850.308470339561
 20
-511.7182214785735
 30
0.0
 11
2851.958470339561
 21
-511.3882214785734
 31
0.0
  0
LINE
  5
23701
  8
0
 10
2850.308470339561
 20
-509.0782214785734
 30
0.0
 11
2851.958470339561
 21
-508.7482214785734
 31
0.0
  0
LINE
  5
23702
  8
0
 10
2850.308470339561
 20
-506.4382214785734
 30
0.0
 11
2850.555970339561
 21
-506.4877214785735
 31
0.0
  0
LINE
  5
23703
  8
0
 10
2850.308470339561
 20
-507.0982214785735
 30
0.0
 11
2850.555970339561
 21
-507.1477214785734
 31
0.0
  0
LINE
  5
23704
  8
0
 10
2850.308470339561
 20
-507.7582214785734
 30
0.0
 11
2850.555970339561
 21
-507.8077214785735
 31
0.0
  0
LINE
  5
23705
  8
0
 10
2850.308470339561
 20
-508.4182214785735
 30
0.0
 11
2850.555970339561
 21
-508.4677214785734
 31
0.0
  0
LINE
  5
23706
  8
0
 10
2850.308470339561
 20
-507.0982214785735
 30
0.0
 11
2851.958470339561
 21
-506.7682214785734
 31
0.0
  0
LINE
  5
23707
  8
0
 10
2850.308470339561
 20
-507.7582214785734
 30
0.0
 11
2851.958470339561
 21
-507.4282214785734
 31
0.0
  0
LINE
  5
23708
  8
0
 10
2850.308470339561
 20
-508.4182214785735
 30
0.0
 11
2851.958470339561
 21
-508.0882214785734
 31
0.0
  0
LINE
  5
23709
  8
0
 10
2851.710970339561
 20
-506.7187214785735
 30
0.0
 11
2851.958470339561
 21
-506.7682214785734
 31
0.0
  0
LINE
  5
2370A
  8
0
 10
2851.710970339561
 20
-507.3787214785734
 30
0.0
 11
2851.958470339561
 21
-507.4282214785734
 31
0.0
  0
LINE
  5
2370B
  8
0
 10
2851.710970339561
 20
-508.0387214785734
 30
0.0
 11
2851.958470339561
 21
-508.0882214785734
 31
0.0
  0
LINE
  5
2370C
  8
0
 10
2851.710970339561
 20
-508.6987214785734
 30
0.0
 11
2851.958470339561
 21
-508.7482214785734
 31
0.0
  0
LINE
  5
2370D
  8
0
 10
2850.308470339561
 20
-510.3982214785734
 30
0.0
 11
2850.555970339561
 21
-510.4477214785734
 31
0.0
  0
LINE
  5
2370E
  8
0
 10
2850.308470339561
 20
-509.7382214785735
 30
0.0
 11
2850.555970339561
 21
-509.7877214785734
 31
0.0
  0
LINE
  5
2370F
  8
0
 10
2850.308470339561
 20
-509.0782214785734
 30
0.0
 11
2850.555970339561
 21
-509.1277214785734
 31
0.0
  0
LINE
  5
23710
  8
0
 10
2850.308470339561
 20
-511.0582214785734
 30
0.0
 11
2850.555970339561
 21
-511.1077214785735
 31
0.0
  0
LINE
  5
23711
  8
0
 10
2850.308470339561
 20
-509.7382214785735
 30
0.0
 11
2851.958470339561
 21
-509.4082214785735
 31
0.0
  0
LINE
  5
23712
  8
0
 10
2850.308470339561
 20
-510.3982214785734
 30
0.0
 11
2851.958470339561
 21
-510.0682214785734
 31
0.0
  0
LINE
  5
23713
  8
0
 10
2850.308470339561
 20
-511.0582214785734
 30
0.0
 11
2851.958470339561
 21
-510.7282214785735
 31
0.0
  0
LINE
  5
23714
  8
0
 10
2851.710970339561
 20
-510.0187214785734
 30
0.0
 11
2851.958470339561
 21
-510.0682214785734
 31
0.0
  0
LINE
  5
23715
  8
0
 10
2851.710970339561
 20
-509.3587214785734
 30
0.0
 11
2851.958470339561
 21
-509.4082214785735
 31
0.0
  0
LINE
  5
23716
  8
0
 10
2851.710970339561
 20
-510.6787214785734
 30
0.0
 11
2851.958470339561
 21
-510.7282214785735
 31
0.0
  0
LINE
  5
23717
  8
0
 10
2851.710970339561
 20
-511.3387214785735
 30
0.0
 11
2851.958470339561
 21
-511.3882214785734
 31
0.0
  0
LINE
  5
23718
  8
0
 10
2850.308470339561
 20
-511.7182214785735
 30
0.0
 11
2850.555970339561
 21
-511.7677214785734
 31
0.0
  0
LINE
  5
23719
  8
0
 10
2851.710970339561
 20
-511.7571171219686
 30
0.0
 11
2850.555970339561
 21
-511.7571171219686
 31
0.0
  0
LINE
  5
2371A
  8
1DIM
 10
2687.002819362762
 20
-502.2732756898892
 30
0.0
 11
2765.002819362762
 21
-502.2732756898892
 31
0.0
  0
LINE
  5
2371B
  8
1DIM
 10
2744.002819362762
 20
-605.2732756898886
 30
0.0
 11
2765.002819362762
 21
-605.2732756898886
 31
0.0
  0
LINE
  5
2371C
  8
1DIM
 10
2764.002819362762
 20
-504.2732756898892
 30
0.0
 11
2764.002819362762
 21
-603.2732756898886
 31
0.0
  0
LINE
  5
23720
  8
1DIM
 10
2782.822539949851
 20
-569.5599360783062
 30
0.0
 11
2782.822539949851
 21
-595.6099360783053
 31
0.0
1001
ACAD
1000
DSTYLE
1002
{
1070
   340
1005
F
1070
    70
1070
     0
1070
    69
1070
     0
1002
}
  0
LINE
  5
23721
  8
1DIM
 10
2876.544400729274
 20
-569.5599360783053
 30
0.0
 11
2876.544400729274
 21
-595.6099360783053
 31
0.0
1001
ACAD
1000
DSTYLE
1002
{
1070
   340
1005
F
1070
    70
1070
     0
1070
    69
1070
     0
1002
}
  0
LINE
  5
23722
  8
1DIM
 10
2784.822539949851
 20
-594.6099360783053
 30
0.0
 11
2874.544400729274
 21
-594.6099360783053
 31
0.0
1001
ACAD
1000
DSTYLE
1002
{
1070
   340
1005
F
1070
    70
1070
     0
1070
    69
1070
     0
1002
}
  0
LINE
  5
23726
  8
1DIM
 10
2808.233470339562
 20
-556.0675295580082
 30
0.0
 11
2808.233470339562
 21
-589.3175295580082
 31
0.0
1001
ACAD
1000
DSTYLE
1002
{
1070
   340
1005
F
1070
    70
1070
     0
1070
    69
1070
     0
1002
}
  0
LINE
  5
23727
  8
1DIM
 10
2851.13347033956
 20
-556.0675295580082
 30
0.0
 11
2851.13347033956
 21
-589.3175295580082
 31
0.0
1001
ACAD
1000
DSTYLE
1002
{
1070
   340
1005
F
1070
    70
1070
     0
1070
    69
1070
     0
1002
}
  0
LINE
  5
23728
  8
1DIM
 10
2810.233470339562
 20
-588.3175295580082
 30
0.0
 11
2849.13347033956
 21
-588.3175295580082
 31
0.0
1001
ACAD
1000
DSTYLE
1002
{
1070
   340
1005
F
1070
    70
1070
     0
1070
    69
1070
     0
1002
}
  0
LINE
  5
2372C
  8
1DIM
 10
2808.233470339562
 20
-556.0675295580082
 30
0.0
 11
2808.233470339562
 21
-582.0675295580082
 31
0.0
1001
ACAD
1000
DSTYLE
1002
{
1070
   340
1005
F
1070
    70
1070
     0
1070
    69
1070
     0
1002
}
  0
LINE
  5
2372D
  8
1DIM
 10
2829.683470339562
 20
-556.0675295580082
 30
0.0
 11
2829.683470339562
 21
-582.0675295580082
 31
0.0
1001
ACAD
1000
DSTYLE
1002
{
1070
   340
1005
F
1070
    70
1070
     0
1070
    69
1070
     0
1002
}
  0
LINE
  5
2372E
  8
1DIM
 10
2810.233470339562
 20
-581.0675295580082
 30
0.0
 11
2827.683470339562
 21
-581.0675295580082
 31
0.0
1001
ACAD
1000
DSTYLE
1002
{
1070
   340
1005
F
1070
    70
1070
     0
1070
    69
1070
     0
1002
}
  0
LINE
  5
23732
  8
1DIM
 10
2851.133470339561
 20
-556.0675295580082
 30
0.0
 11
2851.133470339561
 21
-582.0675295580082
 31
0.0
1001
ACAD
1000
DSTYLE
1002
{
1070
   340
1005
F
1070
    70
1070
     0
1070
    69
1070
     0
1002
}
  0
LINE
  5
23733
  8
1DIM
 10
2829.683470339562
 20
-556.0675295580082
 30
0.0
 11
2829.683470339562
 21
-582.0675295580082
 31
0.0
1001
ACAD
1000
DSTYLE
1002
{
1070
   340
1005
F
1070
    70
1070
     0
1070
    69
1070
     0
1002
}
  0
LINE
  5
23734
  8
1DIM
 10
2849.133470339561
 20
-581.0675295580082
 30
0.0
 11
2831.683470339562
 21
-581.0675295580082
 31
0.0
1001
ACAD
1000
DSTYLE
1002
{
1070
   340
1005
F
1070
    70
1070
     0
1070
    69
1070
     0
1002
}
  0
LINE
  5
23738
  8
1DIM
 10
2676.602819262755
 20
-506.2732756898882
 30
0.0
 11
2676.602819262755
 21
-507.5732758898881
 31
0.0
  0
LINE
  5
23739
  8
1DIM
 10
2667.402819462755
 20
-506.2732756898882
 30
0.0
 11
2676.602819262755
 21
-506.2732756898882
 31
0.0
  0
LINE
  5
2373A
  8
1DIM
 10
2667.402819462755
 20
-506.2732756898882
 30
0.0
 11
2667.402819462755
 21
-507.5732758898881
 31
0.0
  0
LINE
  5
2373B
  8
1DIM
 10
2667.402819462755
 20
-507.5732758898881
 30
0.0
 11
2676.602819262755
 21
-507.5732758898881
 31
0.0
  0
LINE
  5
2373C
  8
1DIM
 10
2611.602819262759
 20
-506.2732756898882
 30
0.0
 11
2611.602819262759
 21
-507.5732758898881
 31
0.0
  0
LINE
  5
2373D
  8
1DIM
 10
2602.402819462759
 20
-506.2732756898882
 30
0.0
 11
2611.602819262759
 21
-506.2732756898882
 31
0.0
  0
LINE
  5
2373E
  8
1DIM
 10
2602.402819462759
 20
-506.2732756898882
 30
0.0
 11
2602.402819462759
 21
-507.5732758898881
 31
0.0
  0
LINE
  5
2373F
  8
1DIM
 10
2602.402819462759
 20
-507.5732758898881
 30
0.0
 11
2611.602819262759
 21
-507.5732758898881
 31
0.0
  0
LINE
  5
23740
  8
1DIM
 10
2546.602819262762
 20
-506.2732756898882
 30
0.0
 11
2546.602819262762
 21
-507.5732758898881
 31
0.0
  0
LINE
  5
23741
  8
1DIM
 10
2537.402819462762
 20
-506.2732756898882
 30
0.0
 11
2546.602819262762
 21
-506.2732756898882
 31
0.0
  0
LINE
  5
23742
  8
1DIM
 10
2537.402819462762
 20
-506.2732756898882
 30
0.0
 11
2537.402819462762
 21
-507.5732758898881
 31
0.0
  0
LINE
  5
23743
  8
1DIM
 10
2537.402819462762
 20
-507.5732758898881
 30
0.0
 11
2546.602819262762
 21
-507.5732758898881
 31
0.0
  0
LINE
  5
23744
  8
1DIM
 10
2809.751470306563
 20
-511.3281170559686
 30
0.0
 11
2809.751470306563
 21
-511.7571171219686
 31
0.0
  0
LINE
  5
23745
  8
1DIM
 10
2806.715470372563
 20
-511.3281170559686
 30
0.0
 11
2809.751470306563
 21
-511.3281170559686
 31
0.0
  0
LINE
  5
23746
  8
1DIM
 10
2806.715470372563
 20
-511.3281170559686
 30
0.0
 11
2806.715470372563
 21
-511.7571171219686
 31
0.0
  0
LINE
  5
23747
  8
1DIM
 10
2806.715470372563
 20
-511.7571171219686
 30
0.0
 11
2809.751470306563
 21
-511.7571171219686
 31
0.0
  0
LINE
  5
23748
  8
1DIM
 10
2831.201470306562
 20
-511.3281170559686
 30
0.0
 11
2831.201470306562
 21
-511.7571171219686
 31
0.0
  0
LINE
  5
23749
  8
1DIM
 10
2828.165470372562
 20
-511.3281170559686
 30
0.0
 11
2831.201470306562
 21
-511.3281170559686
 31
0.0
  0
LINE
  5
2374A
  8
1DIM
 10
2828.165470372562
 20
-511.3281170559686
 30
0.0
 11
2828.165470372562
 21
-511.7571171219686
 31
0.0
  0
LINE
  5
2374B
  8
1DIM
 10
2828.165470372562
 20
-511.7571171219686
 30
0.0
 11
2831.201470306562
 21
-511.7571171219686
 31
0.0
  0
LINE
  5
2374C
  8
1DIM
 10
2852.651470306561
 20
-511.3281170559686
 30
0.0
 11
2852.651470306561
 21
-511.7571171219686
 31
0.0
  0
LINE
  5
2374D
  8
1DIM
 10
2849.615470372561
 20
-511.3281170559686
 30
0.0
 11
2852.651470306561
 21
-511.3281170559686
 31
0.0
  0
LINE
  5
2374E
  8
1DIM
 10
2849.615470372561
 20
-511.3281170559686
 30
0.0
 11
2849.615470372561
 21
-511.7571171219686
 31
0.0
  0
LINE
  5
2374F
  8
1DIM
 10
2849.615470372561
 20
-511.7571171219686
 30
0.0
 11
2852.651470306561
 21
-511.7571171219686
 31
0.0
  0
LINE
  5
23750
  8
1DIM
 10
2884.293579936205
 20
-642.7758856444037
 30
0.0
 11
2882.993579736205
 21
-642.7758856444037
 31
0.0
  0
LINE
  5
23751
  8
1DIM
 10
2884.293579936205
 20
-633.5758858444038
 30
0.0
 11
2884.293579936205
 21
-642.7758856444037
 31
0.0
  0
LINE
  5
23752
  8
1DIM
 10
2884.293579936205
 20
-633.5758858444038
 30
0.0
 11
2882.993579736205
 21
-633.5758858444038
 31
0.0
  0
LINE
  5
23753
  8
1DIM
 10
2882.993579736205
 20
-633.5758858444038
 30
0.0
 11
2882.993579736205
 21
-642.7758856444037
 31
0.0
  0
SOLID
  5
23754
  8
1DIM
 10
2891.948186040606
 20
-619.8817959195633
 30
0.0
 11
2891.207251313913
 21
-621.7691556737944
 31
0.0
 12
2891.296018837791
 22
-619.7435122111348
 32
0.0
 13
2891.296018837791
 23
-619.7435122111348
 33
0.0
1001
ACAD
1000
DSTYLE
1002
{
1070
    45
1040
0.5
1002
}
  0
LINE
  5
23755
  8
1DIM
 10
2891.622102439198
 20
-619.812654065349
 30
0.0
 11
2894.331095247028
 21
-607.036628009879
 31
0.0
1001
ACAD
1000
DSTYLE
1002
{
1070
    45
1040
0.5
1002
}
  0
SOLID
  5
23756
  8
1DIM
 10
2905.083604185771
 20
-619.8817959195633
 30
0.0
 11
2904.342669459078
 21
-621.7691556737944
 31
0.0
 12
2904.431436982956
 22
-619.7435122111348
 32
0.0
 13
2904.431436982956
 23
-619.7435122111348
 33
0.0
1001
ACAD
1000
DSTYLE
1002
{
1070
    45
1040
0.5
1002
}
  0
LINE
  5
23757
  8
1DIM
 10
2904.757520584363
 20
-619.812654065349
 30
0.0
 11
2907.466513392193
 21
-607.036628009879
 31
0.0
1001
ACAD
1000
DSTYLE
1002
{
1070
    45
1040
0.5
1002
}
  0
LINE
  5
23758
  8
0
 10
2608.752819362759
 20
-507.5732758898881
 30
0.0
 11
2608.752819362759
 21
-474.1043648031335
 31
0.0
  0
LINE
  5
23759
  8
0
 10
2608.752819362759
 20
-474.1043648031335
 30
0.0
 11
2607.002819362759
 21
-467.5732758898881
 31
0.0
  0
LINE
  5
2375A
  8
0
 10
2607.002819362759
 20
-467.5732758898881
 30
0.0
 11
2605.252819362759
 21
-474.1043648031336
 31
0.0
  0
LINE
  5
2375B
  8
0
 10
2605.252819362759
 20
-474.1043648031336
 30
0.0
 11
2605.252819362759
 21
-507.5732758898881
 31
0.0
  0
LINE
  5
2375C
  8
0
 10
2605.252819362759
 20
-507.5732758898881
 30
0.0
 11
2602.502819362759
 21
-507.5732758898881
 31
0.0
  0
LINE
  5
2375D
  8
0
 10
2602.502819362759
 20
-507.5732758898881
 30
0.0
 11
2602.502819362759
 21
-508.3732758898881
 31
0.0
  0
ARC
  5
2375E
  8
0
 10
2605.002819362759
 20
-508.3732758898881
 30
0.0
 40
2.5
 50
180.0
 51
270.0
  0
LINE
  5
2375F
  8
0
 10
2605.002819362759
 20
-510.8732758898881
 30
0.0
 11
2609.002819362759
 21
-510.8732758898881
 31
0.0
  0
ARC
  5
23760
  8
0
 10
2609.002819362759
 20
-508.3732758898881
 30
0.0
 40
2.5
 50
270.0
 51
0.0000000000039083
  0
LINE
  5
23761
  8
0
 10
2611.502819362759
 20
-508.3732758898879
 30
0.0
 11
2611.502819362759
 21
-507.5732758898881
 31
0.0
  0
LINE
  5
23762
  8
0
 10
2611.502819362759
 20
-507.5732758898881
 30
0.0
 11
2608.752819362759
 21
-507.5732758898881
 31
0.0
  0
LINE
  5
23763
  8
0
 10
2543.752819362762
 20
-507.5732758898881
 30
0.0
 11
2543.752819362762
 21
-474.1043648031335
 31
0.0
  0
LINE
  5
23764
  8
0
 10
2543.752819362762
 20
-474.1043648031335
 30
0.0
 11
2542.002819362762
 21
-467.5732758898881
 31
0.0
  0
LINE
  5
23765
  8
0
 10
2542.002819362762
 20
-467.5732758898881
 30
0.0
 11
2540.252819362762
 21
-474.1043648031336
 31
0.0
  0
LINE
  5
23766
  8
0
 10
2540.252819362762
 20
-474.1043648031336
 30
0.0
 11
2540.252819362762
 21
-507.5732758898881
 31
0.0
  0
LINE
  5
23767
  8
0
 10
2540.252819362762
 20
-507.5732758898881
 30
0.0
 11
2537.502819362762
 21
-507.5732758898881
 31
0.0
  0
LINE
  5
23768
  8
0
 10
2537.502819362762
 20
-507.5732758898881
 30
0.0
 11
2537.502819362762
 21
-508.3732758898881
 31
0.0
  0
ARC
  5
23769
  8
0
 10
2540.002819362762
 20
-508.3732758898881
 30
0.0
 40
2.5
 50
180.0
 51
270.0
  0
LINE
  5
2376A
  8
0
 10
2540.002819362762
 20
-510.8732758898881
 30
0.0
 11
2544.002819362762
 21
-510.8732758898881
 31
0.0
  0
ARC
  5
2376B
  8
0
 10
2544.002819362762
 20
-508.3732758898881
 30
0.0
 40
2.5
 50
270.0
 51
0.0000000000039083
  0
LINE
  5
2376C
  8
0
 10
2546.502819362762
 20
-508.3732758898879
 30
0.0
 11
2546.502819362762
 21
-507.5732758898881
 31
0.0
  0
LINE
  5
2376D
  8
0
 10
2546.502819362762
 20
-507.5732758898881
 30
0.0
 11
2543.752819362762
 21
-507.5732758898881
 31
0.0
  0
LINE
  5
2376E
  8
0
 10
2670.252819362755
 20
-474.1043648031335
 30
0.0
 11
2670.252819362755
 21
-507.5732758898881
 31
0.0
  0
LINE
  5
2376F
  8
0
 10
2670.252819362755
 20
-507.5732758898881
 30
0.0
 11
2667.502819362755
 21
-507.5732758898881
 31
0.0
  0
LINE
  5
23770
  8
0
 10
2667.502819362755
 20
-507.5732758898881
 30
0.0
 11
2667.502819362755
 21
-508.3732758898879
 31
0.0
  0
ARC
  5
23771
  8
0
 10
2670.002819362755
 20
-508.3732758898881
 30
0.0
 40
2.5
 50
179.9999999999948
 51
270.0
  0
LINE
  5
23772
  8
0
 10
2670.002819362755
 20
-510.8732758898881
 30
0.0
 11
2674.002819362755
 21
-510.8732758898881
 31
0.0
  0
ARC
  5
23773
  8
0
 10
2674.002819362755
 20
-508.3732758898881
 30
0.0
 40
2.5
 50
270.0
 51
0.0
  0
LINE
  5
23774
  8
0
 10
2676.502819362755
 20
-508.3732758898881
 30
0.0
 11
2676.502819362755
 21
-507.5732758898881
 31
0.0
  0
LINE
  5
23775
  8
0
 10
2676.502819362755
 20
-507.5732758898881
 30
0.0
 11
2673.752819362755
 21
-507.5732758898881
 31
0.0
  0
LINE
  5
23776
  8
0
 10
2673.752819362755
 20
-507.5732758898881
 30
0.0
 11
2673.752819362755
 21
-474.1043648031336
 31
0.0
  0
LINE
  5
23777
  8
0
 10
2673.752819362755
 20
-474.1043648031336
 30
0.0
 11
2672.002819362755
 21
-467.5732758898881
 31
0.0
  0
LINE
  5
23778
  8
0
 10
2672.002819362755
 20
-467.5732758898881
 30
0.0
 11
2670.252819362755
 21
-474.1043648031335
 31
0.0
  0
LINE
  5
23779
  8
0
 10
2916.46249082296
 20
-636.4258857444038
 30
0.0
 11
2882.993579736205
 21
-636.4258857444038
 31
0.0
  0
LINE
  5
2377A
  8
0
 10
2882.993579736205
 20
-636.4258857444038
 30
0.0
 11
2882.993579736205
 21
-633.6758857444038
 31
0.0
  0
LINE
  5
2377B
  8
0
 10
2882.993579736205
 20
-633.6758857444038
 30
0.0
 11
2882.193579736205
 21
-633.6758857444038
 31
0.0
  0
ARC
  5
2377C
  8
0
 10
2882.193579736205
 20
-636.1758857444038
 30
0.0
 40
2.5
 50
89.99999999998958
 51
180.0
  0
LINE
  5
2377D
  8
0
 10
2879.693579736205
 20
-636.1758857444038
 30
0.0
 11
2879.693579736205
 21
-640.1758857444038
 31
0.0
  0
ARC
  5
2377E
  8
0
 10
2882.193579736205
 20
-640.1758857444038
 30
0.0
 40
2.5
 50
180.0
 51
270.0
  0
LINE
  5
2377F
  8
0
 10
2882.193579736205
 20
-642.6758857444038
 30
0.0
 11
2882.993579736205
 21
-642.6758857444038
 31
0.0
  0
LINE
  5
23780
  8
0
 10
2882.993579736205
 20
-642.6758857444038
 30
0.0
 11
2882.993579736205
 21
-639.9258857444038
 31
0.0
  0
LINE
  5
23781
  8
0
 10
2882.993579736205
 20
-639.9258857444038
 30
0.0
 11
2916.462490822959
 21
-639.9258857444038
 31
0.0
  0
LINE
  5
23782
  8
0
 10
2916.462490822959
 20
-639.9258857444038
 30
0.0
 11
2922.993579736205
 21
-638.1758857444038
 31
0.0
  0
LINE
  5
23783
  8
0
 10
2922.993579736205
 20
-638.1758857444038
 30
0.0
 11
2916.46249082296
 21
-636.4258857444038
 31
0.0
  0
LINE
  5
23784
  8
0
  6
BYBLOCK
 10
2931.954034586753
 20
-631.1758852809726
 30
0.0
 11
2932.489932966753
 21
-629.1758852809726
 31
0.0
  0
LINE
  5
23785
  8
0
  6
BYBLOCK
 10
2932.489932966753
 20
-629.1758852809726
 30
0.0
 11
2933.025831346753
 21
-631.1758852809726
 31
0.0
  0
LINE
  5
23786
  8
0
  6
BYBLOCK
 10
2932.489932966753
 20
-629.1758852809726
 30
0.0
 11
2932.489932966753
 21
-631.1758852809726
 31
0.0
  0
LINE
  5
23787
  8
0
  6
BYBLOCK
 10
2933.025831346753
 20
-636.1758857444038
 30
0.0
 11
2932.489932966753
 21
-638.1758857444038
 31
0.0
  0
LINE
  5
23788
  8
0
  6
BYBLOCK
 10
2932.489932966753
 20
-638.1758857444038
 30
0.0
 11
2931.954034586753
 21
-636.1758857444038
 31
0.0
  0
LINE
  5
23789
  8
0
  6
BYBLOCK
 10
2932.489932966753
 20
-638.1758857444038
 30
0.0
 11
2932.489932966753
 21
-636.1758857444038
 31
0.0
  0
TEXT
  5
2378A
  8
1DIM
  6
CONTINUOUS
 10
2931.789932966753
 20
-634.844172549725
 30
0.0
 40
3.5
  1
9
 50
90.0
  0
LINE
  5
2378B
  8
0
  6
BYBLOCK
 10
2942.957681356205
 20
-631.1758852809719
 30
0.0
 11
2943.493579736205
 21
-629.1758852809719
 31
0.0
  0
LINE
  5
2378C
  8
0
  6
BYBLOCK
 10
2943.493579736205
 20
-629.1758852809719
 30
0.0
 11
2944.029478116205
 21
-631.1758852809719
 31
0.0
  0
LINE
  5
2378D
  8
0
  6
BYBLOCK
 10
2943.493579736205
 20
-629.1758852809719
 30
0.0
 11
2943.493579736205
 21
-631.1758852809719
 31
0.0
  0
LINE
  5
2378E
  8
0
  6
BYBLOCK
 10
2944.029478116205
 20
-650.1758852809662
 30
0.0
 11
2943.493579736205
 21
-652.1758852809662
 31
0.0
  0
LINE
  5
2378F
  8
0
  6
BYBLOCK
 10
2943.493579736205
 20
-652.1758852809662
 30
0.0
 11
2942.957681356205
 21
-650.1758852809662
 31
0.0
  0
LINE
  5
23790
  8
0
  6
BYBLOCK
 10
2943.493579736205
 20
-652.1758852809662
 30
0.0
 11
2943.493579736205
 21
-650.1758852809662
 31
0.0
  0
TEXT
  5
23791
  8
1DIM
  6
CONTINUOUS
 10
2942.793579736205
 20
-643.5925519476355
 30
0.0
 40
3.5
  1
23
 50
90.0
  0
LINE
  5
23792
  8
0
  6
BYBLOCK
 10
2809.293579736205
 20
-705.8088028699086
 30
0.0
 11
2807.293579736205
 21
-705.2729044899086
 31
0.0
  0
LINE
  5
23793
  8
0
  6
BYBLOCK
 10
2807.293579736205
 20
-705.2729044899086
 30
0.0
 11
2809.293579736205
 21
-704.7370061099085
 31
0.0
  0
LINE
  5
23794
  8
0
  6
BYBLOCK
 10
2807.293579736205
 20
-705.2729044899086
 30
0.0
 11
2809.293579736205
 21
-705.2729044899086
 31
0.0
  0
LINE
  5
23795
  8
0
  6
BYBLOCK
 10
2886.293579736205
 20
-704.7370061099085
 30
0.0
 11
2888.293579736205
 21
-705.2729044899086
 31
0.0
  0
LINE
  5
23796
  8
0
  6
BYBLOCK
 10
2888.293579736205
 20
-705.2729044899086
 30
0.0
 11
2886.293579736205
 21
-705.8088028699086
 31
0.0
  0
LINE
  5
23797
  8
0
  6
BYBLOCK
 10
2888.293579736205
 20
-705.2729044899086
 30
0.0
 11
2886.293579736205
 21
-705.2729044899086
 31
0.0
  0
TEXT
  5
23798
  8
1DIM
  6
CONTINUOUS
 10
2845.460246402872
 20
-704.5729044899085
 30
0.0
 40
3.5
  1
81
  0
LINE
  5
23799
  8
0
 10
2830.260970339562
 20
-511.7571171219686
 30
0.0
 11
2830.260970339562
 21
-500.7123764633396
 31
0.0
  0
LINE
  5
2379A
  8
0
 10
2830.260970339562
 20
-500.7123764633396
 30
0.0
 11
2829.683470339562
 21
-498.5571171219686
 31
0.0
  0
LINE
  5
2379B
  8
0
 10
2829.683470339562
 20
-498.5571171219686
 30
0.0
 11
2829.105970339562
 21
-500.7123764633396
 31
0.0
  0
LINE
  5
2379C
  8
0
 10
2829.105970339562
 20
-500.7123764633396
 30
0.0
 11
2829.105970339562
 21
-511.7571171219686
 31
0.0
  0
LINE
  5
2379D
  8
0
 10
2829.105970339562
 20
-511.7571171219686
 30
0.0
 11
2828.198470339562
 21
-511.7571171219686
 31
0.0
  0
LINE
  5
2379E
  8
0
 10
2828.198470339562
 20
-511.7571171219686
 30
0.0
 11
2828.198470339562
 21
-512.0211171219686
 31
0.0
  0
ARC
  5
2379F
  8
0
 10
2829.023470339562
 20
-512.0211171219686
 30
0.0
 40
0.8250000000000001
 50
180.0
 51
270.0
  0
LINE
  5
237A0
  8
0
 10
2829.023470339562
 20
-512.8461171219685
 30
0.0
 11
2830.343470339562
 21
-512.8461171219685
 31
0.0
  0
ARC
  5
237A1
  8
0
 10
2830.343470339562
 20
-512.0211171219686
 30
0.0
 40
0.8250000000000001
 50
270.0
 51
0.0000000000078955
  0
LINE
  5
237A2
  8
0
 10
2831.168470339562
 20
-512.0211171219685
 30
0.0
 11
2831.168470339562
 21
-511.7571171219686
 31
0.0
  0
LINE
  5
237A3
  8
0
 10
2831.168470339562
 20
-511.7571171219686
 30
0.0
 11
2830.260970339562
 21
-511.7571171219686
 31
0.0
  0
LINE
  5
237A4
  8
0
 10
2808.810970339563
 20
-511.7571171219686
 30
0.0
 11
2808.810970339563
 21
-500.7123764633396
 31
0.0
  0
LINE
  5
237A5
  8
0
 10
2808.810970339563
 20
-500.7123764633396
 30
0.0
 11
2808.233470339563
 21
-498.5571171219686
 31
0.0
  0
LINE
  5
237A6
  8
0
 10
2808.233470339563
 20
-498.5571171219686
 30
0.0
 11
2807.655970339563
 21
-500.7123764633396
 31
0.0
  0
LINE
  5
237A7
  8
0
 10
2807.655970339563
 20
-500.7123764633396
 30
0.0
 11
2807.655970339563
 21
-511.7571171219686
 31
0.0
  0
LINE
  5
237A8
  8
0
 10
2807.655970339563
 20
-511.7571171219686
 30
0.0
 11
2806.748470339563
 21
-511.7571171219686
 31
0.0
  0
LINE
  5
237A9
  8
0
 10
2806.748470339563
 20
-511.7571171219686
 30
0.0
 11
2806.748470339563
 21
-512.0211171219686
 31
0.0
  0
ARC
  5
237AA
  8
0
 10
2807.573470339563
 20
-512.0211171219686
 30
0.0
 40
0.8250000000000001
 50
180.0
 51
270.0
  0
LINE
  5
237AB
  8
0
 10
2807.573470339563
 20
-512.8461171219685
 30
0.0
 11
2808.893470339563
 21
-512.8461171219685
 31
0.0
  0
ARC
  5
237AC
  8
0
 10
2808.893470339563
 20
-512.0211171219686
 30
0.0
 40
0.8250000000000001
 50
270.0
 51
0.0000000000078955
  0
LINE
  5
237AD
  8
0
 10
2809.718470339563
 20
-512.0211171219685
 30
0.0
 11
2809.718470339563
 21
-511.7571171219686
 31
0.0
  0
LINE
  5
237AE
  8
0
 10
2809.718470339563
 20
-511.7571171219686
 30
0.0
 11
2808.810970339563
 21
-511.7571171219686
 31
0.0
  0
LINE
  5
237AF
  8
0
 10
2850.555970339561
 20
-500.7123764633396
 30
0.0
 11
2850.555970339561
 21
-511.7571171219686
 31
0.0
  0
LINE
  5
237B0
  8
0
 10
2850.555970339561
 20
-511.7571171219686
 30
0.0
 11
2849.64847033956
 21
-511.7571171219686
 31
0.0
  0
LINE
  5
237B1
  8
0
 10
2849.64847033956
 20
-511.7571171219686
 30
0.0
 11
2849.64847033956
 21
-512.0211171219685
 31
0.0
  0
ARC
  5
237B2
  8
0
 10
2850.473470339561
 20
-512.0211171219686
 30
0.0
 40
0.8250000000000001
 50
179.9999999999921
 51
270.0
  0
LINE
  5
237B3
  8
0
 10
2850.473470339561
 20
-512.8461171219685
 30
0.0
 11
2851.79347033956
 21
-512.8461171219685
 31
0.0
  0
ARC
  5
237B4
  8
0
 10
2851.79347033956
 20
-512.0211171219686
 30
0.0
 40
0.8250000000000001
 50
270.0
 51
0.0
  0
LINE
  5
237B5
  8
0
 10
2852.618470339561
 20
-512.0211171219686
 30
0.0
 11
2852.618470339561
 21
-511.7571171219686
 31
0.0
  0
LINE
  5
237B6
  8
0
 10
2852.618470339561
 20
-511.7571171219686
 30
0.0
 11
2851.71097033956
 21
-511.7571171219686
 31
0.0
  0
LINE
  5
237B7
  8
0
 10
2851.71097033956
 20
-511.7571171219686
 30
0.0
 11
2851.71097033956
 21
-500.7123764633396
 31
0.0
  0
LINE
  5
237B8
  8
0
 10
2851.71097033956
 20
-500.7123764633396
 30
0.0
 11
2851.133470339561
 21
-498.5571171219686
 31
0.0
  0
LINE
  5
237B9
  8
0
 10
2851.133470339561
 20
-498.5571171219686
 30
0.0
 11
2850.555970339561
 21
-500.7123764633396
 31
0.0
  0
LINE
  5
237BA
  8
0
  6
BYBLOCK
 10
2763.466920982762
 20
-504.2732756898892
 30
0.0
 11
2764.002819362762
 21
-502.2732756898892
 31
0.0
  0
LINE
  5
237BB
  8
0
  6
BYBLOCK
 10
2764.002819362762
 20
-502.2732756898892
 30
0.0
 11
2764.538717742762
 21
-504.2732756898892
 31
0.0
  0
LINE
  5
237BC
  8
0
  6
BYBLOCK
 10
2764.002819362762
 20
-502.2732756898892
 30
0.0
 11
2764.002819362762
 21
-504.2732756898892
 31
0.0
  0
LINE
  5
237BD
  8
0
  6
BYBLOCK
 10
2764.538717742762
 20
-603.2732756898886
 30
0.0
 11
2764.002819362762
 21
-605.2732756898886
 31
0.0
  0
LINE
  5
237BE
  8
0
  6
BYBLOCK
 10
2764.002819362762
 20
-605.2732756898886
 30
0.0
 11
2763.466920982762
 21
-603.2732756898886
 31
0.0
  0
LINE
  5
237BF
  8
0
  6
BYBLOCK
 10
2764.002819362762
 20
-605.2732756898886
 30
0.0
 11
2764.002819362762
 21
-603.2732756898886
 31
0.0
  0
TEXT
  5
237C0
  8
1DIM
  6
CONTINUOUS
 10
2763.302819362762
 20
-557.5649423565555
 30
0.0
 40
3.5
  1
103
 50
90.0
  0
LINE
  5
237C1
  8
0
  6
BYBLOCK
 10
2784.822539949851
 20
-595.1458344583053
 30
0.0
 11
2782.822539949851
 21
-594.6099360783053
 31
0.0
  0
LINE
  5
237C2
  8
0
  6
BYBLOCK
 10
2782.822539949851
 20
-594.6099360783053
 30
0.0
 11
2784.822539949851
 21
-594.0740376983052
 31
0.0
  0
LINE
  5
237C3
  8
0
  6
BYBLOCK
 10
2782.822539949851
 20
-594.6099360783053
 30
0.0
 11
2784.822539949851
 21
-594.6099360783053
 31
0.0
  0
LINE
  5
237C4
  8
0
  6
BYBLOCK
 10
2874.544400729274
 20
-594.0740376983052
 30
0.0
 11
2876.544400729274
 21
-594.6099360783053
 31
0.0
  0
LINE
  5
237C5
  8
0
  6
BYBLOCK
 10
2876.544400729274
 20
-594.6099360783053
 30
0.0
 11
2874.544400729274
 21
-595.1458344583053
 31
0.0
  0
LINE
  5
237C6
  8
0
  6
BYBLOCK
 10
2876.544400729274
 20
-594.6099360783053
 30
0.0
 11
2874.544400729274
 21
-594.6099360783053
 31
0.0
  0
TEXT
  5
237C7
  8
1DIM
  6
CONTINUOUS
 10
2825.016803672896
 20
-593.9099360783052
 30
0.0
 40
3.5
  1
284
1001
ACAD
1000
DSTYLE
1002
{
1070
   340
1005
F
1070
    70
1070
     0
1070
    69
1070
     0
1002
}
  0
LINE
  5
237C8
  8
0
  6
BYBLOCK
 10
2810.233470339562
 20
-588.8534279380083
 30
0.0
 11
2808.233470339562
 21
-588.3175295580082
 31
0.0
  0
LINE
  5
237C9
  8
0
  6
BYBLOCK
 10
2808.233470339562
 20
-588.3175295580082
 30
0.0
 11
2810.233470339562
 21
-587.7816311780082
 31
0.0
  0
LINE
  5
237CA
  8
0
  6
BYBLOCK
 10
2808.233470339562
 20
-588.3175295580082
 30
0.0
 11
2810.233470339562
 21
-588.3175295580082
 31
0.0
  0
LINE
  5
237CB
  8
0
  6
BYBLOCK
 10
2849.13347033956
 20
-587.7816311780082
 30
0.0
 11
2851.13347033956
 21
-588.3175295580082
 31
0.0
  0
LINE
  5
237CC
  8
0
  6
BYBLOCK
 10
2851.13347033956
 20
-588.3175295580082
 30
0.0
 11
2849.13347033956
 21
-588.8534279380083
 31
0.0
  0
LINE
  5
237CD
  8
0
  6
BYBLOCK
 10
2851.13347033956
 20
-588.3175295580082
 30
0.0
 11
2849.13347033956
 21
-588.3175295580082
 31
0.0
  0
TEXT
  5
237CE
  8
1DIM
  6
CONTINUOUS
 10
2824.068887006228
 20
-587.6175295580082
 30
0.0
 40
3.5
  1
P130
1001
ACAD
1000
DSTYLE
1002
{
1070
   340
1005
F
1070
    70
1070
     0
1070
    69
1070
     0
1002
}
  0
LINE
  5
237CF
  8
0
  6
BYBLOCK
 10
2810.233470339562
 20
-581.6034279380083
 30
0.0
 11
2808.233470339562
 21
-581.0675295580082
 31
0.0
  0
LINE
  5
237D0
  8
0
  6
BYBLOCK
 10
2808.233470339562
 20
-581.0675295580082
 30
0.0
 11
2810.233470339562
 21
-580.5316311780082
 31
0.0
  0
LINE
  5
237D1
  8
0
  6
BYBLOCK
 10
2808.233470339562
 20
-581.0675295580082
 30
0.0
 11
2810.233470339562
 21
-581.0675295580082
 31
0.0
  0
LINE
  5
237D2
  8
0
  6
BYBLOCK
 10
2827.683470339562
 20
-580.5316311780082
 30
0.0
 11
2829.683470339562
 21
-581.0675295580082
 31
0.0
  0
LINE
  5
237D3
  8
0
  6
BYBLOCK
 10
2829.683470339562
 20
-581.0675295580082
 30
0.0
 11
2827.683470339562
 21
-581.6034279380083
 31
0.0
  0
LINE
  5
237D4
  8
0
  6
BYBLOCK
 10
2829.683470339562
 20
-581.0675295580082
 30
0.0
 11
2827.683470339562
 21
-581.0675295580082
 31
0.0
  0
TEXT
  5
237D5
  8
1DIM
  6
CONTINUOUS
 10
2814.279650895118
 20
-580.3675295580083
 30
0.0
 40
3.5
  1
P65
1001
ACAD
1000
DSTYLE
1002
{
1070
   340
1005
F
1070
    70
1070
     0
1070
    69
1070
     0
1002
}
  0
LINE
  5
237D6
  8
0
  6
BYBLOCK
 10
2849.133470339561
 20
-580.5316311780082
 30
0.0
 11
2851.133470339561
 21
-581.0675295580082
 31
0.0
  0
LINE
  5
237D7
  8
0
  6
BYBLOCK
 10
2851.133470339561
 20
-581.0675295580082
 30
0.0
 11
2849.133470339561
 21
-581.6034279380083
 31
0.0
  0
LINE
  5
237D8
  8
0
  6
BYBLOCK
 10
2851.133470339561
 20
-581.0675295580082
 30
0.0
 11
2849.133470339561
 21
-581.0675295580082
 31
0.0
  0
LINE
  5
237D9
  8
0
  6
BYBLOCK
 10
2831.683470339562
 20
-581.6034279380083
 30
0.0
 11
2829.683470339562
 21
-581.0675295580082
 31
0.0
  0
LINE
  5
237DA
  8
0
  6
BYBLOCK
 10
2829.683470339562
 20
-581.0675295580082
 30
0.0
 11
2831.683470339562
 21
-580.5316311780082
 31
0.0
  0
LINE
  5
237DB
  8
0
  6
BYBLOCK
 10
2829.683470339562
 20
-581.0675295580082
 30
0.0
 11
2831.683470339562
 21
-581.0675295580082
 31
0.0
  0
TEXT
  5
237DC
  8
1DIM
  6
CONTINUOUS
 10
2835.729650895117
 20
-580.3675295580083
 30
0.0
 40
3.5
  1
P65
1001
ACAD
1000
DSTYLE
1002
{
1070
   340
1005
F
1070
    70
1070
     0
1070
    69
1070
     0
1002
}
  0
VIEWPORT
  5
57
 67
     1
  8
0
 10
0.0
 20
0.0
 30
0.0
 40
616.3056179104477
 41
292.026
 68
     1
 69
     1
1001
ACAD
1000
MVIEW
1002
{
1070
    16
1010
0.0
1020
0.0
1030
0.0
1010
0.0
1020
0.0
1030
1.0
1040
0.0
1040
292.026
1040
-8.921999999925418
1040
7.489032109769553
1040
50.0
1040
0.0
1040
0.0
1070
    16
1070
   100
1070
     0
1070
     1
1070
     0
1070
     0
1070
     0
1070
     0
1040
0.0
1040
0.0
1040
0.0
1040
10.0
1040
10.0
1040
10.0
1040
10.0
1070
     0
1002
{
1002
}
1002
}
  0
ENDSEC
  0
EOF
