  0
SECTION
  2
HEADER
  9
$ACADVER
  1
AC1009
  9
$DWGCODEPAGE
  3
ansi_932
  9
$INSBASE
 10
0.0
 20
0.0
 30
0.0
  9
$EXTMIN
 10
160.0161583846346
 20
-733.997530806712
 30
0.0
  9
$EXTMAX
 10
778.9204412890468
 20
-475.6858550066087
 30
0.0
  9
$LIMMIN
 10
0.0
 20
0.0
  9
$LIMMAX
 10
420.0
 20
297.0
  9
$ORTHOMODE
 70
     0
  9
$REGENMODE
 70
     1
  9
$FILLMODE
 70
     1
  9
$QTEXTMODE
 70
     0
  9
$MIRRTEXT
 70
     0
  9
$DRAGMODE
 70
     2
  9
$LTSCALE
 40
0.5
  9
$OSMODE
 70
  6399
  9
$ATTMODE
 70
     1
  9
$TEXTSIZE
 40
4.0
  9
$TRACEWID
 40
1.0
  9
$TEXTSTYLE
  7
STANDARD
  9
$CLAYER
  8
1TEXT
  9
$CELTYPE
  6
BYLAYER
  9
$CECOLOR
 62
   256
  9
$DIMSCALE
 40
1.0
  9
$DIMASZ
 40
2.0
  9
$DIMEXO
 40
0.0
  9
$DIMDLI
 40
7.0
  9
$DIMRND
 40
0.0
  9
$DIMDLE
 40
0.0
  9
$DIMEXE
 40
1.0
  9
$DIMTP
 40
0.0
  9
$DIMTM
 40
0.0
  9
$DIMTXT
 40
3.5
  9
$DIMCEN
 40
0.0
  9
$DIMTSZ
 40
0.0
  9
$DIMTOL
 70
     0
  9
$DIMLIM
 70
     0
  9
$DIMTIH
 70
     0
  9
$DIMTOH
 70
     0
  9
$DIMSE1
 70
     0
  9
$DIMSE2
 70
     0
  9
$DIMTAD
 70
     1
  9
$DIMZIN
 70
     8
  9
$DIMBLK
  1

  9
$DIMASO
 70
     1
  9
$DIMSHO
 70
     1
  9
$DIMPOST
  1
 
  9
$DIMAPOST
  1

  9
$DIMALT
 70
     0
  9
$DIMALTD
 70
     2
  9
$DIMALTF
 40
25.4
  9
$DIMLFAC
 40
1.0
  9
$DIMTOFL
 70
     1
  9
$DIMTVP
 40
0.0
  9
$DIMTIX
 70
     0
  9
$DIMSOXD
 70
     0
  9
$DIMSAH
 70
     1
  9
$DIMBLK1
  1
OPEN30
  9
$DIMBLK2
  1
OPEN30
  9
$DIMSTYLE
  2
NEWX10
  9
$DIMCLRD
 70
   256
  9
$DIMCLRE
 70
   256
  9
$DIMCLRT
 70
   201
  9
$DIMTFAC
 40
0.7
  9
$DIMGAP
 40
0.7
  9
$LUNITS
 70
     2
  9
$LUPREC
 70
     4
  9
$SKETCHINC
 40
1.0
  9
$FILLETRAD
 40
0.0
  9
$AUNITS
 70
     0
  9
$AUPREC
 70
     2
  9
$MENU
  1
acad
  9
$ELEVATION
 40
0.0
  9
$PELEVATION
 40
0.0
  9
$THICKNESS
 40
0.0
  9
$LIMCHECK
 70
     0
  9
$CHAMFERA
 40
1.0
  9
$CHAMFERB
 40
1.0
  9
$SKPOLY
 70
     0
  9
$TDCREATE
 40
2453033.732663484
  9
$TDUPDATE
 40
2460209.376905602
  9
$TDINDWG
 40
5.7655498611
  9
$TDUSRTIMER
 40
5.7655498727
  9
$USRTIMER
 70
     1
  9
$ANGBASE
 50
0.0
  9
$ANGDIR
 70
     0
  9
$PDMODE
 70
     0
  9
$PDSIZE
 40
0.0
  9
$PLINEWID
 40
0.0
  9
$COORDS
 70
     2
  9
$SPLFRAME
 70
     0
  9
$SPLINETYPE
 70
     6
  9
$SPLINESEGS
 70
     8
  9
$ATTDIA
 70
     0
  9
$ATTREQ
 70
     1
  9
$HANDLING
 70
     1
  9
$HANDSEED
  5
25528
  9
$SURFTAB1
 70
     6
  9
$SURFTAB2
 70
     6
  9
$SURFTYPE
 70
     6
  9
$SURFU
 70
     6
  9
$SURFV
 70
     6
  9
$UCSNAME
  2

  9
$UCSORG
 10
0.0
 20
0.0
 30
0.0
  9
$UCSXDIR
 10
1.0
 20
0.0
 30
0.0
  9
$UCSYDIR
 10
0.0
 20
1.0
 30
0.0
  9
$PUCSNAME
  2

  9
$PUCSORG
 10
0.0
 20
0.0
 30
0.0
  9
$PUCSXDIR
 10
1.0
 20
0.0
 30
0.0
  9
$PUCSYDIR
 10
0.0
 20
1.0
 30
0.0
  9
$USERI1
 70
     0
  9
$USERI2
 70
     0
  9
$USERI3
 70
     0
  9
$USERI4
 70
     0
  9
$USERI5
 70
     0
  9
$USERR1
 40
0.0
  9
$USERR2
 40
0.0
  9
$USERR3
 40
0.0
  9
$USERR4
 40
0.0
  9
$USERR5
 40
0.0
  9
$WORLDVIEW
 70
     1
  9
$SHADEDGE
 70
     3
  9
$SHADEDIF
 70
    70
  9
$TILEMODE
 70
     1
  9
$MAXACTVP
 70
    48
  9
$PLIMCHECK
 70
     0
  9
$PEXTMIN
 10
1.000000000000000E+20
 20
1.000000000000000E+20
 30
1.000000000000000E+20
  9
$PEXTMAX
 10
-1.000000000000000E+20
 20
-1.000000000000000E+20
 30
-1.000000000000000E+20
  9
$PLIMMIN
 10
0.0
 20
0.0
  9
$PLIMMAX
 10
420.0
 20
297.0
  9
$UNITMODE
 70
     0
  9
$VISRETAIN
 70
     1
  9
$PLINEGEN
 70
     0
  9
$PSLTSCALE
 70
     1
  0
ENDSEC
  0
SECTION
  2
TABLES
  0
TABLE
  2
VPORT
 70
     1
  0
VPORT
  2
*ACTIVE
 70
     0
 10
0.0
 20
0.0
 11
1.0
 21
1.0
 12
469.4682998368406
 22
-604.8416929066603
 13
0.0
 23
0.0
 14
10.0
 24
10.0
 15
10.0
 25
10.0
 16
0.0
 26
0.0
 36
1.0
 17
0.0
 27
0.0
 37
0.0
 40
377.7889998575931
 41
1.758938869665513
 42
50.0
 43
0.0
 44
0.0
 50
0.0
 51
0.0
 71
    16
 72
   100
 73
     1
 74
     1
 75
     0
 76
     0
 77
     0
 78
     0
  0
ENDTAB
  0
TABLE
  2
LTYPE
 70
    18
  0
LTYPE
  2
CONTINUOUS
 70
     0
  3
Solid line
 72
    65
 73
     0
 40
0.0
  0
LTYPE
  2
CENTER2
 70
     0
  3
Center (.5x) ___ _ ___ _ ___ _ ___ _ ___ _ ___
 72
    65
 73
     4
 40
28.575
 49
19.05
 49
-3.175
 49
3.175
 49
-3.175
  0
LTYPE
  2
HIDDEN
 70
     0
  3
Hidden __ __ __ __ __ __ __ __ __ __ __ __ __ _
 72
    65
 73
     2
 40
9.524999999999999
 49
6.35
 49
-3.175
  0
LTYPE
  2
PHANTOM2
 70
     0
  3
Phantom (0.5x) ___ _ _ ___ _ _ ___ _ _ ___ _ _
 72
    65
 73
     6
 40
31.75
 49
15.875
 49
-3.175
 49
3.175
 49
-3.175
 49
3.175
 49
-3.175
  0
ENDTAB
  0
TABLE
  2
LAYER
 70
    47
  0
LAYER
  2
0
 70
     0
 62
     7
  6
CONTINUOUS
  0
LAYER
  2
1CENTER
 70
     0
 62
     7
  6
CENTER2
  0
LAYER
  2
1TEXT
 70
     0
 62
     7
  6
CONTINUOUS
  0
LAYER
  2
1DIM
 70
     0
 62
     7
  6
CONTINUOUS
  0
LAYER
  2
1HIDDEN
 70
     0
 62
     7
  6
HIDDEN
  0
LAYER
  2
1PHANTOM
 70
     0
 62
     7
  6
PHANTOM2
  0
LAYER
  2
01
 70
     0
 62
     1
  6
CONTINUOUS
  0
LAYER
  2
1DIM1
 70
     0
 62
     7
  6
CONTINUOUS
  0
LAYER
  2
1HATCH
 70
     0
 62
     7
  6
CONTINUOUS
  0
ENDTAB
  0
TABLE
  2
STYLE
 70
    25
  0
STYLE
  2
STANDARD
 70
     0
 40
0.0
 41
1.0
 50
0.0
 71
     0
 42
4.0
  3
txt.shx
  4
extfont.shx
  0
ENDTAB
  0
TABLE
  2
VIEW
 70
     0
  0
ENDTAB
  0
TABLE
  2
UCS
 70
     0
  0
ENDTAB
  0
TABLE
  2
APPID
 70
    17
  0
APPID
  2
ACAD
 70
     0
  0
APPID
  2
DRAWINGVARIABLESXDATA
 70
     0
  0
APPID
  2
CONTENTTABDATA
 70
     0
  0
APPID
  2
CONTENTCURRENTTAB
 70
     0
  0
APPID
  2
CONTENTBLOCKDESCRIPTION
 70
     0
  0
APPID
  2
CONTENTBLOCKICON
 70
     0
  0
APPID
  2
CONTENTLONGBLOCKNAME
 70
     0
  0
APPID
  2
ACAD_PSEXT
 70
     0
  0
APPID
  2
ACAD_DSTYLE_DIMTEXT_FILL
 70
     0
  0
APPID
  2
ACAD_MLEADERVER
 70
     0
  0
APPID
  2
ACAD_DSTYLE_DIMRADIAL_EXTE
 70
     0
  0
APPID
  2
ACADANNOTATIVE
 70
     0
  0
APPID
  2
ACAD_EXEMPT_FROM_CAD_STAND
 70
     0
  0
APPID
  2
ACDBBLOCKREPETAG
 70
     0
  0
APPID
  2
ACAD_OBJECT_CHANGE_GUID
 70
     0
  0
APPID
  2
ACAD_NAV_VCDISPLAY
 70
     0
  0
APPID
  2
ACLAYERTOOLS
 70
     0
  0
ENDTAB
  0
TABLE
  2
DIMSTYLE
 70
    11
  0
DIMSTYLE
  2
NEWX10
 70
     0
  3
 
  4

  5

  6
OPEN30
  7
OPEN30
 40
1.0
 41
2.0
 42
0.0
 43
7.0
 44
1.0
 45
0.0
 46
0.0
 47
0.0
 48
0.0
140
3.5
141
0.0
142
0.0
143
25.4
144
1.0
145
0.0
146
0.7
147
0.7
 71
     0
 72
     0
 73
     0
 74
     0
 75
     0
 76
     0
 77
     1
 78
     8
170
     0
171
     2
172
     1
173
     1
174
     0
175
     0
176
   256
177
   256
178
   201
  0
DIMSTYLE
  2
ISO-25
 70
     0
  3

  4

  5

  6

  7

 40
1.0
 41
20.0
 42
3.0
 43
3.75
 44
2.0
 45
0.0
 46
0.0
 47
0.0
 48
0.0
140
30.0
141
5.0
142
0.0
143
0.03937
144
1.0
145
0.0
146
1.0
147
8.0
 71
     0
 72
     0
 73
     0
 74
     0
 75
     0
 76
     0
 77
     1
 78
     8
170
     0
171
     3
172
     1
173
     0
174
     0
175
     0
176
     1
177
     1
178
     1
  0
ENDTAB
  0
ENDSEC
  0
SECTION
  2
BLOCKS
  0
BLOCK
  8
0
  2
$MODEL_SPACE
 70
     0
 10
0.0
 20
0.0
 30
0.0
  3
$MODEL_SPACE
  1

  0
ENDBLK
  5
1A
  8
0
  0
BLOCK
 67
     1
  8
0
  2
$PAPER_SPACE
 70
     0
 10
0.0
 20
0.0
 30
0.0
  3
$PAPER_SPACE
  1

  0
ENDBLK
  5
17
 67
     1
  8
0
  0
BLOCK
  8
0
  2
_OPEN30
 70
     0
 10
0.0
 20
0.0
 30
0.0
  3
_OPEN30
  1

  0
LINE
  5
44
  8
0
  6
BYBLOCK
 62
     0
 10
-1.0
 20
0.26794919
 30
0.0
 11
0.0
 21
0.0
 31
0.0
  0
LINE
  5
45
  8
0
  6
BYBLOCK
 62
     0
 10
0.0
 20
0.0
 30
0.0
 11
-1.0
 21
-0.26794919
 31
0.0
  0
LINE
  5
46
  8
0
  6
BYBLOCK
 62
     0
 10
0.0
 20
0.0
 30
0.0
 11
-1.0
 21
0.0
 31
0.0
  0
ENDBLK
  5
47
  8
0
  0
BLOCK
  8
0
  2
A3WAKUKAWAJUN2017_HYOUDAI_
 70
     0
 10
0.0
 20
0.0
 30
0.0
  3
A3WAKUKAWAJUN2017_HYOUDAI_
  1

  0
LINE
  5
20318
  8
0
 10
13.26299999998673
 20
-0.0001000000000317
 30
0.0
 11
9.236999999990758
 21
8.999899999990987
 31
0.0
1001
ACAD
1000
ASC_BOUNDS
1002
{
1070
    19
1005
20359
1002
}
  0
LINE
  5
20319
  8
0
 10
5.657999999994331
 20
0.9999999999989768
 30
0.0
 11
9.236999999990758
 21
8.999999999991019
 31
0.0
1001
ACAD
1000
ASC_BOUNDS
1002
{
1070
    19
1005
20359
1002
}
  0
LINE
  5
2031A
  8
0
 10
18.59199999998134
 20
-0.2368999999997641
 30
0.0
 11
16.46099999998353
 21
5.432899999994561
 31
0.0
1001
ACAD
1000
ASC_BOUNDS
1002
{
1070
    19
1005
2035A
1002
}
  0
LINE
  5
2031B
  8
0
 10
18.59199999998134
 20
-0.2368999999997641
 30
0.0
 11
22.38199999997767
 21
8.763099999991255
 31
0.0
1001
ACAD
1000
ASC_BOUNDS
1002
{
1070
    19
1005
2035A
1002
}
  0
LINE
  5
2031C
  8
0
 10
14.32899999998563
 20
-0.2368999999997641
 30
0.0
 11
16.46099999998353
 21
5.432899999994561
 31
0.0
1001
ACAD
1000
ASC_BOUNDS
1002
{
1070
    19
1005
2035A
1002
}
  0
LINE
  5
2031D
  8
0
 10
14.32899999998563
 20
-0.2368999999997641
 30
0.0
 11
10.53899999998941
 21
8.763099999991255
 31
0.0
1001
ACAD
1000
ASC_BOUNDS
1002
{
1070
    19
1005
2035A
1002
}
  0
LINE
  5
2031E
  8
0
 10
19.53899999998043
 20
-0.0001000000000317
 30
0.0
 11
23.56599999997638
 21
8.999899999990987
 31
0.0
1001
ACAD
1000
ASC_BOUNDS
1002
{
1070
    19
1005
2035B
1002
}
  0
LINE
  5
2031F
  8
0
 10
26.97358892824991
 20
1.383099999991202
 30
0.0
 11
23.56599999997638
 21
8.999899999990987
 31
0.0
1001
ACAD
1000
ASC_BOUNDS
1002
{
1070
    19
1005
2035B
1002
}
  0
LINE
  5
20320
  8
0
 10
5.657999999994331
 20
0.9999999999989768
 30
0.0
 11
3.181999999996833
 21
4.668599999995308
 31
0.0
1001
ACAD
1000
ASC_BOUNDS
1002
{
1070
    19
1005
20359
1002
}
  0
LINE
  5
20321
  8
0
 10
4.617999999995391
 20
-0.0001000000000317
 30
0.0
 11
1.420999999998571
 21
4.736799999995242
 31
0.0
1001
ACAD
1000
ASC_BOUNDS
1002
{
1070
    19
1005
20359
1002
}
  0
LINE
  5
20322
  8
0
 10
1.420999999998571
 20
8.763099999991255
 30
0.0
 11
1.420999999998571
 21
0.0
 31
0.0
1001
ACAD
1000
ASC_BOUNDS
1002
{
1070
    19
1005
2035E
1002
}
  0
LINE
  5
20323
  8
0
 10
0.0
 20
8.763099999991255
 30
0.0
 11
0.0
 21
0.0
 31
0.0
1001
ACAD
1000
ASC_BOUNDS
1002
{
1070
    19
1005
2035E
1002
}
  0
LINE
  5
20324
  8
0
 10
6.766999999993232
 20
-0.0001000000000317
 30
0.0
 11
7.826999999992154
 21
2.368399999997621
 31
0.0
1001
ACAD
1000
ASC_BOUNDS
1002
{
1070
    19
1005
20359
1002
}
  0
LINE
  5
20325
  8
0
 10
0.0
 20
0.0
 30
0.0
 11
1.420999999998571
 21
0.0
 31
0.0
1001
ACAD
1000
ASC_BOUNDS
1002
{
1070
    19
1005
2035E
1002
}
  0
LINE
  5
20326
  8
0
 10
4.617999999995391
 20
0.0
 30
0.0
 11
6.766999999993232
 21
0.0
 31
0.0
1001
ACAD
1000
ASC_BOUNDS
1002
{
1070
    19
1005
20359
1002
}
  0
LINE
  5
20327
  8
0
 10
11.70599999998831
 20
-0.0001000000000317
 30
0.0
 11
10.64699999998936
 21
2.368399999997621
 31
0.0
1001
ACAD
1000
ASC_BOUNDS
1002
{
1070
    19
1005
20359
1002
}
  0
LINE
  5
20328
  8
0
 10
7.826999999992154
 20
2.368399999997621
 30
0.0
 11
10.64699999998936
 21
2.368399999997621
 31
0.0
1001
ACAD
1000
ASC_BOUNDS
1002
{
1070
    19
1005
20359
1002
}
  0
LINE
  5
20329
  8
0
 10
11.70599999998831
 20
0.0
 30
0.0
 11
13.26299999998673
 21
0.0
 31
0.0
1001
ACAD
1000
ASC_BOUNDS
1002
{
1070
    19
1005
20359
1002
}
  0
LINE
  5
2032A
  8
0
 10
22.15599999997789
 20
2.368399999997621
 30
0.0
 11
24.97599999997499
 21
2.368399999997621
 31
0.0
1001
ACAD
1000
ASC_BOUNDS
1002
{
1070
    19
1005
2035B
1002
}
  0
LINE
  5
2032B
  8
0
 10
19.53899999998043
 20
0.0
 30
0.0
 11
21.09599999997886
 21
0.0
 31
0.0
1001
ACAD
1000
ASC_BOUNDS
1002
{
1070
    19
1005
2035B
1002
}
  0
LINE
  5
2032C
  8
0
 10
21.09599999997886
 20
-0.0001000000000317
 30
0.0
 11
22.15599999997789
 21
2.368399999997621
 31
0.0
1001
ACAD
1000
ASC_BOUNDS
1002
{
1070
    19
1005
2035B
1002
}
  0
LINE
  5
2032D
  8
0
 10
26.02015566812236
 20
0.0330999999912365
 30
0.0
 11
24.97599999997499
 21
2.368399999997621
 31
0.0
1001
ACAD
1000
ASC_BOUNDS
1002
{
1070
    19
1005
2035B
1002
}
  0
LINE
  5
2032E
  8
0
 10
14.32399999998563
 20
3.315799999996671
 30
0.0
 11
16.46099999998353
 21
8.999899999990987
 31
0.0
1001
ACAD
1000
ASC_BOUNDS
1002
{
1070
    19
1005
2035A
1002
}
  0
LINE
  5
2032F
  8
0
 10
6.432999999993513
 20
8.763099999991255
 30
0.0
 11
3.181999999996833
 21
4.668599999995308
 31
0.0
1001
ACAD
1000
ASC_BOUNDS
1002
{
1070
    19
1005
20359
1002
}
  0
LINE
  5
20330
  8
0
 10
4.617999999995391
 20
8.763099999991255
 30
0.0
 11
1.420999999998571
 21
4.736799999995242
 31
0.0
1001
ACAD
1000
ASC_BOUNDS
1002
{
1070
    19
1005
20359
1002
}
  0
LINE
  5
20331
  8
0
 10
0.0
 20
8.763099999991255
 30
0.0
 11
1.420999999998571
 21
8.763099999991255
 31
0.0
1001
ACAD
1000
ASC_BOUNDS
1002
{
1070
    19
1005
2035E
1002
}
  0
LINE
  5
20332
  8
0
 10
4.617999999995391
 20
8.763099999991255
 30
0.0
 11
6.432999999993513
 21
8.763099999991255
 31
0.0
1001
ACAD
1000
ASC_BOUNDS
1002
{
1070
    19
1005
20359
1002
}
  0
LINE
  5
20333
  8
0
 10
14.32399999998563
 20
3.315799999996671
 30
0.0
 11
12.02999999998792
 21
8.763099999991255
 31
0.0
1001
ACAD
1000
ASC_BOUNDS
1002
{
1070
    19
1005
2035A
1002
}
  0
LINE
  5
20334
  8
0
 10
10.06399999998996
 20
3.670999999996297
 30
0.0
 11
9.236999999990758
 21
5.5200999999945
 31
0.0
1001
ACAD
1000
ASC_BOUNDS
1002
{
1070
    19
1005
20359
1002
}
  0
LINE
  5
20335
  8
0
 10
8.409999999991555
 20
3.670999999996297
 30
0.0
 11
9.236999999990758
 21
5.5200999999945
 31
0.0
1001
ACAD
1000
ASC_BOUNDS
1002
{
1070
    19
1005
20359
1002
}
  0
LINE
  5
20336
  8
0
 10
8.409999999991555
 20
3.670999999996297
 30
0.0
 11
10.06399999998996
 21
3.670999999996297
 31
0.0
1001
ACAD
1000
ASC_BOUNDS
1002
{
1070
    19
1005
20359
1002
}
  0
LINE
  5
20337
  8
0
 10
10.53899999998941
 20
8.763099999991255
 30
0.0
 11
12.02999999998792
 21
8.763099999991255
 31
0.0
1001
ACAD
1000
ASC_BOUNDS
1002
{
1070
    19
1005
2035A
1002
}
  0
LINE
  5
20338
  8
0
 10
22.7389999999773
 20
3.670999999996297
 30
0.0
 11
23.56599999997638
 21
5.5200999999945
 31
0.0
1001
ACAD
1000
ASC_BOUNDS
1002
{
1070
    19
1005
2035B
1002
}
  0
LINE
  5
20339
  8
0
 10
22.7389999999773
 20
3.670999999996297
 30
0.0
 11
24.39299999997559
 21
3.670999999996297
 31
0.0
1001
ACAD
1000
ASC_BOUNDS
1002
{
1070
    19
1005
2035B
1002
}
  0
LINE
  5
2033A
  8
0
 10
18.59799999998143
 20
3.315799999996671
 30
0.0
 11
20.89099999997916
 21
8.763099999991255
 31
0.0
1001
ACAD
1000
ASC_BOUNDS
1002
{
1070
    19
1005
2035A
1002
}
  0
LINE
  5
2033B
  8
0
 10
18.59799999998143
 20
3.315799999996671
 30
0.0
 11
16.46099999998353
 21
8.999899999990987
 31
0.0
1001
ACAD
1000
ASC_BOUNDS
1002
{
1070
    19
1005
2035A
1002
}
  0
LINE
  5
2033C
  8
0
 10
20.89099999997916
 20
8.763099999991255
 30
0.0
 11
22.38199999997767
 21
8.763099999991255
 31
0.0
1001
ACAD
1000
ASC_BOUNDS
1002
{
1070
    19
1005
2035A
1002
}
  0
LINE
  5
2033D
  8
0
 10
24.39299999997559
 20
3.670999999996297
 30
0.0
 11
23.56599999997638
 21
5.5200999999945
 31
0.0
1001
ACAD
1000
ASC_BOUNDS
1002
{
1070
    19
1005
2035B
1002
}
  0
LINE
  5
2033E
  8
0
 10
44.99999999995498
 20
-0.2368999999997641
 30
0.0
 11
40.02599999995994
 21
5.341799999994635
 31
0.0
1001
ACAD
1000
ASC_BOUNDS
1002
{
1070
    19
1005
2035D
1002
}
  0
LINE
  5
2033F
  8
0
 10
40.02599999995994
 20
5.341799999994635
 30
0.0
 11
40.02599999995994
 21
0.0
 31
0.0
1001
ACAD
1000
ASC_BOUNDS
1002
{
1070
    19
1005
2035D
1002
}
  0
LINE
  5
20340
  8
0
 10
38.60499999996136
 20
8.999999999991019
 30
0.0
 11
38.60499999996136
 21
0.0
 31
0.0
1001
ACAD
1000
ASC_BOUNDS
1002
{
1070
    19
1005
2035D
1002
}
  0
LINE
  5
20341
  8
0
 10
44.99999999995498
 20
8.763099999991255
 30
0.0
 11
44.99999999995498
 21
-0.2368999999997641
 31
0.0
1001
ACAD
1000
ASC_BOUNDS
1002
{
1070
    19
1005
2035D
1002
}
  0
LINE
  5
20342
  8
0
 10
38.60499999996136
 20
0.0
 30
0.0
 11
40.02599999995994
 21
0.0
 31
0.0
1001
ACAD
1000
ASC_BOUNDS
1002
{
1070
    19
1005
2035D
1002
}
  0
LINE
  5
20343
  8
0
 10
43.57899999995641
 20
3.421199999996588
 30
0.0
 11
38.60499999996136
 21
8.999899999990987
 31
0.0
1001
ACAD
1000
ASC_BOUNDS
1002
{
1070
    19
1005
2035D
1002
}
  0
LINE
  5
20344
  8
0
 10
43.57899999995641
 20
8.763099999991255
 30
0.0
 11
43.57899999995641
 21
3.421199999996588
 31
0.0
1001
ACAD
1000
ASC_BOUNDS
1002
{
1070
    19
1005
2035D
1002
}
  0
LINE
  5
20345
  8
0
 10
43.57899999995641
 20
8.763099999991255
 30
0.0
 11
44.99999999995498
 21
8.763099999991255
 31
0.0
1001
ACAD
1000
ASC_BOUNDS
1002
{
1070
    19
1005
2035D
1002
}
  0
LINE
  5
20346
  8
0
 10
37.67199999996831
 20
8.763099999991255
 30
0.0
 11
36.23199999996837
 21
8.763099999991255
 31
0.0
  0
LINE
  5
20347
  8
0
 10
31.64199999996833
 20
8.763099999991255
 30
0.0
 11
31.64199999996833
 21
2.481619422925121
 31
0.0
  0
LINE
  5
20348
  8
0
 10
37.67199999996831
 20
8.763099999991255
 30
0.0
 11
37.67199999996831
 21
2.481619422925121
 31
0.0
  0
LINE
  5
20349
  8
0
 10
36.23199999996837
 20
8.763099999991255
 30
0.0
 11
36.23199999996837
 21
2.481619422925064
 31
0.0
  0
LINE
  5
2034A
  8
0
 10
33.08199999996839
 20
8.763099999991255
 30
0.0
 11
33.08199999996839
 21
2.481619422925121
 31
0.0
  0
ARC
  5
2034B
  8
0
 10
34.65699999996832
 20
3.183099999991214
 30
0.0
 40
3.420000000000007
 50
240.0000000000255
 51
299.9999999999766
  0
ARC
  5
2034C
  8
0
 10
34.65699999996832
 20
3.183099999991214
 30
0.0
 40
1.97999999999999
 50
240.000000000026
 51
299.9999999999703
  0
LINE
  5
2034D
  8
0
 10
33.08199999996828
 20
8.763099999991255
 30
0.0
 11
31.64199999996833
 21
8.763099999991255
 31
0.0
  0
ARC
  5
2034E
  8
0
 10
35.06199999996829
 20
2.481619422925064
 30
0.0
 40
1.17
 50
299.9999999999699
 51
0.0
  0
ARC
  5
2034F
  8
0
 10
34.25199999996835
 20
2.481619422925121
 30
0.0
 40
1.17
 50
180.0
 51
240.0000000000238
  0
ARC
  5
20350
  8
0
 10
35.06199999996841
 20
2.481619422925121
 30
0.0
 40
2.61
 50
299.9999999999756
 51
0.0
  0
ARC
  5
20351
  8
0
 10
34.25199999996835
 20
2.481619422925121
 30
0.0
 40
2.61
 50
180.0
 51
240.0000000000244
  0
LINE
  5
20352
  8
0
 10
29.30199999996933
 20
8.763099999991255
 30
0.0
 11
30.74199999996927
 21
8.763099999991255
 31
0.0
1001
ACAD
1000
ASC_BOUNDS
1002
{
1070
    19
1005
2035B
1002
}
  0
LINE
  5
20353
  8
0
 10
30.74199999996927
 20
8.763099999991255
 30
0.0
 11
30.74199999996927
 21
2.373099999991211
 31
0.0
1001
ACAD
1000
ASC_BOUNDS
1002
{
1070
    19
1005
2035B
1002
}
  0
LINE
  5
20354
  8
0
 10
26.02015566812236
 20
0.0330999999912365
 30
0.0
 11
28.40199999996923
 21
0.0330999999912365
 31
0.0
1001
ACAD
1000
ASC_BOUNDS
1002
{
1070
    19
1005
2035B
1002
}
  0
LINE
  5
20355
  8
0
 10
29.30199999996933
 20
8.763099999991255
 30
0.0
 11
29.30199999996933
 21
2.283099999991236
 31
0.0
1001
ACAD
1000
ASC_BOUNDS
1002
{
1070
    19
1005
2035B
1002
}
  0
LINE
  5
20356
  8
0
 10
26.97358892824991
 20
1.383099999991202
 30
0.0
 11
28.40199999996923
 21
1.383099999991202
 31
0.0
1001
ACAD
1000
ASC_BOUNDS
1002
{
1070
    19
1005
2035B
1002
}
  0
ARC
  5
20357
  8
0
 10
28.40199999996923
 20
2.283099999991236
 30
0.0
 40
0.9
 50
270.0
 51
0.0
1001
ACAD
1000
ASC_BOUNDS
1002
{
1070
    19
1005
2035B
1002
}
  0
ARC
  5
20358
  8
0
 10
28.40199999996923
 20
2.373099999991211
 30
0.0
 40
2.34
 50
270.0
 51
0.0
1001
ACAD
1000
ASC_BOUNDS
1002
{
1070
    19
1005
2035B
1002
}
  0
INSERT
  5
20359
  8
0
  2
*X345
 10
0.0
 20
0.0
 30
0.0
1001
ACAD
1000
HATCH
1002
{
1070
    19
1000
ANSI37
1040
0.15
1040
0.0
1000
ASC_BOUNDS
1070
     2
1070
     2
1070
    12
1005
20318
1005
20319
1005
20320
1005
2032F
1005
20332
1005
20330
1005
20321
1005
20326
1005
20324
1005
20328
1005
20327
1005
20329
1070
     2
1070
     3
1005
20334
1005
20336
1005
20335
1000
ASC_SEEDPOINT
1011
3.614004224891801
1021
2.996669441146025
1031
0.0
1021
2.996669441146025
1031
0.0
1000
R14_HATCH_DATA
1000
20359
1011
1.0
1021
0.0
1031
0.0
1021
0.0
1031
0.0
1011
0.0
1021
1.0
1031
0.0
1021
1.0
1031
0.0
1011
0.0
1021
0.0
1031
1.0
1021
0.0
1031
1.0
1040
0.0
1010
0.0
1020
0.0
1030
1.0
1000
ANSI37
1070
     0
1070
     1
1071
        2
1071
        7
1070
     0
1070
     1
1071
       17
1040
13.26299999998673
1040
-0.0001000000000317
1040
9.236999999990758
1040
8.999899999990987
1040
9.236999999990758
1040
8.999999999991019
1040
5.657999999994331
1040
0.9999999999989768
1040
3.181999999996833
1040
4.668599999995308
1040
6.432999999993513
1040
8.763099999991255
1040
4.617999999995391
1040
8.763099999991255
1040
1.420999999998571
1040
4.736799999995242
1040
4.617999999995391
1040
-0.0001000000000317
1040
4.617999999995391
1040
0.0
1040
6.766999999993232
1040
0.0
1040
6.766999999993232
1040
-0.0001000000000317
1040
7.826999999992154
1040
2.368399999997621
1040
10.64699999998936
1040
2.368399999997621
1040
11.70599999998831
1040
-0.0001000000000317
1040
11.70599999998831
1040
0.0
1040
13.26299999998673
1040
0.0
1071
       12
1005
20318
1005
20319
1005
20320
1005
2032F
1005
20332
1005
20330
1005
20321
1005
20326
1005
20324
1005
20328
1005
20327
1005
20329
1071
       22
1070
     0
1070
     1
1071
        3
1040
9.236999999990758
1040
5.5200999999945
1040
10.06399999998996
1040
3.670999999996297
1040
8.409999999991555
1040
3.670999999996297
1071
        3
1005
20334
1005
20336
1005
20335
1070
     0
1070
     1
1040
0.0
1040
0.15
1070
     0
1070
     2
1040
0.7853981633974483
1040
49.29960901727088
1040
-10.17736998311392
1040
-0.3367596045400932
1040
0.3367596045400932
1070
     0
1040
2.356194490192345
1040
49.29960901727088
1040
-10.17736998311392
1040
-0.3367596045400932
1040
-0.3367596045400932
1070
     0
1040
0.0110235143455945
1071
        2
1040
3.614004224891801
1040
2.996669441146025
1040
0.0
1040
3.614004224891801
1040
2.996669441146025
1040
0.0
1002
}
  0
INSERT
  5
2035A
  8
0
  2
*X346
 10
0.0
 20
0.0
 30
0.0
1001
ACAD
1000
HATCH
1002
{
1070
    19
1000
ANSI37
1040
0.15
1040
0.0
1000
ASC_BOUNDS
1070
     1
1070
     2
1070
    10
1005
2031A
1005
2031B
1005
2033C
1005
2033A
1005
2033B
1005
2032E
1005
20333
1005
20337
1005
2031D
1005
2031C
1000
ASC_SEEDPOINT
1011
14.73245321214324
1021
2.798246178283421
1031
0.0
1021
2.798246178283421
1031
0.0
1000
R14_HATCH_DATA
1000
2035A
1011
1.0
1021
0.0
1031
0.0
1021
0.0
1031
0.0
1011
0.0
1021
1.0
1031
0.0
1021
1.0
1031
0.0
1011
0.0
1021
0.0
1031
1.0
1021
0.0
1031
1.0
1040
0.0
1010
0.0
1020
0.0
1030
1.0
1000
ANSI37
1070
     0
1070
     1
1071
        1
1071
        7
1070
     0
1070
     1
1071
       10
1040
16.46099999998353
1040
5.432899999994561
1040
18.59199999998134
1040
-0.2368999999997641
1040
22.38199999997767
1040
8.763099999991255
1040
20.89099999997916
1040
8.763099999991255
1040
18.59799999998143
1040
3.315799999996671
1040
16.46099999998353
1040
8.999899999990987
1040
14.32399999998563
1040
3.315799999996671
1040
12.02999999998792
1040
8.763099999991255
1040
10.53899999998941
1040
8.763099999991255
1040
14.32899999998563
1040
-0.2368999999997641
1071
       10
1005
2031A
1005
2031B
1005
2033C
1005
2033A
1005
2033B
1005
2032E
1005
20333
1005
20337
1005
2031D
1005
2031C
1070
     0
1070
     1
1040
0.0
1040
0.15
1070
     0
1070
     2
1040
0.7853981633974483
1040
49.29960901727088
1040
-10.17736998311392
1040
-0.3367596045400932
1040
0.3367596045400932
1070
     0
1040
2.356194490192345
1040
49.29960901727088
1040
-10.17736998311392
1040
-0.3367596045400932
1040
-0.3367596045400932
1070
     0
1040
0.0110235143455945
1071
        1
1040
14.73245321214324
1040
2.798246178283421
1040
0.0
1002
}
  0
INSERT
  5
2035B
  8
0
  2
*X347
 10
0.0
 20
0.0
 30
0.0
1001
ACAD
1000
HATCH
1002
{
1070
    19
1000
ANSI37
1040
0.15
1040
0.0
1000
ASC_BOUNDS
1070
     2
1070
     2
1070
    13
1005
2031E
1005
2032B
1005
2032C
1005
2032A
1005
2032D
1005
20354
1005
20358
1005
20353
1005
20352
1005
20355
1005
20357
1005
20356
1005
2031F
1070
     2
1070
     3
1005
20338
1005
2033D
1005
20339
1000
ASC_SEEDPOINT
1011
21.97929957367762
1021
3.294304244259308
1031
0.0
1021
3.294304244259308
1031
0.0
1000
R14_HATCH_DATA
1000
2035B
1011
1.0
1021
0.0
1031
0.0
1021
0.0
1031
0.0
1011
0.0
1021
1.0
1031
0.0
1021
1.0
1031
0.0
1011
0.0
1021
0.0
1031
1.0
1021
0.0
1031
1.0
1040
0.0
1010
0.0
1020
0.0
1030
1.0
1000
ANSI37
1070
     0
1070
     1
1071
        2
1071
        7
1070
     1
1070
     1
1071
       15
1040
23.56599999997638
1040
8.999899999990987
1040
0.0
1040
19.53899999998043
1040
-0.0001000000000317
1040
0.0
1040
19.53899999998043
1040
0.0
1040
0.0
1040
21.09599999997886
1040
0.0
1040
0.0
1040
21.09599999997886
1040
-0.0001000000000317
1040
0.0
1040
22.15599999997789
1040
2.368399999997621
1040
0.0
1040
24.97599999997499
1040
2.368399999997621
1040
0.0
1040
26.02015566812236
1040
0.0330999999912365
1040
0.0
1040
28.40199999996923
1040
0.0330999999912365
1040
0.414213562373095
1040
30.74199999996923
1040
2.373099999991211
1040
0.0
1040
30.74199999996927
1040
8.763099999991255
1040
0.0
1040
29.30199999996933
1040
8.763099999991255
1040
0.0
1040
29.30199999996933
1040
2.283099999991236
1040
-0.414213562373095
1040
28.40199999996923
1040
1.383099999991237
1040
0.0
1040
26.97358892824991
1040
1.383099999991202
1040
0.0
1071
       13
1005
2031E
1005
2032B
1005
2032C
1005
2032A
1005
2032D
1005
20354
1005
20358
1005
20353
1005
20352
1005
20355
1005
20357
1005
20356
1005
2031F
1071
       22
1070
     0
1070
     1
1071
        3
1040
22.7389999999773
1040
3.670999999996297
1040
23.56599999997638
1040
5.5200999999945
1040
24.39299999997559
1040
3.670999999996297
1071
        3
1005
20338
1005
2033D
1005
20339
1070
     0
1070
     1
1040
0.0
1040
0.15
1070
     0
1070
     2
1040
0.7853981633974483
1040
49.29960901727088
1040
-10.17736998311392
1040
-0.3367596045400932
1040
0.3367596045400932
1070
     0
1040
2.356194490192345
1040
49.29960901727088
1040
-10.17736998311392
1040
-0.3367596045400932
1040
-0.3367596045400932
1070
     0
1040
0.0110235143455945
1071
        2
1040
21.97929957367762
1040
3.294304244259308
1040
0.0
1040
21.97929957367762
1040
3.294304244259308
1040
0.0
1002
}
  0
INSERT
  5
2035C
  8
0
  2
*X348
 10
0.0
 20
0.0
 30
0.0
1001
ACAD
1000
HATCH
1002
{
1070
    19
1000
ANSI37
1040
0.15
1040
0.0
1000
R14_HATCH_DATA
1000
2035C
1011
1.0
1021
0.0
1031
0.0
1021
0.0
1031
0.0
1011
0.0
1021
1.0
1031
0.0
1021
1.0
1031
0.0
1011
0.0
1021
0.0
1031
1.0
1021
0.0
1031
1.0
1040
0.0
1010
0.0
1020
0.0
1030
1.0
1000
ANSI37
1070
     0
1070
     1
1071
        1
1071
        7
1070
     1
1070
     1
1071
       12
1040
31.64199999996833
1040
2.481619422925121
1040
0.2679491924310942
1040
32.94699999997067
1040
0.2212931190493919
1040
0.2679491924301353
1040
36.36699999995983
1040
0.2212931190459813
1040
0.2679491924321411
1040
37.67199999996831
1040
2.481619422928361
1040
0.0
1040
37.67199999996831
1040
8.763099999991255
1040
0.0
1040
36.23199999996837
1040
8.763099999991255
1040
0.0
1040
36.23199999996837
1040
2.481619422925064
1040
-0.2679491924310291
1040
35.64699999996708
1040
1.468369700498386
1040
-0.267949192430519
1040
33.66699999997093
1040
1.468369700497703
1040
-0.267949192431809
1040
33.08199999996839
1040
2.481619422926997
1040
0.0
1040
33.08199999996839
1040
8.763099999991255
1040
0.0
1040
31.64199999996833
1040
8.763099999991255
1040
0.0
1071
        0
1070
     0
1070
     1
1040
0.0
1040
0.15
1070
     0
1070
     2
1040
0.7853981633974483
1040
49.29960901727088
1040
-10.17736998311392
1040
-0.3367596045400932
1040
0.3367596045400932
1070
     0
1040
2.356194490192345
1040
49.29960901727088
1040
-10.17736998311392
1040
-0.3367596045400932
1040
-0.3367596045400932
1070
     0
1040
0.0110235143455945
1071
        1
1040
32.30357378967278
1040
3.988785755459219
1040
0.0
1002
}
  0
INSERT
  5
2035D
  8
0
  2
*X349
 10
0.0
 20
0.0
 30
0.0
1001
ACAD
1000
HATCH
1002
{
1070
    19
1000
ANSI37
1040
0.15
1040
0.0
1000
ASC_BOUNDS
1070
     1
1070
     2
1070
     8
1005
2033E
1005
20341
1005
20345
1005
20344
1005
20343
1005
20340
1005
20342
1005
2033F
1000
ASC_SEEDPOINT
1011
39.74896370716704
1021
4.484843821435049
1031
0.0
1021
4.484843821435049
1031
0.0
1000
R14_HATCH_DATA
1000
2035D
1011
1.0
1021
0.0
1031
0.0
1021
0.0
1031
0.0
1011
0.0
1021
1.0
1031
0.0
1021
1.0
1031
0.0
1011
0.0
1021
0.0
1031
1.0
1021
0.0
1031
1.0
1040
0.0
1010
0.0
1020
0.0
1030
1.0
1000
ANSI37
1070
     0
1070
     1
1071
        1
1071
        7
1070
     0
1070
     1
1071
        9
1040
40.02599999995994
1040
5.341799999994635
1040
44.99999999995498
1040
-0.2368999999997641
1040
44.99999999995498
1040
8.763099999991255
1040
43.57899999995641
1040
8.763099999991255
1040
43.57899999995641
1040
3.421199999996588
1040
38.60499999996136
1040
8.999899999990987
1040
38.60499999996136
1040
8.999999999991019
1040
38.60499999996136
1040
0.0
1040
40.02599999995994
1040
0.0
1071
        8
1005
2033E
1005
20341
1005
20345
1005
20344
1005
20343
1005
20340
1005
20342
1005
2033F
1070
     0
1070
     1
1040
0.0
1040
0.15
1070
     0
1070
     2
1040
0.7853981633974483
1040
49.29960901727088
1040
-10.17736998311392
1040
-0.3367596045400932
1040
0.3367596045400932
1070
     0
1040
2.356194490192345
1040
49.29960901727088
1040
-10.17736998311392
1040
-0.3367596045400932
1040
-0.3367596045400932
1070
     0
1040
0.0110235143455945
1071
        1
1040
39.74896370716704
1040
4.484843821435049
1040
0.0
1002
}
  0
INSERT
  5
2035E
  8
0
  2
*X350
 10
0.0
 20
0.0
 30
0.0
1001
ACAD
1000
HATCH
1002
{
1070
    19
1000
ANSI37
1040
0.15
1040
0.0
1000
ASC_BOUNDS
1070
     1
1070
     2
1070
     4
1005
20322
1005
20331
1005
20323
1005
20325
1000
ASC_SEEDPOINT
1011
1.079051535452663
1021
4.148538732891836
1031
0.0
1021
4.148538732891836
1031
0.0
1000
R14_HATCH_DATA
1000
2035E
1011
1.0
1021
0.0
1031
0.0
1021
0.0
1031
0.0
1011
0.0
1021
1.0
1031
0.0
1021
1.0
1031
0.0
1011
0.0
1021
0.0
1031
1.0
1021
0.0
1031
1.0
1040
0.0
1010
0.0
1020
0.0
1030
1.0
1000
ANSI37
1070
     0
1070
     1
1071
        1
1071
        7
1070
     0
1070
     1
1071
        4
1040
1.420999999998571
1040
0.0
1040
1.420999999998571
1040
8.763099999991255
1040
0.0
1040
8.763099999991255
1040
0.0
1040
0.0
1071
        4
1005
20322
1005
20331
1005
20323
1005
20325
1070
     0
1070
     1
1040
0.0
1040
0.15
1070
     0
1070
     2
1040
0.7853981633974483
1040
49.29960901727088
1040
-10.17736998311392
1040
-0.3367596045400932
1040
0.3367596045400932
1070
     0
1040
2.356194490192345
1040
49.29960901727088
1040
-10.17736998311392
1040
-0.3367596045400932
1040
-0.3367596045400932
1070
     0
1040
0.0053004257112761
1071
        1
1040
1.079051535452663
1040
4.148538732891836
1040
0.0
1002
}
  0
ENDBLK
  5
20A16
  8
0
  0
BLOCK
  8
0
  2
*X345
 70
     1
 10
0.0
 20
0.0
 30
0.0
  3
*X345
  1

  0
LINE
  5
2538B
  8
0
  6
CONTINUOUS
 10
3.418023043697893
 20
7.251849696850613
 30
0.0
 11
4.929273346838536
 21
8.763099999991255
 31
0.0
  0
LINE
  5
2538C
  8
0
  6
CONTINUOUS
 10
1.483656411257782
 20
4.643963855330318
 30
0.0
 11
5.60279255591872
 21
8.763099999991255
 31
0.0
  0
LINE
  5
2538D
  8
0
  6
CONTINUOUS
 10
1.755053947328235
 20
4.241842182320584
 30
0.0
 11
6.276311764998907
 21
8.763099999991255
 31
0.0
  0
LINE
  5
2538E
  8
0
  6
CONTINUOUS
 10
2.026451483398688
 20
3.839720509310849
 30
0.0
 11
4.441040904851878
 21
6.254309930764039
 31
0.0
  0
LINE
  5
2538F
  8
0
  6
CONTINUOUS
 10
2.297849019469139
 20
3.437598836301114
 30
0.0
 11
3.321765168359338
 21
4.461514985191313
 31
0.0
  0
LINE
  5
25390
  8
0
  6
CONTINUOUS
 10
2.569246555539591
 20
3.03547716329138
 30
0.0
 11
3.593163397972743
 21
4.059394005724531
 31
0.0
  0
LINE
  5
25391
  8
0
  6
CONTINUOUS
 10
2.840644091610043
 20
2.633355490281646
 30
0.0
 11
3.864561627586149
 21
3.657273026257751
 31
0.0
  0
LINE
  5
25392
  8
0
  6
CONTINUOUS
 10
3.112041627680496
 20
2.231233817271911
 30
0.0
 11
4.135959857199554
 21
3.25515204679097
 31
0.0
  0
LINE
  5
25393
  8
0
  6
CONTINUOUS
 10
3.383439163750948
 20
1.829112144262177
 30
0.0
 11
4.40735808681296
 21
2.853031067324189
 31
0.0
  0
LINE
  5
25394
  8
0
  6
CONTINUOUS
 10
3.654836699821399
 20
1.426990471252442
 30
0.0
 11
4.678756316426365
 21
2.450910087857407
 31
0.0
  0
LINE
  5
25395
  8
0
  6
CONTINUOUS
 10
3.926234235891853
 20
1.024868798242709
 30
0.0
 11
4.95015454603977
 21
2.048789108390626
 31
0.0
  0
LINE
  5
25396
  8
0
  6
CONTINUOUS
 10
4.197631771962304
 20
0.6227471252329737
 30
0.0
 11
5.221552775653176
 21
1.646668128923846
 31
0.0
  0
LINE
  5
25397
  8
0
  6
CONTINUOUS
 10
8.715877546767851
 20
7.835069736359266
 30
0.0
 11
9.435953450375058
 21
8.555145639966472
 31
0.0
  0
LINE
  5
25398
  8
0
  6
CONTINUOUS
 10
8.170620868422267
 20
6.616293848933497
 30
0.0
 11
9.644120833743461
 21
8.08979381425469
 31
0.0
  0
LINE
  5
25399
  8
0
  6
CONTINUOUS
 10
7.625364190076684
 20
5.397517961507727
 30
0.0
 11
9.852288217111864
 21
7.624441988542907
 31
0.0
  0
LINE
  5
2539A
  8
0
  6
CONTINUOUS
 10
7.080107511731101
 20
4.178742074081957
 30
0.0
 11
10.06045560048027
 21
7.159090162831124
 31
0.0
  0
LINE
  5
2539B
  8
0
  6
CONTINUOUS
 10
6.534850833385518
 20
2.959966186656187
 30
0.0
 11
10.26862298384867
 21
6.693738337119342
 31
0.0
  0
LINE
  5
2539C
  8
0
  6
CONTINUOUS
 10
4.469029308032756
 20
0.2206254522232385
 30
0.0
 11
5.492951005266582
 21
1.244547149457064
 31
0.0
  0
LINE
  5
2539D
  8
0
  6
CONTINUOUS
 10
5.989594155039935
 20
1.741190299230417
 30
0.0
 11
8.806950407233131
 21
4.558546551423613
 31
0.0
  0
LINE
  5
2539E
  8
0
  6
CONTINUOUS
 10
9.401251593263643
 20
5.152847737454126
 30
0.0
 11
10.47679036721708
 21
6.228386511407559
 31
0.0
  0
LINE
  5
2539F
  8
0
  6
CONTINUOUS
 10
4.921837203428691
 20
-0.0000858614610131
 30
0.0
 11
8.592923064886001
 21
3.670999999996297
 31
0.0
  0
LINE
  5
253A0
  8
0
  6
CONTINUOUS
 10
9.609390446785305
 20
4.6874673818956
 30
0.0
 11
10.68495775058548
 21
5.763034685695775
 31
0.0
  0
LINE
  5
253A1
  8
0
  6
CONTINUOUS
 10
5.595387755019432
 20
-0.0000545189504582
 30
0.0
 11
7.716137258923768
 21
2.120694984953879
 31
0.0
  0
LINE
  5
253A2
  8
0
  6
CONTINUOUS
 10
6.268938306610172
 20
-0.000023176439905
 30
0.0
 11
7.170485805526503
 21
0.9015243224764267
 31
0.0
  0
LINE
  5
253A3
  8
0
  6
CONTINUOUS
 10
7.963842273967511
 20
2.368399999997621
 30
0.0
 11
9.266442273966188
 21
3.670999999996297
 31
0.0
  0
LINE
  5
253A4
  8
0
  6
CONTINUOUS
 10
8.637361483047696
 20
2.368399999997621
 30
0.0
 11
9.939961483046375
 21
3.670999999996297
 31
0.0
  0
LINE
  5
253A5
  8
0
  6
CONTINUOUS
 10
9.817529300306965
 20
4.222087026337075
 30
0.0
 11
10.89312513395388
 21
5.297682859983993
 31
0.0
  0
LINE
  5
253A6
  8
0
  6
CONTINUOUS
 10
10.02566815382863
 20
3.756706670778549
 30
0.0
 11
11.10129251732229
 21
4.832331034272211
 31
0.0
  0
LINE
  5
253A7
  8
0
  6
CONTINUOUS
 10
9.310880692127883
 20
2.368399999997621
 30
0.0
 11
11.30945990069069
 21
4.366979208560428
 31
0.0
  0
LINE
  5
253A8
  8
0
  6
CONTINUOUS
 10
9.98439990120807
 20
2.36839999999762
 30
0.0
 11
11.5176272840591
 21
3.901627382848645
 31
0.0
  0
LINE
  5
253A9
  8
0
  6
CONTINUOUS
 10
10.65037369446246
 20
2.36085458417182
 30
0.0
 11
11.7257946674275
 21
3.436275557136862
 31
0.0
  0
LINE
  5
253AA
  8
0
  6
CONTINUOUS
 10
10.85847197087848
 20
1.895433651507656
 30
0.0
 11
11.9339620507959
 21
2.97092373142508
 31
0.0
  0
LINE
  5
253AB
  8
0
  6
CONTINUOUS
 10
11.0665702472945
 20
1.430012718843491
 30
0.0
 11
12.14212943416431
 21
2.505571905713296
 31
0.0
  0
LINE
  5
253AC
  8
0
  6
CONTINUOUS
 10
11.27466852371052
 20
0.9645917861793256
 30
0.0
 11
12.35029681753271
 21
2.040220080001513
 31
0.0
  0
LINE
  5
253AD
  8
0
  6
CONTINUOUS
 10
11.48276680012654
 20
0.4991708535151611
 30
0.0
 11
12.55846420090111
 21
1.57486825428973
 31
0.0
  0
LINE
  5
253AE
  8
0
  6
CONTINUOUS
 10
11.69086507654257
 20
0.0337499208509957
 30
0.0
 11
12.76663158426952
 21
1.109516428577947
 31
0.0
  0
LINE
  5
253AF
  8
0
  6
CONTINUOUS
 10
12.33057447873954
 20
-0.0000598860322123
 30
0.0
 11
12.97479896763792
 21
0.6441646028661663
 31
0.0
  0
LINE
  5
253B0
  8
0
  6
CONTINUOUS
 10
13.00413694809395
 20
-0.0000166257579952
 30
0.0
 11
13.18296635100632
 21
0.1788127771543824
 31
0.0
  0
LINE
  5
253B1
  8
0
  6
CONTINUOUS
 10
4.772852165289667
 20
-0.000092794222212
 30
0.0
 11
4.296495091028902
 21
0.4762642800385528
 31
0.0
  0
LINE
  5
253B2
  8
0
  6
CONTINUOUS
 10
5.446340034776103
 20
-0.0000614546284616
 30
0.0
 11
2.898195908335625
 21
2.548082671812017
 31
0.0
  0
LINE
  5
253B3
  8
0
  6
CONTINUOUS
 10
6.119827904262539
 20
-0.0000301150347113
 30
0.0
 11
1.499896725642348
 21
4.61990106358548
 31
0.0
  0
LINE
  5
253B4
  8
0
  6
CONTINUOUS
 10
6.775136745476159
 20
0.0181802528318542
 30
0.0
 11
5.699826040202669
 21
1.093490958105344
 31
0.0
  0
LINE
  5
253B5
  8
0
  6
CONTINUOUS
 10
6.983376846288489
 20
0.4834593610997118
 30
0.0
 11
5.908008617934405
 21
1.558827589453796
 31
0.0
  0
LINE
  5
253B6
  8
0
  6
CONTINUOUS
 10
5.377063484962296
 20
1.416253513345719
 30
0.0
 11
1.702276957014131
 21
5.091040041293883
 31
0.0
  0
LINE
  5
253B7
  8
0
  6
CONTINUOUS
 10
3.978745891735324
 20
3.488090315652877
 30
0.0
 11
2.000373521109399
 21
5.466462686278803
 31
0.0
  0
LINE
  5
253B8
  8
0
  6
CONTINUOUS
 10
7.191616947100819
 20
0.948738469367568
 30
0.0
 11
6.11619119566614
 21
2.024164220802247
 31
0.0
  0
LINE
  5
253B9
  8
0
  6
CONTINUOUS
 10
7.399857047913149
 20
1.414017577635424
 30
0.0
 11
6.324373773397875
 21
2.489500852150698
 31
0.0
  0
LINE
  5
253BA
  8
0
  6
CONTINUOUS
 10
7.608097148725479
 20
1.879296685903281
 30
0.0
 11
6.53255635112961
 21
2.95483748349915
 31
0.0
  0
LINE
  5
253BB
  8
0
  6
CONTINUOUS
 10
7.816337249537808
 20
2.344575794171138
 30
0.0
 11
6.740738928861345
 21
3.420174114847601
 31
0.0
  0
LINE
  5
253BC
  8
0
  6
CONTINUOUS
 10
3.310241080789734
 20
4.830114335678653
 30
0.0
 11
2.298470085204666
 21
5.84188533126372
 31
0.0
  0
LINE
  5
253BD
  8
0
  6
CONTINUOUS
 10
3.60832983563551
 20
5.205544789913063
 30
0.0
 11
2.596566649299935
 21
6.217307976248638
 31
0.0
  0
LINE
  5
253BE
  8
0
  6
CONTINUOUS
 10
3.906418590481286
 20
5.580975244147473
 30
0.0
 11
2.894663213395203
 21
6.592730621233557
 31
0.0
  0
LINE
  5
253BF
  8
0
  6
CONTINUOUS
 10
4.204507345327062
 20
5.956405698381884
 30
0.0
 11
3.192759777490472
 21
6.968153266218474
 31
0.0
  0
LINE
  5
253C0
  8
0
  6
CONTINUOUS
 10
8.466032252791512
 20
2.368399999997621
 30
0.0
 11
6.948921506593081
 21
3.885510746196053
 31
0.0
  0
LINE
  5
253C1
  8
0
  6
CONTINUOUS
 10
9.139551461871699
 20
2.36839999999762
 30
0.0
 11
7.157104084324816
 21
4.350847377544504
 31
0.0
  0
LINE
  5
253C2
  8
0
  6
CONTINUOUS
 10
4.502596100172839
 20
6.331836152616295
 30
0.0
 11
3.49085634158574
 21
7.343575911203393
 31
0.0
  0
LINE
  5
253C3
  8
0
  6
CONTINUOUS
 10
4.800684855018615
 20
6.707266606850705
 30
0.0
 11
3.788952905681008
 21
7.718998556188312
 31
0.0
  0
LINE
  5
253C4
  8
0
  6
CONTINUOUS
 10
12.18154012887317
 20
-0.0000694579236642
 30
0.0
 11
11.32140332908496
 21
0.8600673418645499
 31
0.0
  0
LINE
  5
253C5
  8
0
  6
CONTINUOUS
 10
12.85501608323566
 20
-0.0000262032059659
 30
0.0
 11
10.77672456435345
 21
2.078265315676246
 31
0.0
  0
LINE
  5
253C6
  8
0
  6
CONTINUOUS
 10
9.813070670951886
 20
2.36839999999762
 30
0.0
 11
8.51047067095321
 21
3.670999999996297
 31
0.0
  0
LINE
  5
253C7
  8
0
  6
CONTINUOUS
 10
10.48658988003207
 20
2.36839999999762
 30
0.0
 11
9.183989880033396
 21
3.670999999996297
 31
0.0
  0
LINE
  5
253C8
  8
0
  6
CONTINUOUS
 10
8.441048632286794
 20
3.740422038662712
 30
0.0
 11
7.365286662056551
 21
4.816184008892956
 31
0.0
  0
LINE
  5
253C9
  8
0
  6
CONTINUOUS
 10
8.649187485808454
 20
4.205802394221237
 30
0.0
 11
7.573469239788285
 21
5.281520640241407
 31
0.0
  0
LINE
  5
253CA
  8
0
  6
CONTINUOUS
 10
5.098773609864391
 20
7.082697061085115
 30
0.0
 11
4.087049469776277
 21
8.09442120117323
 31
0.0
  0
LINE
  5
253CB
  8
0
  6
CONTINUOUS
 10
5.396862364710167
 20
7.458127515319526
 30
0.0
 11
4.385146033871544
 21
8.469843846158149
 31
0.0
  0
LINE
  5
253CC
  8
0
  6
CONTINUOUS
 10
13.04801363231285
 20
0.4804954567970334
 30
0.0
 11
9.85750908911358
 21
3.670999999996297
 31
0.0
  0
LINE
  5
253CD
  8
0
  6
CONTINUOUS
 10
8.857326339330116
 20
4.671182749779763
 30
0.0
 11
7.781651817520021
 21
5.746857271589858
 31
0.0
  0
LINE
  5
253CE
  8
0
  6
CONTINUOUS
 10
5.694951119555943
 20
7.833557969553937
 30
0.0
 11
4.765409089118624
 21
8.763099999991255
 31
0.0
  0
LINE
  5
253CF
  8
0
  6
CONTINUOUS
 10
12.50286117236978
 20
1.699167125820288
 30
0.0
 11
9.68611877250287
 21
4.515909525687196
 31
0.0
  0
LINE
  5
253D0
  8
0
  6
CONTINUOUS
 10
9.065465192851777
 20
5.136563105338288
 30
0.0
 11
7.989834395251757
 21
6.21219390293831
 31
0.0
  0
LINE
  5
253D1
  8
0
  6
CONTINUOUS
 10
5.993039874401719
 20
8.208988423788346
 30
0.0
 11
5.43892829819881
 21
8.763099999991255
 31
0.0
  0
LINE
  5
253D2
  8
0
  6
CONTINUOUS
 10
11.95770871242671
 20
2.917838794843543
 30
0.0
 11
8.19801697298349
 21
6.677530534286761
 31
0.0
  0
LINE
  5
253D3
  8
0
  6
CONTINUOUS
 10
6.291128629247495
 20
8.584418878022756
 30
0.0
 11
6.112447507278997
 21
8.763099999991255
 31
0.0
  0
LINE
  5
253D4
  8
0
  6
CONTINUOUS
 10
11.41255625248364
 20
4.136510463866797
 30
0.0
 11
8.406199550715227
 21
7.142867165635211
 31
0.0
  0
LINE
  5
253D5
  8
0
  6
CONTINUOUS
 10
10.86740379254057
 20
5.355182132890051
 30
0.0
 11
8.614382128446962
 21
7.608203796983664
 31
0.0
  0
LINE
  5
253D6
  8
0
  6
CONTINUOUS
 10
10.3222513325975
 20
6.573853801913305
 30
0.0
 11
8.822564706178696
 21
8.073540428332114
 31
0.0
  0
LINE
  5
253D7
  8
0
  6
CONTINUOUS
 10
9.777098872654436
 20
7.792525470936562
 30
0.0
 11
9.030747283910433
 21
8.538877059680566
 31
0.0
  0
ENDBLK
  5
25519
  8
0
  0
BLOCK
  8
0
  2
*X346
 70
     1
 10
0.0
 20
0.0
 30
0.0
  3
*X346
  1

  0
LINE
  5
253D9
  8
0
  6
CONTINUOUS
 10
10.67292308101235
 20
8.445076852443387
 30
0.0
 11
10.99094622856022
 21
8.763099999991255
 31
0.0
  0
LINE
  5
253DA
  8
0
  6
CONTINUOUS
 10
10.87250383178748
 20
7.971138394138331
 30
0.0
 11
11.6644654376404
 21
8.763099999991255
 31
0.0
  0
LINE
  5
253DB
  8
0
  6
CONTINUOUS
 10
11.07208458256261
 20
7.497199935833273
 30
0.0
 11
12.12126590876355
 21
8.546381262034211
 31
0.0
  0
LINE
  5
253DC
  8
0
  6
CONTINUOUS
 10
11.27166533333774
 20
7.023261477528216
 30
0.0
 11
12.32085164573666
 21
8.072447789927136
 31
0.0
  0
LINE
  5
253DD
  8
0
  6
CONTINUOUS
 10
11.47124608411287
 20
6.549323019223158
 30
0.0
 11
12.52043738270977
 21
7.59851431782006
 31
0.0
  0
LINE
  5
253DE
  8
0
  6
CONTINUOUS
 10
11.670826834888
 20
6.075384560918101
 30
0.0
 11
12.72002311968288
 21
7.124580845712984
 31
0.0
  0
LINE
  5
253DF
  8
0
  6
CONTINUOUS
 10
11.87040758566313
 20
5.601446102613043
 30
0.0
 11
12.91960885665599
 21
6.650647373605907
 31
0.0
  0
LINE
  5
253E0
  8
0
  6
CONTINUOUS
 10
12.06998833643825
 20
5.127507644307986
 30
0.0
 11
13.1191945936291
 21
6.176713901498832
 31
0.0
  0
LINE
  5
253E1
  8
0
  6
CONTINUOUS
 10
12.26956908721338
 20
4.65356918600293
 30
0.0
 11
13.31878033060221
 21
5.702780429391757
 31
0.0
  0
LINE
  5
253E2
  8
0
  6
CONTINUOUS
 10
12.46914983798851
 20
4.179630727697873
 30
0.0
 11
13.51836606757532
 21
5.228846957284683
 31
0.0
  0
LINE
  5
253E3
  8
0
  6
CONTINUOUS
 10
12.66873058876364
 20
3.705692269392816
 30
0.0
 11
13.71795180454843
 21
4.754913485177607
 31
0.0
  0
LINE
  5
253E4
  8
0
  6
CONTINUOUS
 10
12.86831133953877
 20
3.231753811087759
 30
0.0
 11
13.91753754152154
 21
4.280980013070531
 31
0.0
  0
LINE
  5
253E5
  8
0
  6
CONTINUOUS
 10
13.0678920903139
 20
2.757815352782702
 30
0.0
 11
14.11712327849465
 21
3.807046540963456
 31
0.0
  0
LINE
  5
253E6
  8
0
  6
CONTINUOUS
 10
13.26747284108903
 20
2.283876894477644
 30
0.0
 11
14.31670901546777
 21
3.333113068856379
 31
0.0
  0
LINE
  5
253E7
  8
0
  6
CONTINUOUS
 10
16.36767838827179
 20
8.751678487061342
 30
0.0
 11
16.50332410898388
 21
8.887324207773432
 31
0.0
  0
LINE
  5
253E8
  8
0
  6
CONTINUOUS
 10
15.96190732182191
 20
7.67238821153127
 30
0.0
 11
16.68735328004734
 21
8.397834169756699
 31
0.0
  0
LINE
  5
253E9
  8
0
  6
CONTINUOUS
 10
15.55613625537202
 20
6.593097936001196
 30
0.0
 11
16.87138245111079
 21
7.908344131739965
 31
0.0
  0
LINE
  5
253EA
  8
0
  6
CONTINUOUS
 10
15.15036518892213
 20
5.513807660471122
 30
0.0
 11
17.05541162217424
 21
7.418854093723231
 31
0.0
  0
LINE
  5
253EB
  8
0
  6
CONTINUOUS
 10
14.74459412247225
 20
4.434517384941048
 30
0.0
 11
17.2394407932377
 21
6.929364055706499
 31
0.0
  0
LINE
  5
253EC
  8
0
  6
CONTINUOUS
 10
14.33882305602236
 20
3.355227109410975
 30
0.0
 11
17.42346996430115
 21
6.439874017689766
 31
0.0
  0
LINE
  5
253ED
  8
0
  6
CONTINUOUS
 10
13.46705359186416
 20
1.809938436172586
 30
0.0
 11
16.0819338255367
 21
4.424818669845129
 31
0.0
  0
LINE
  5
253EE
  8
0
  6
CONTINUOUS
 10
16.63283254238972
 20
4.975717386698149
 30
0.0
 11
17.60749913536461
 21
5.950383979673033
 31
0.0
  0
LINE
  5
253EF
  8
0
  6
CONTINUOUS
 10
13.66663434263929
 20
1.335999977867529
 30
0.0
 11
15.67604797733754
 21
3.345413612565779
 31
0.0
  0
LINE
  5
253F0
  8
0
  6
CONTINUOUS
 10
13.86621509341442
 20
0.8620615195624723
 30
0.0
 11
15.27016212913838
 21
2.26600855528643
 31
0.0
  0
LINE
  5
253F1
  8
0
  6
CONTINUOUS
 10
16.81682257348267
 20
4.486188208710908
 30
0.0
 11
17.79152830642806
 21
5.460893941656299
 31
0.0
  0
LINE
  5
253F2
  8
0
  6
CONTINUOUS
 10
17.00081260457561
 20
3.996659030723667
 30
0.0
 11
17.97555747749151
 21
4.971403903639565
 31
0.0
  0
LINE
  5
253F3
  8
0
  6
CONTINUOUS
 10
20.74362343514722
 20
8.412989070375462
 30
0.0
 11
21.09373436476302
 21
8.763099999991256
 31
0.0
  0
LINE
  5
253F4
  8
0
  6
CONTINUOUS
 10
20.25401257174777
 20
7.249858997895826
 30
0.0
 11
21.7672535738432
 21
8.763099999991255
 31
0.0
  0
LINE
  5
253F5
  8
0
  6
CONTINUOUS
 10
14.06579584418955
 20
0.3881230612574149
 30
0.0
 11
14.86427628093921
 21
1.186603498007082
 31
0.0
  0
LINE
  5
253F6
  8
0
  6
CONTINUOUS
 10
14.26537659496467
 20
-0.0858153970476412
 30
0.0
 11
14.45839043274005
 21
0.1071984407277329
 31
0.0
  0
LINE
  5
253F7
  8
0
  6
CONTINUOUS
 10
17.18480263566856
 20
3.507129852736426
 30
0.0
 11
18.15958664855496
 21
4.481913865622833
 31
0.0
  0
LINE
  5
253F8
  8
0
  6
CONTINUOUS
 10
17.3687926667615
 20
3.017600674749186
 30
0.0
 11
18.34361581961842
 21
3.9924238276061
 31
0.0
  0
LINE
  5
253F9
  8
0
  6
CONTINUOUS
 10
19.76440170834832
 20
6.086728925416191
 30
0.0
 11
22.33924590259489
 21
8.661573119662755
 31
0.0
  0
LINE
  5
253FA
  8
0
  6
CONTINUOUS
 10
19.27479084494887
 20
4.923598852936555
 30
0.0
 11
21.84929622842713
 21
7.498104236414807
 31
0.0
  0
LINE
  5
253FB
  8
0
  6
CONTINUOUS
 10
17.55278269785445
 20
2.528071496761945
 30
0.0
 11
18.52764499068187
 21
3.502933789589366
 31
0.0
  0
LINE
  5
253FC
  8
0
  6
CONTINUOUS
 10
18.78517998154942
 20
3.760468780456919
 30
0.0
 11
21.35934655425936
 21
6.33463535316686
 31
0.0
  0
LINE
  5
253FD
  8
0
  6
CONTINUOUS
 10
17.73677272894739
 20
2.038542318774704
 30
0.0
 11
20.8693968800916
 21
5.171166469918914
 31
0.0
  0
LINE
  5
253FE
  8
0
  6
CONTINUOUS
 10
17.92076276004034
 20
1.549013140787464
 30
0.0
 11
20.37944720592384
 21
4.007697586670968
 31
0.0
  0
LINE
  5
253FF
  8
0
  6
CONTINUOUS
 10
18.10475279113329
 20
1.059483962800223
 30
0.0
 11
19.88949753175608
 21
2.84422870342302
 31
0.0
  0
LINE
  5
25400
  8
0
  6
CONTINUOUS
 10
18.28874282222623
 20
0.5699547848129822
 30
0.0
 11
19.39954785758832
 21
1.680759820175074
 31
0.0
  0
LINE
  5
25401
  8
0
  6
CONTINUOUS
 10
18.47273285331918
 20
0.0804256068257416
 30
0.0
 11
18.90959818342056
 21
0.517290936927127
 31
0.0
  0
LINE
  5
25402
  8
0
  6
CONTINUOUS
 10
14.3590401358224
 20
-0.1570118376323384
 30
0.0
 11
14.24903296539946
 21
-0.0470046672093929
 31
0.0
  0
LINE
  5
25403
  8
0
  6
CONTINUOUS
 10
14.54309291258661
 20
0.332454594683643
 30
0.0
 11
13.75908329123172
 21
1.116464216038529
 31
0.0
  0
LINE
  5
25404
  8
0
  6
CONTINUOUS
 10
14.72714568935081
 20
0.8219210269996244
 30
0.0
 11
13.26913361706399
 21
2.27993309928645
 31
0.0
  0
LINE
  5
25405
  8
0
  6
CONTINUOUS
 10
14.91119846611502
 20
1.311387459315606
 30
0.0
 11
12.77918394289625
 21
3.443401982534371
 31
0.0
  0
LINE
  5
25406
  8
0
  6
CONTINUOUS
 10
15.09525124287922
 20
1.800853891631587
 30
0.0
 11
12.28923426872852
 21
4.606870865782293
 31
0.0
  0
LINE
  5
25407
  8
0
  6
CONTINUOUS
 10
15.27930401964343
 20
2.290320323947569
 30
0.0
 11
11.79928459456078
 21
5.770339749030213
 31
0.0
  0
LINE
  5
25408
  8
0
  6
CONTINUOUS
 10
15.46335679640763
 20
2.77978675626355
 30
0.0
 11
14.48885470994921
 21
3.754288842721972
 31
0.0
  0
LINE
  5
25409
  8
0
  6
CONTINUOUS
 10
13.88507249233704
 20
4.358071060334137
 30
0.0
 11
11.30933492039305
 21
6.933808632278135
 31
0.0
  0
LINE
  5
2540A
  8
0
  6
CONTINUOUS
 10
18.75840522805855
 20
0.1582575336928151
 30
0.0
 11
18.25383727664818
 21
0.6628254851031863
 31
0.0
  0
LINE
  5
2540B
  8
0
  6
CONTINUOUS
 10
15.64740957317184
 20
3.269253188579531
 30
0.0
 11
14.67288388101266
 21
4.243778880738705
 31
0.0
  0
LINE
  5
2540C
  8
0
  6
CONTINUOUS
 10
13.39509276772158
 20
5.521569994029786
 30
0.0
 11
10.81938524622531
 21
8.097277515526056
 31
0.0
  0
LINE
  5
2540D
  8
0
  6
CONTINUOUS
 10
18.95798597883369
 20
0.6321959919978686
 30
0.0
 11
17.84825644852853
 21
1.741925522303024
 31
0.0
  0
LINE
  5
2540E
  8
0
  6
CONTINUOUS
 10
19.15756672960882
 20
1.106134450302922
 30
0.0
 11
17.44267562040888
 21
2.821025559502861
 31
0.0
  0
LINE
  5
2540F
  8
0
  6
CONTINUOUS
 10
15.83146234993604
 20
3.758719620895513
 30
0.0
 11
14.85691305207612
 21
4.733268918755439
 31
0.0
  0
LINE
  5
25410
  8
0
  6
CONTINUOUS
 10
16.01551512670025
 20
4.248186053211494
 30
0.0
 11
15.04094222313957
 21
5.222758956772172
 31
0.0
  0
LINE
  5
25411
  8
0
  6
CONTINUOUS
 10
12.90511304310612
 20
6.685068927725435
 30
0.0
 11
10.8270819708403
 21
8.763099999991255
 31
0.0
  0
LINE
  5
25412
  8
0
  6
CONTINUOUS
 10
12.41513331849066
 20
7.848567861421083
 30
0.0
 11
11.50060117992049
 21
8.763099999991255
 31
0.0
  0
LINE
  5
25413
  8
0
  6
CONTINUOUS
 10
19.35714748038395
 20
1.580072908607975
 30
0.0
 11
17.03709479228923
 21
3.900125596702697
 31
0.0
  0
LINE
  5
25414
  8
0
  6
CONTINUOUS
 10
19.55672823115909
 20
2.054011366913028
 30
0.0
 11
16.63151396416958
 21
4.979225633902534
 31
0.0
  0
LINE
  5
25415
  8
0
  6
CONTINUOUS
 10
16.19956790346445
 20
4.737652485527476
 30
0.0
 11
15.22497139420302
 21
5.712248994788904
 31
0.0
  0
LINE
  5
25416
  8
0
  6
CONTINUOUS
 10
16.38362068022866
 20
5.227118917843457
 30
0.0
 11
15.40900056526648
 21
6.201739032805637
 31
0.0
  0
LINE
  5
25417
  8
0
  6
CONTINUOUS
 10
19.75630898193422
 20
2.527949825218081
 30
0.0
 11
18.70774536448286
 21
3.576513442669441
 31
0.0
  0
LINE
  5
25418
  8
0
  6
CONTINUOUS
 10
19.95588973270936
 20
3.001888283523134
 30
0.0
 11
18.90726987211446
 21
4.050508144118028
 31
0.0
  0
LINE
  5
25419
  8
0
  6
CONTINUOUS
 10
20.15547048348449
 20
3.475826741828186
 30
0.0
 11
19.10679437974606
 21
4.524502845566614
 31
0.0
  0
LINE
  5
2541A
  8
0
  6
CONTINUOUS
 10
20.35505123425962
 20
3.94976520013324
 30
0.0
 11
19.30631888737766
 21
4.998497547015201
 31
0.0
  0
LINE
  5
2541B
  8
0
  6
CONTINUOUS
 10
20.55463198503475
 20
4.423703658438292
 30
0.0
 11
19.50584339500926
 21
5.472492248463787
 31
0.0
  0
LINE
  5
2541C
  8
0
  6
CONTINUOUS
 10
18.37481191085755
 20
3.909446896294752
 30
0.0
 11
15.59302973632993
 21
6.691229070822371
 31
0.0
  0
LINE
  5
2541D
  8
0
  6
CONTINUOUS
 10
17.96904084440766
 20
4.988737171824825
 30
0.0
 11
15.77705890739338
 21
7.180719108839104
 31
0.0
  0
LINE
  5
2541E
  8
0
  6
CONTINUOUS
 10
17.56326977795777
 20
6.068027447354899
 30
0.0
 11
15.96108807845684
 21
7.670209146855838
 31
0.0
  0
LINE
  5
2541F
  8
0
  6
CONTINUOUS
 10
17.15749871150789
 20
7.147317722884972
 30
0.0
 11
16.14511724952029
 21
8.15969918487257
 31
0.0
  0
LINE
  5
25420
  8
0
  6
CONTINUOUS
 10
16.751727645058
 20
8.226607998415046
 30
0.0
 11
16.32914642058374
 21
8.649189222889303
 31
0.0
  0
LINE
  5
25421
  8
0
  6
CONTINUOUS
 10
20.75421273580989
 20
4.897642116743345
 30
0.0
 11
19.70536790264086
 21
5.946486949912374
 31
0.0
  0
LINE
  5
25422
  8
0
  6
CONTINUOUS
 10
20.95379348658502
 20
5.371580575048398
 30
0.0
 11
19.90489241027246
 21
6.42048165136096
 31
0.0
  0
LINE
  5
25423
  8
0
  6
CONTINUOUS
 10
21.15337423736015
 20
5.845519033353452
 30
0.0
 11
20.10441691790406
 21
6.894476352809547
 31
0.0
  0
LINE
  5
25424
  8
0
  6
CONTINUOUS
 10
21.35295498813529
 20
6.319457491658505
 30
0.0
 11
20.30394142553566
 21
7.368471054258134
 31
0.0
  0
LINE
  5
25425
  8
0
  6
CONTINUOUS
 10
21.55253573891042
 20
6.793395949963558
 30
0.0
 11
20.50346593316726
 21
7.842465755706721
 31
0.0
  0
LINE
  5
25426
  8
0
  6
CONTINUOUS
 10
21.75211648968556
 20
7.267334408268612
 30
0.0
 11
20.70299044079886
 21
8.316460457155308
 31
0.0
  0
LINE
  5
25427
  8
0
  6
CONTINUOUS
 10
21.95169724046069
 20
7.741272866573663
 30
0.0
 11
20.9298701070431
 21
8.763099999991256
 31
0.0
  0
LINE
  5
25428
  8
0
  6
CONTINUOUS
 10
22.15127799123582
 20
8.215211324878716
 30
0.0
 11
21.60338931612328
 21
8.763099999991256
 31
0.0
  0
LINE
  5
25429
  8
0
  6
CONTINUOUS
 10
22.35085874201096
 20
8.689149783183769
 30
0.0
 11
22.27690852520347
 21
8.763099999991255
 31
0.0
  0
ENDBLK
  5
2551B
  8
0
  0
BLOCK
  8
0
  2
*X347
 70
     1
 10
0.0
 20
0.0
 30
0.0
  3
*X347
  1

  0
LINE
  5
2542B
  8
0
  6
CONTINUOUS
 10
23.19462913593892
 20
8.169917934846424
 30
0.0
 11
23.70775465517246
 21
8.683043454079957
 31
0.0
  0
LINE
  5
2542C
  8
0
  6
CONTINUOUS
 10
22.64923161835078
 20
6.951001208178088
 30
0.0
 11
23.9159364069932
 21
8.217705996820516
 31
0.0
  0
LINE
  5
2542D
  8
0
  6
CONTINUOUS
 10
22.10383410076263
 20
5.732084481509751
 30
0.0
 11
24.12411815881395
 21
7.752368539561078
 31
0.0
  0
LINE
  5
2542E
  8
0
  6
CONTINUOUS
 10
21.55843658317447
 20
4.513167754841414
 30
0.0
 11
24.3322999106347
 21
7.287031082301639
 31
0.0
  0
LINE
  5
2542F
  8
0
  6
CONTINUOUS
 10
21.01303906558632
 20
3.294251028173077
 30
0.0
 11
24.54048166245544
 21
6.821693625042199
 31
0.0
  0
LINE
  5
25430
  8
0
  6
CONTINUOUS
 10
20.46764154799817
 20
2.075334301504738
 30
0.0
 11
23.28571549467848
 21
4.89340824818505
 31
0.0
  0
LINE
  5
25431
  8
0
  6
CONTINUOUS
 10
19.92224403041002
 20
0.8564175748364002
 30
0.0
 11
22.74075865492779
 21
3.674932199354171
 31
0.0
  0
LINE
  5
25432
  8
0
  6
CONTINUOUS
 10
23.67305085490148
 20
5.280743608408048
 30
0.0
 11
24.74866341427619
 21
6.356356167782759
 31
0.0
  0
LINE
  5
25433
  8
0
  6
CONTINUOUS
 10
23.88118970842314
 20
4.815363252849522
 30
0.0
 11
24.95684516609694
 21
5.89101871052332
 31
0.0
  0
LINE
  5
25434
  8
0
  6
CONTINUOUS
 10
19.73925852647308
 20
-0.0000871381807288
 30
0.0
 11
23.4103456646501
 21
3.670999999996297
 31
0.0
  0
LINE
  5
25435
  8
0
  6
CONTINUOUS
 10
24.0893285619448
 20
4.349982897290997
 30
0.0
 11
25.16502691791769
 21
5.42568125326388
 31
0.0
  0
LINE
  5
25436
  8
0
  6
CONTINUOUS
 10
20.41282099582748
 20
-0.0000438779065108
 30
0.0
 11
21.64944178675636
 21
1.236576913022366
 31
0.0
  0
LINE
  5
25437
  8
0
  6
CONTINUOUS
 10
22.78126487373161
 20
2.36839999999762
 30
0.0
 11
24.08386487373029
 21
3.670999999996297
 31
0.0
  0
LINE
  5
25438
  8
0
  6
CONTINUOUS
 10
24.29746741546646
 20
3.884602541732471
 30
0.0
 11
25.37320866973843
 21
4.960343796004441
 31
0.0
  0
LINE
  5
25439
  8
0
  6
CONTINUOUS
 10
21.08638346518189
 20
-0.0000006176322938
 30
0.0
 11
21.10379033335899
 21
0.0174062505448083
 31
0.0
  0
LINE
  5
2543A
  8
0
  6
CONTINUOUS
 10
23.4547840828118
 20
2.36839999999762
 30
0.0
 11
25.58139042155918
 21
4.495006338745002
 31
0.0
  0
LINE
  5
2543B
  8
0
  6
CONTINUOUS
 10
29.30199999996933
 20
8.215615917155148
 30
0.0
 11
29.84948408280543
 21
8.763099999991255
 31
0.0
  0
LINE
  5
2543C
  8
0
  6
CONTINUOUS
 10
24.12830329189199
 20
2.36839999999762
 30
0.0
 11
25.78957217337993
 21
4.029668881485562
 31
0.0
  0
LINE
  5
2543D
  8
0
  6
CONTINUOUS
 10
29.30199999996933
 20
7.54209670807496
 30
0.0
 11
30.52300329188562
 21
8.763099999991255
 31
0.0
  0
LINE
  5
2543E
  8
0
  6
CONTINUOUS
 10
24.80182250097217
 20
2.36839999999762
 30
0.0
 11
25.99775392520067
 21
3.564331424226122
 31
0.0
  0
LINE
  5
2543F
  8
0
  6
CONTINUOUS
 10
29.30199999996933
 20
6.868577498994774
 30
0.0
 11
30.74199999996926
 21
8.308577498994712
 31
0.0
  0
LINE
  5
25440
  8
0
  6
CONTINUOUS
 10
25.13028238392013
 20
2.023340673865392
 30
0.0
 11
26.20593567702142
 21
3.098993966966683
 31
0.0
  0
LINE
  5
25441
  8
0
  6
CONTINUOUS
 10
25.33838066033617
 20
1.557919741201244
 30
0.0
 11
26.41411742884217
 21
2.633656509707244
 31
0.0
  0
LINE
  5
25442
  8
0
  6
CONTINUOUS
 10
25.54647893675221
 20
1.092498808537098
 30
0.0
 11
26.62229918066291
 21
2.168319052447804
 31
0.0
  0
LINE
  5
25443
  8
0
  6
CONTINUOUS
 10
25.75457721316825
 20
0.62707787587295
 30
0.0
 11
26.83048093248366
 21
1.702981595188365
 31
0.0
  0
LINE
  5
25444
  8
0
  6
CONTINUOUS
 10
29.30199999996933
 20
6.195058289914587
 30
0.0
 11
30.74199999996926
 21
7.635058289914522
 31
0.0
  0
LINE
  5
25445
  8
0
  6
CONTINUOUS
 10
29.30199999996933
 20
5.521539080834401
 30
0.0
 11
30.74199999996926
 21
6.961539080834331
 31
0.0
  0
LINE
  5
25446
  8
0
  6
CONTINUOUS
 10
29.30199999996933
 20
4.848019871754214
 30
0.0
 11
30.74199999996925
 21
6.288019871754143
 31
0.0
  0
LINE
  5
25447
  8
0
  6
CONTINUOUS
 10
29.30199999996933
 20
4.174500662674028
 30
0.0
 11
30.74199999996925
 21
5.614500662673953
 31
0.0
  0
LINE
  5
25448
  8
0
  6
CONTINUOUS
 10
25.96267548958429
 20
0.1616569432088024
 30
0.0
 11
27.18411854636669
 21
1.383099999991207
 31
0.0
  0
LINE
  5
25449
  8
0
  6
CONTINUOUS
 10
29.30199999996933
 20
3.500981453593841
 30
0.0
 11
30.74199999996925
 21
4.940981453593762
 31
0.0
  0
LINE
  5
2544A
  8
0
  6
CONTINUOUS
 10
26.50763775544691
 20
0.0330999999912356
 30
0.0
 11
27.85763775544689
 21
1.383099999991223
 31
0.0
  0
LINE
  5
2544B
  8
0
  6
CONTINUOUS
 10
29.30199999996933
 20
2.827462244513656
 30
0.0
 11
30.74199999996925
 21
4.267462244513574
 31
0.0
  0
LINE
  5
2544C
  8
0
  6
CONTINUOUS
 10
27.18115696452709
 20
0.0330999999912356
 30
0.0
 11
28.6224847300034
 21
1.474427765467545
 31
0.0
  0
LINE
  5
2544D
  8
0
  6
CONTINUOUS
 10
29.21067223449293
 20
2.062615269957069
 30
0.0
 11
30.74199999996924
 21
3.593943035433383
 31
0.0
  0
LINE
  5
2544E
  8
0
  6
CONTINUOUS
 10
27.85467617360728
 20
0.0330999999912356
 30
0.0
 11
30.74199999996924
 21
2.920423826353195
 31
0.0
  0
LINE
  5
2544F
  8
0
  6
CONTINUOUS
 10
28.57438609860264
 20
0.0792907159064073
 30
0.0
 11
30.69580928405405
 21
2.200713901357819
 31
0.0
  0
LINE
  5
25450
  8
0
  6
CONTINUOUS
 10
29.49443044814297
 20
0.3258158563665496
 30
0.0
 11
30.44928414359389
 21
1.280669551817477
 31
0.0
  0
LINE
  5
25451
  8
0
  6
CONTINUOUS
 10
19.59027867740337
 20
-0.0000967065718083
 30
0.0
 11
19.55485265190471
 21
0.035329318926844
 31
0.0
  0
LINE
  5
25452
  8
0
  6
CONTINUOUS
 10
20.26375463176586
 20
-0.0000534518541091
 30
0.0
 11
19.76305575737534
 21
0.5006454225364014
 31
0.0
  0
LINE
  5
25453
  8
0
  6
CONTINUOUS
 10
20.93723058612834
 20
-0.0000101971364099
 30
0.0
 11
19.97125886284597
 21
0.965961526145958
 31
0.0
  0
LINE
  5
25454
  8
0
  6
CONTINUOUS
 10
21.25514828313686
 20
0.355591314935257
 30
0.0
 11
20.1794619683166
 21
1.431277629755512
 31
0.0
  0
LINE
  5
25455
  8
0
  6
CONTINUOUS
 10
21.46338838394921
 20
0.8208704232030986
 30
0.0
 11
20.38766507378723
 21
1.896593733365069
 31
0.0
  0
LINE
  5
25456
  8
0
  6
CONTINUOUS
 10
21.67162848476155
 20
1.28614953147094
 30
0.0
 11
20.59586817925786
 21
2.361909836974626
 31
0.0
  0
LINE
  5
25457
  8
0
  6
CONTINUOUS
 10
21.8798685855739
 20
1.751428639738782
 30
0.0
 11
20.80407128472849
 21
2.827225940584183
 31
0.0
  0
LINE
  5
25458
  8
0
  6
CONTINUOUS
 10
22.08810868638624
 20
2.216707748006623
 30
0.0
 11
21.01227439019912
 21
3.292542044193739
 31
0.0
  0
LINE
  5
25459
  8
0
  6
CONTINUOUS
 10
22.60993564347543
 20
2.36839999999762
 30
0.0
 11
21.22047749566975
 21
3.757858147803296
 31
0.0
  0
LINE
  5
2545A
  8
0
  6
CONTINUOUS
 10
23.28345485255561
 20
2.36839999999762
 30
0.0
 11
21.42868060114038
 21
4.223174251412853
 31
0.0
  0
LINE
  5
2545B
  8
0
  6
CONTINUOUS
 10
26.29227406164219
 20
0.0330999999912356
 30
0.0
 11
25.80009199592872
 21
0.5252820657046957
 31
0.0
  0
LINE
  5
2545C
  8
0
  6
CONTINUOUS
 10
23.9569740616358
 20
2.36839999999762
 30
0.0
 11
21.63688370661101
 21
4.688490355022409
 31
0.0
  0
LINE
  5
2545D
  8
0
  6
CONTINUOUS
 10
26.96579327072237
 20
0.0330999999912356
 30
0.0
 11
25.2554132311971
 21
1.743480039516508
 31
0.0
  0
LINE
  5
2545E
  8
0
  6
CONTINUOUS
 10
24.63049327071599
 20
2.36839999999762
 30
0.0
 11
23.32789327071731
 21
3.670999999996297
 31
0.0
  0
LINE
  5
2545F
  8
0
  6
CONTINUOUS
 10
22.92098674744635
 20
4.077906523267254
 30
0.0
 11
21.84508681208164
 21
5.153806458631966
 31
0.0
  0
LINE
  5
25460
  8
0
  6
CONTINUOUS
 10
27.63931247980256
 20
0.0330999999912356
 30
0.0
 11
24.0014124797975
 21
3.670999999996297
 31
0.0
  0
LINE
  5
25461
  8
0
  6
CONTINUOUS
 10
23.129125600968
 20
4.5432868788258
 30
0.0
 11
22.05328991755227
 21
5.619122562241522
 31
0.0
  0
LINE
  5
25462
  8
0
  6
CONTINUOUS
 10
28.31283168888275
 20
0.0330999999912356
 30
0.0
 11
24.16488385994816
 21
4.181047828925828
 31
0.0
  0
LINE
  5
25463
  8
0
  6
CONTINUOUS
 10
23.33726445448964
 20
5.008667234384345
 30
0.0
 11
22.2614930230229
 21
6.084438665851079
 31
0.0
  0
LINE
  5
25464
  8
0
  6
CONTINUOUS
 10
28.86286302309502
 20
0.1565878748591523
 30
0.0
 11
27.63635089796295
 21
1.383099999991217
 31
0.0
  0
LINE
  5
25465
  8
0
  6
CONTINUOUS
 10
26.43704649509776
 20
2.582404402856405
 30
0.0
 11
23.61992702019732
 21
5.399523877756844
 31
0.0
  0
LINE
  5
25466
  8
0
  6
CONTINUOUS
 10
23.54540330801128
 20
5.47404758994289
 30
0.0
 11
22.46969612849353
 21
6.549754769460635
 31
0.0
  0
LINE
  5
25467
  8
0
  6
CONTINUOUS
 10
29.39405087596853
 20
0.2989192310658284
 30
0.0
 11
28.30987010704312
 21
1.383099999991234
 31
0.0
  0
LINE
  5
25468
  8
0
  6
CONTINUOUS
 10
25.89179548232307
 20
3.801174624711282
 30
0.0
 11
22.67789923396416
 21
7.015070873070191
 31
0.0
  0
LINE
  5
25469
  8
0
  6
CONTINUOUS
 10
29.79594438047407
 20
0.570544935640473
 30
0.0
 11
28.81310432793121
 21
1.553384988183336
 31
0.0
  0
LINE
  5
2546A
  8
0
  6
CONTINUOUS
 10
25.34654446954838
 20
5.01994484656616
 30
0.0
 11
22.88610233943479
 21
7.480386976679748
 31
0.0
  0
LINE
  5
2546B
  8
0
  6
CONTINUOUS
 10
30.13270398501416
 20
0.9073045401805646
 30
0.0
 11
29.14234640337737
 21
1.897662121817355
 31
0.0
  0
LINE
  5
2546C
  8
0
  6
CONTINUOUS
 10
24.80129345677369
 20
6.238715068421037
 30
0.0
 11
23.09430544490542
 21
7.945703080289305
 31
0.0
  0
LINE
  5
2546D
  8
0
  6
CONTINUOUS
 10
30.44581292956759
 20
1.26771480470732
 30
0.0
 11
29.30199999996933
 21
2.411527734305588
 31
0.0
  0
LINE
  5
2546E
  8
0
  6
CONTINUOUS
 10
30.58814428577427
 20
1.798902657580827
 30
0.0
 11
29.30199999996933
 21
3.085046943385775
 31
0.0
  0
LINE
  5
2546F
  8
0
  6
CONTINUOUS
 10
24.256042443999
 20
7.457485290275915
 30
0.0
 11
23.30250855037605
 21
8.411019183898862
 31
0.0
  0
LINE
  5
25470
  8
0
  6
CONTINUOUS
 10
23.71079143122431
 20
8.676255512130794
 30
0.0
 11
23.51071165584668
 21
8.876335287508418
 31
0.0
  0
LINE
  5
25471
  8
0
  6
CONTINUOUS
 10
30.73047564198095
 20
2.330090510454333
 30
0.0
 11
29.30199999996933
 21
3.758566152465961
 31
0.0
  0
LINE
  5
25472
  8
0
  6
CONTINUOUS
 10
30.74199999996924
 20
2.992085361546236
 30
0.0
 11
29.30199999996933
 21
4.432085361546148
 31
0.0
  0
LINE
  5
25473
  8
0
  6
CONTINUOUS
 10
30.74199999996924
 20
3.665604570626419
 30
0.0
 11
29.30199999996933
 21
5.105604570626333
 31
0.0
  0
LINE
  5
25474
  8
0
  6
CONTINUOUS
 10
30.74199999996925
 20
4.339123779706602
 30
0.0
 11
29.30199999996933
 21
5.77912377970652
 31
0.0
  0
LINE
  5
25475
  8
0
  6
CONTINUOUS
 10
30.74199999996925
 20
5.012642988786785
 30
0.0
 11
29.30199999996933
 21
6.452642988786707
 31
0.0
  0
LINE
  5
25476
  8
0
  6
CONTINUOUS
 10
30.74199999996925
 20
5.68616219786697
 30
0.0
 11
29.30199999996933
 21
7.126162197866894
 31
0.0
  0
LINE
  5
25477
  8
0
  6
CONTINUOUS
 10
30.74199999996925
 20
6.359681406947153
 30
0.0
 11
29.30199999996933
 21
7.799681406947081
 31
0.0
  0
LINE
  5
25478
  8
0
  6
CONTINUOUS
 10
30.74199999996926
 20
7.033200616027337
 30
0.0
 11
29.30199999996933
 21
8.473200616027269
 31
0.0
  0
LINE
  5
25479
  8
0
  6
CONTINUOUS
 10
30.74199999996926
 20
7.706719825107518
 30
0.0
 11
29.68561982508552
 21
8.763099999991255
 31
0.0
  0
LINE
  5
2547A
  8
0
  6
CONTINUOUS
 10
30.74199999996926
 20
8.380239034187703
 30
0.0
 11
30.35913903416571
 21
8.763099999991255
 31
0.0
  0
ENDBLK
  5
2551D
  8
0
  0
BLOCK
  8
0
  2
*X348
 70
     1
 10
0.0
 20
0.0
 30
0.0
  3
*X348
  1

  0
LINE
  5
2547C
  8
0
  6
CONTINUOUS
 10
31.64199999996833
 20
8.5350582899136
 30
0.0
 11
31.87004171004599
 21
8.763099999991255
 31
0.0
  0
LINE
  5
2547D
  8
0
  6
CONTINUOUS
 10
31.64199999996833
 20
7.861539080833413
 30
0.0
 11
32.54356091912618
 21
8.763099999991255
 31
0.0
  0
LINE
  5
2547E
  8
0
  6
CONTINUOUS
 10
31.64199999996833
 20
7.188019871753227
 30
0.0
 11
33.08199999996839
 21
8.628019871753281
 31
0.0
  0
LINE
  5
2547F
  8
0
  6
CONTINUOUS
 10
31.64199999996833
 20
6.514500662673041
 30
0.0
 11
33.08199999996839
 21
7.954500662673095
 31
0.0
  0
LINE
  5
25480
  8
0
  6
CONTINUOUS
 10
31.64199999996833
 20
5.840981453592855
 30
0.0
 11
33.08199999996839
 21
7.28098145359291
 31
0.0
  0
LINE
  5
25481
  8
0
  6
CONTINUOUS
 10
31.64199999996833
 20
5.167462244512668
 30
0.0
 11
33.08199999996839
 21
6.607462244512723
 31
0.0
  0
LINE
  5
25482
  8
0
  6
CONTINUOUS
 10
31.64199999996833
 20
4.493943035432482
 30
0.0
 11
33.08199999996839
 21
5.933943035432536
 31
0.0
  0
LINE
  5
25483
  8
0
  6
CONTINUOUS
 10
31.64199999996833
 20
3.820423826352294
 30
0.0
 11
33.08199999996839
 21
5.260423826352349
 31
0.0
  0
LINE
  5
25484
  8
0
  6
CONTINUOUS
 10
31.64199999996833
 20
3.146904617272108
 30
0.0
 11
33.08199999996839
 21
4.586904617272163
 31
0.0
  0
LINE
  5
25485
  8
0
  6
CONTINUOUS
 10
36.23199999996837
 20
8.410423826352327
 30
0.0
 11
36.58467617360729
 21
8.763099999991255
 31
0.0
  0
LINE
  5
25486
  8
0
  6
CONTINUOUS
 10
36.23199999996837
 20
7.73690461727214
 30
0.0
 11
37.25819538268748
 21
8.763099999991255
 31
0.0
  0
LINE
  5
25487
  8
0
  6
CONTINUOUS
 10
31.64323424774199
 20
2.474619655965573
 30
0.0
 11
33.08199999996839
 21
3.913385408191976
 31
0.0
  0
LINE
  5
25488
  8
0
  6
CONTINUOUS
 10
31.74419223861915
 20
1.902058437762552
 30
0.0
 11
33.08199999996839
 21
3.239866199111789
 31
0.0
  0
LINE
  5
25489
  8
0
  6
CONTINUOUS
 10
36.23199999996837
 20
7.063385408191953
 30
0.0
 11
37.67199999996831
 21
8.503385408191894
 31
0.0
  0
LINE
  5
2548A
  8
0
  6
CONTINUOUS
 10
36.23199999996837
 20
6.389866199111767
 30
0.0
 11
37.67199999996831
 21
7.829866199111708
 31
0.0
  0
LINE
  5
2548B
  8
0
  6
CONTINUOUS
 10
31.91111233414976
 20
1.39545932421297
 30
0.0
 11
33.08199999996839
 21
2.566346990031603
 31
0.0
  0
LINE
  5
2548C
  8
0
  6
CONTINUOUS
 10
36.23199999996837
 20
5.71634699003158
 30
0.0
 11
37.67199999996831
 21
7.156346990031522
 31
0.0
  0
LINE
  5
2548D
  8
0
  6
CONTINUOUS
 10
32.1576374746103
 20
0.9684652555933289
 30
0.0
 11
33.20642631446081
 21
2.017254095443838
 31
0.0
  0
LINE
  5
2548E
  8
0
  6
CONTINUOUS
 10
36.23199999996837
 20
5.042827780951393
 30
0.0
 11
37.67199999996831
 21
6.482827780951334
 31
0.0
  0
LINE
  5
2548F
  8
0
  6
CONTINUOUS
 10
32.47774023927325
 20
0.6150488111760914
 30
0.0
 11
33.49903056428258
 21
1.636339136185419
 31
0.0
  0
LINE
  5
25490
  8
0
  6
CONTINUOUS
 10
36.23199999996837
 20
4.369308571871207
 30
0.0
 11
37.67199999996831
 21
5.809308571871148
 31
0.0
  0
LINE
  5
25491
  8
0
  6
CONTINUOUS
 10
32.84396249154443
 20
0.3077518543670883
 30
0.0
 11
33.93324121824649
 21
1.397030581069146
 31
0.0
  0
LINE
  5
25492
  8
0
  6
CONTINUOUS
 10
36.23199999996837
 20
3.695789362791021
 30
0.0
 11
37.67199999996831
 21
5.135789362790963
 31
0.0
  0
LINE
  5
25493
  8
0
  6
CONTINUOUS
 10
33.30186329036846
 20
0.0921334441109263
 30
0.0
 11
34.46442907112041
 21
1.254699224862875
 31
0.0
  0
LINE
  5
25494
  8
0
  6
CONTINUOUS
 10
36.23199999996837
 20
3.022270153710834
 30
0.0
 11
37.67199999996831
 21
4.462270153710776
 31
0.0
  0
LINE
  5
25495
  8
0
  6
CONTINUOUS
 10
33.79565647746294
 20
-0.0875925778747773
 30
0.0
 11
35.24350171668284
 21
1.360252661345124
 31
0.0
  0
LINE
  5
25496
  8
0
  6
CONTINUOUS
 10
36.18336676155003
 20
2.300117706212308
 30
0.0
 11
37.67199999996831
 21
3.788750944630589
 31
0.0
  0
LINE
  5
25497
  8
0
  6
CONTINUOUS
 10
34.37182574910968
 20
-0.184942515308224
 30
0.0
 11
37.67199999996831
 21
3.115231735550402
 31
0.0
  0
LINE
  5
25498
  8
0
  6
CONTINUOUS
 10
35.0453449581892
 20
-0.1849425153088955
 30
0.0
 11
37.66345697088136
 21
2.433169497383271
 31
0.0
  0
LINE
  5
25499
  8
0
  6
CONTINUOUS
 10
35.98667157609191
 20
0.0828648935136398
 30
0.0
 11
37.51927401744566
 21
1.615467334867382
 31
0.0
  0
LINE
  5
2549A
  8
0
  6
CONTINUOUS
 10
32.27747408544484
 20
0.7830920669904482
 30
0.0
 11
32.24716210471949
 21
0.8134040477157893
 31
0.0
  0
LINE
  5
2549B
  8
0
  6
CONTINUOUS
 10
33.83656881101902
 20
-0.1024834495035494
 30
0.0
 11
31.72538911593758
 21
2.008696245577891
 31
0.0
  0
LINE
  5
2549C
  8
0
  6
CONTINUOUS
 10
34.5925470859041
 20
-0.1849425153084434
 30
0.0
 11
31.64199999996833
 21
2.765604570627322
 31
0.0
  0
LINE
  5
2549D
  8
0
  6
CONTINUOUS
 10
35.26201302775981
 20
-0.1808892480839752
 30
0.0
 11
31.64199999996833
 21
3.439123779707508
 31
0.0
  0
LINE
  5
2549E
  8
0
  6
CONTINUOUS
 10
35.75580621485512
 20
-0.0011632260990879
 30
0.0
 11
34.51294304365551
 21
1.241699945100514
 31
0.0
  0
LINE
  5
2549F
  8
0
  6
CONTINUOUS
 10
33.08199999996839
 20
2.672642988787641
 30
0.0
 11
31.64199999996833
 21
4.112642988787695
 31
0.0
  0
LINE
  5
254A0
  8
0
  6
CONTINUOUS
 10
36.24959940195042
 20
0.1785627958857976
 30
0.0
 11
35.10501653033629
 21
1.323145667499924
 31
0.0
  0
LINE
  5
254A1
  8
0
  6
CONTINUOUS
 10
33.08199999996839
 20
3.346162197867827
 30
0.0
 11
31.64199999996833
 21
4.786162197867881
 31
0.0
  0
LINE
  5
254A2
  8
0
  6
CONTINUOUS
 10
36.64615197150552
 20
0.4555294354108876
 30
0.0
 11
35.6362043832099
 21
1.465477023706505
 31
0.0
  0
LINE
  5
254A3
  8
0
  6
CONTINUOUS
 10
33.08199999996839
 20
4.019681406948013
 30
0.0
 11
31.64199999996833
 21
5.459681406948068
 31
0.0
  0
LINE
  5
254A4
  8
0
  6
CONTINUOUS
 10
37.0123742237774
 20
0.7628263922191891
 30
0.0
 11
35.97691545773309
 21
1.798285158263504
 31
0.0
  0
LINE
  5
254A5
  8
0
  6
CONTINUOUS
 10
33.08199999996839
 20
4.6932006160282
 30
0.0
 11
31.64199999996833
 21
6.133200616028255
 31
0.0
  0
LINE
  5
254A6
  8
0
  6
CONTINUOUS
 10
37.27491524157143
 20
1.173804583505349
 30
0.0
 11
36.17602012811361
 21
2.272699696963169
 31
0.0
  0
LINE
  5
254A7
  8
0
  6
CONTINUOUS
 10
33.08199999996839
 20
5.366719825108387
 30
0.0
 11
31.64199999996833
 21
6.806719825108441
 31
0.0
  0
LINE
  5
254A8
  8
0
  6
CONTINUOUS
 10
37.51739996707661
 20
1.604839067080355
 30
0.0
 11
36.23199999996837
 21
2.890239034188595
 31
0.0
  0
LINE
  5
254A9
  8
0
  6
CONTINUOUS
 10
37.6183579579535
 20
2.177400285283649
 30
0.0
 11
36.23199999996837
 21
3.563758243268782
 31
0.0
  0
LINE
  5
254AA
  8
0
  6
CONTINUOUS
 10
33.08199999996839
 20
6.040239034188573
 30
0.0
 11
31.64199999996833
 21
7.480239034188628
 31
0.0
  0
LINE
  5
254AB
  8
0
  6
CONTINUOUS
 10
33.08199999996839
 20
6.713758243268759
 30
0.0
 11
31.64199999996833
 21
8.153758243268815
 31
0.0
  0
LINE
  5
254AC
  8
0
  6
CONTINUOUS
 10
37.67199999996831
 20
2.797277452349027
 30
0.0
 11
36.23199999996837
 21
4.237277452348969
 31
0.0
  0
LINE
  5
254AD
  8
0
  6
CONTINUOUS
 10
37.67199999996831
 20
3.470796661429214
 30
0.0
 11
36.23199999996837
 21
4.910796661429155
 31
0.0
  0
LINE
  5
254AE
  8
0
  6
CONTINUOUS
 10
37.67199999996831
 20
4.1443158705094
 30
0.0
 11
36.23199999996837
 21
5.584315870509341
 31
0.0
  0
LINE
  5
254AF
  8
0
  6
CONTINUOUS
 10
33.08199999996839
 20
7.387277452348946
 30
0.0
 11
31.70617745232608
 21
8.763099999991255
 31
0.0
  0
LINE
  5
254B0
  8
0
  6
CONTINUOUS
 10
33.08199999996839
 20
8.060796661429134
 30
0.0
 11
32.37969666140626
 21
8.763099999991255
 31
0.0
  0
LINE
  5
254B1
  8
0
  6
CONTINUOUS
 10
33.08199999996839
 20
8.734315870509318
 30
0.0
 11
33.05321587048645
 21
8.763099999991255
 31
0.0
  0
LINE
  5
254B2
  8
0
  6
CONTINUOUS
 10
37.67199999996831
 20
4.817835079589586
 30
0.0
 11
36.23199999996837
 21
6.257835079589528
 31
0.0
  0
LINE
  5
254B3
  8
0
  6
CONTINUOUS
 10
37.67199999996831
 20
5.491354288669772
 30
0.0
 11
36.23199999996837
 21
6.931354288669715
 31
0.0
  0
LINE
  5
254B4
  8
0
  6
CONTINUOUS
 10
37.67199999996831
 20
6.164873497749959
 30
0.0
 11
36.23199999996837
 21
7.6048734977499
 31
0.0
  0
LINE
  5
254B5
  8
0
  6
CONTINUOUS
 10
37.67199999996831
 20
6.838392706830145
 30
0.0
 11
36.23199999996837
 21
8.278392706830086
 31
0.0
  0
LINE
  5
254B6
  8
0
  6
CONTINUOUS
 10
37.67199999996831
 20
7.511911915910333
 30
0.0
 11
36.42081191588738
 21
8.763099999991255
 31
0.0
  0
LINE
  5
254B7
  8
0
  6
CONTINUOUS
 10
37.67199999996831
 20
8.185431124990519
 30
0.0
 11
37.09433112496757
 21
8.763099999991255
 31
0.0
  0
ENDBLK
  5
2551F
  8
0
  0
BLOCK
  8
0
  2
*X349
 70
     1
 10
0.0
 20
0.0
 30
0.0
  3
*X349
  1

  0
LINE
  5
254B9
  8
0
  6
CONTINUOUS
 10
38.60499999996136
 20
8.762866199104765
 30
0.0
 11
38.71672554182345
 21
8.874591740966855
 31
0.0
  0
LINE
  5
254BA
  8
0
  6
CONTINUOUS
 10
38.60499999996136
 20
8.089346990024577
 30
0.0
 11
39.03418785440363
 21
8.518534844466847
 31
0.0
  0
LINE
  5
254BB
  8
0
  6
CONTINUOUS
 10
38.60499999996136
 20
7.41582778094439
 30
0.0
 11
39.35165016698382
 21
8.16247794796684
 31
0.0
  0
LINE
  5
254BC
  8
0
  6
CONTINUOUS
 10
38.60499999996136
 20
6.742308571864204
 30
0.0
 11
39.66911247956399
 21
7.806421051466834
 31
0.0
  0
LINE
  5
254BD
  8
0
  6
CONTINUOUS
 10
38.60499999996136
 20
6.068789362784018
 30
0.0
 11
39.98657479214418
 21
7.450364154966827
 31
0.0
  0
LINE
  5
254BE
  8
0
  6
CONTINUOUS
 10
38.60499999996136
 20
5.395270153703832
 30
0.0
 11
40.30403710472435
 21
7.09430725846682
 31
0.0
  0
LINE
  5
254BF
  8
0
  6
CONTINUOUS
 10
38.60499999996136
 20
4.721750944623645
 30
0.0
 11
40.62149941730453
 21
6.738250361966813
 31
0.0
  0
LINE
  5
254C0
  8
0
  6
CONTINUOUS
 10
38.60499999996136
 20
4.048231735543458
 30
0.0
 11
40.93896172988471
 21
6.382193465466806
 31
0.0
  0
LINE
  5
254C1
  8
0
  6
CONTINUOUS
 10
38.60499999996136
 20
3.374712526463272
 30
0.0
 11
40.02599999995994
 21
4.795712526461843
 31
0.0
  0
LINE
  5
254C2
  8
0
  6
CONTINUOUS
 10
38.60499999996136
 20
2.701193317383085
 30
0.0
 11
40.02599999995994
 21
4.122193317381657
 31
0.0
  0
LINE
  5
254C3
  8
0
  6
CONTINUOUS
 10
40.28339754687704
 20
5.053110073378947
 30
0.0
 11
41.25642404246489
 21
6.026136568966799
 31
0.0
  0
LINE
  5
254C4
  8
0
  6
CONTINUOUS
 10
40.60085985945722
 20
4.697053176878939
 30
0.0
 11
41.57388635504507
 21
5.670079672466793
 31
0.0
  0
LINE
  5
254C5
  8
0
  6
CONTINUOUS
 10
43.57899999995641
 20
8.348712526458318
 30
0.0
 11
43.99338747348935
 21
8.763099999991255
 31
0.0
  0
LINE
  5
254C6
  8
0
  6
CONTINUOUS
 10
43.57899999995641
 20
7.675193317378131
 30
0.0
 11
44.66690668256953
 21
8.763099999991255
 31
0.0
  0
LINE
  5
254C7
  8
0
  6
CONTINUOUS
 10
38.60499999996136
 20
2.027674108302898
 30
0.0
 11
40.02599999995994
 21
3.44867410830147
 31
0.0
  0
LINE
  5
254C8
  8
0
  6
CONTINUOUS
 10
38.60499999996136
 20
1.354154899222712
 30
0.0
 11
40.02599999995994
 21
2.775154899221284
 31
0.0
  0
LINE
  5
254C9
  8
0
  6
CONTINUOUS
 10
38.60499999996136
 20
0.6806356901425255
 30
0.0
 11
40.02599999995994
 21
2.101635690141098
 31
0.0
  0
LINE
  5
254CA
  8
0
  6
CONTINUOUS
 10
38.60499999996136
 20
0.0071164810623383
 30
0.0
 11
40.02599999995994
 21
1.428116481060911
 31
0.0
  0
LINE
  5
254CB
  8
0
  6
CONTINUOUS
 10
40.9183221720374
 20
4.340996280378933
 30
0.0
 11
41.89134866762525
 21
5.314022775966786
 31
0.0
  0
LINE
  5
254CC
  8
0
  6
CONTINUOUS
 10
41.23578448461758
 20
3.984939383878926
 30
0.0
 11
42.20881098020543
 21
4.957965879466778
 31
0.0
  0
LINE
  5
254CD
  8
0
  6
CONTINUOUS
 10
41.55324679719776
 20
3.628882487378919
 30
0.0
 11
42.52627329278561
 21
4.601908982966772
 31
0.0
  0
LINE
  5
254CE
  8
0
  6
CONTINUOUS
 10
41.87070910977793
 20
3.272825590878912
 30
0.0
 11
42.84373560536579
 21
4.245852086466765
 31
0.0
  0
LINE
  5
254CF
  8
0
  6
CONTINUOUS
 10
43.57899999995641
 20
7.001674108297943
 30
0.0
 11
44.99999999995498
 21
8.422674108296516
 31
0.0
  0
LINE
  5
254D0
  8
0
  6
CONTINUOUS
 10
43.57899999995641
 20
6.328154899217758
 30
0.0
 11
44.99999999995498
 21
7.749154899216329
 31
0.0
  0
LINE
  5
254D1
  8
0
  6
CONTINUOUS
 10
43.57899999995641
 20
5.654635690137571
 30
0.0
 11
44.99999999995498
 21
7.075635690136142
 31
0.0
  0
LINE
  5
254D2
  8
0
  6
CONTINUOUS
 10
43.57899999995641
 20
4.981116481057384
 30
0.0
 11
44.99999999995498
 21
6.402116481055955
 31
0.0
  0
LINE
  5
254D3
  8
0
  6
CONTINUOUS
 10
39.27140272797921
 20
-0.0000000000000009
 30
0.0
 11
40.02599999995994
 21
0.7545972719807246
 31
0.0
  0
LINE
  5
254D4
  8
0
  6
CONTINUOUS
 10
39.9449219370594
 20
-0.0000000000000009
 30
0.0
 11
40.02599999995994
 21
0.0810780629005379
 31
0.0
  0
LINE
  5
254D5
  8
0
  6
CONTINUOUS
 10
42.18817142235812
 20
2.916768694378905
 30
0.0
 11
43.16119791794597
 21
3.889795189966758
 31
0.0
  0
LINE
  5
254D6
  8
0
  6
CONTINUOUS
 10
42.50563373493829
 20
2.560711797878898
 30
0.0
 11
43.47866023052615
 21
3.533738293466751
 31
0.0
  0
LINE
  5
254D7
  8
0
  6
CONTINUOUS
 10
43.57899999995641
 20
4.307597271977198
 30
0.0
 11
44.99999999995498
 21
5.728597271975769
 31
0.0
  0
LINE
  5
254D8
  8
0
  6
CONTINUOUS
 10
43.57899999995641
 20
3.634078062897011
 30
0.0
 11
44.99999999995498
 21
5.055078062895582
 31
0.0
  0
LINE
  5
254D9
  8
0
  6
CONTINUOUS
 10
42.82309604751848
 20
2.204654901378891
 30
0.0
 11
44.99999999995498
 21
4.381558853815395
 31
0.0
  0
LINE
  5
254DA
  8
0
  6
CONTINUOUS
 10
43.14055836009865
 20
1.848598004878885
 30
0.0
 11
44.99999999995498
 21
3.70803964473521
 31
0.0
  0
LINE
  5
254DB
  8
0
  6
CONTINUOUS
 10
43.45802067267883
 20
1.492541108378878
 30
0.0
 11
44.99999999995498
 21
3.034520435655023
 31
0.0
  0
LINE
  5
254DC
  8
0
  6
CONTINUOUS
 10
43.77548298525902
 20
1.136484211878871
 30
0.0
 11
44.99999999995498
 21
2.361001226574837
 31
0.0
  0
LINE
  5
254DD
  8
0
  6
CONTINUOUS
 10
44.09294529783919
 20
0.7804273153788639
 30
0.0
 11
44.99999999995498
 21
1.687482017494649
 31
0.0
  0
LINE
  5
254DE
  8
0
  6
CONTINUOUS
 10
44.41040761041938
 20
0.4243704188788566
 30
0.0
 11
44.99999999995498
 21
1.013962808414463
 31
0.0
  0
LINE
  5
254DF
  8
0
  6
CONTINUOUS
 10
44.72786992299955
 20
0.0683135223788494
 30
0.0
 11
44.99999999995498
 21
0.340443599334276
 31
0.0
  0
LINE
  5
254E0
  8
0
  6
CONTINUOUS
 10
39.12223903415696
 20
-0.0000000000000009
 30
0.0
 11
38.60499999996136
 21
0.5172390341955961
 31
0.0
  0
LINE
  5
254E1
  8
0
  6
CONTINUOUS
 10
39.79575824323715
 20
-0.0000000000000009
 30
0.0
 11
38.60499999996136
 21
1.190758243275783
 31
0.0
  0
LINE
  5
254E2
  8
0
  6
CONTINUOUS
 10
40.02599999995994
 20
0.443277452357397
 30
0.0
 11
38.60499999996136
 21
1.864277452355969
 31
0.0
  0
LINE
  5
254E3
  8
0
  6
CONTINUOUS
 10
40.02599999995994
 20
1.116796661437583
 30
0.0
 11
38.60499999996136
 21
2.537796661436155
 31
0.0
  0
LINE
  5
254E4
  8
0
  6
CONTINUOUS
 10
40.02599999995994
 20
1.79031587051777
 30
0.0
 11
38.60499999996136
 21
3.211315870516341
 31
0.0
  0
LINE
  5
254E5
  8
0
  6
CONTINUOUS
 10
40.02599999995994
 20
2.463835079597956
 30
0.0
 11
38.60499999996136
 21
3.884835079596527
 31
0.0
  0
LINE
  5
254E6
  8
0
  6
CONTINUOUS
 10
40.02599999995994
 20
3.137354288678143
 30
0.0
 11
38.60499999996136
 21
4.558354288676714
 31
0.0
  0
LINE
  5
254E7
  8
0
  6
CONTINUOUS
 10
40.02599999995994
 20
3.810873497758329
 30
0.0
 11
38.60499999996136
 21
5.2318734977569
 31
0.0
  0
LINE
  5
254E8
  8
0
  6
CONTINUOUS
 10
40.02599999995994
 20
4.484392706838515
 30
0.0
 11
38.60499999996136
 21
5.905392706837086
 31
0.0
  0
LINE
  5
254E9
  8
0
  6
CONTINUOUS
 10
44.99999999995498
 20
0.183911915923658
 30
0.0
 11
41.53858364506288
 21
3.64532827081576
 31
0.0
  0
LINE
  5
254EA
  8
0
  6
CONTINUOUS
 10
40.02599999995994
 20
5.157911915918703
 30
0.0
 11
38.60499999996136
 21
6.578911915917274
 31
0.0
  0
LINE
  5
254EB
  8
0
  6
CONTINUOUS
 10
44.99999999995498
 20
0.8574311250038447
 30
0.0
 11
38.60499999996136
 21
7.25243112499746
 31
0.0
  0
LINE
  5
254EC
  8
0
  6
CONTINUOUS
 10
44.99999999995498
 20
1.530950334084031
 30
0.0
 11
38.60499999996136
 21
7.925950334077647
 31
0.0
  0
LINE
  5
254ED
  8
0
  6
CONTINUOUS
 10
44.99999999995498
 20
2.204469543164218
 30
0.0
 11
43.57899999995641
 21
3.625469543162789
 31
0.0
  0
LINE
  5
254EE
  8
0
  6
CONTINUOUS
 10
41.89876730984767
 20
5.305702233271528
 30
0.0
 11
38.60499999996136
 21
8.599469543157834
 31
0.0
  0
LINE
  5
254EF
  8
0
  6
CONTINUOUS
 10
44.99999999995498
 20
2.877988752244405
 30
0.0
 11
43.57899999995641
 21
4.298988752242975
 31
0.0
  0
LINE
  5
254F0
  8
0
  6
CONTINUOUS
 10
44.99999999995498
 20
3.551507961324591
 30
0.0
 11
43.57899999995641
 21
4.972507961323163
 31
0.0
  0
LINE
  5
254F1
  8
0
  6
CONTINUOUS
 10
44.99999999995498
 20
4.225027170404777
 30
0.0
 11
43.57899999995641
 21
5.646027170403348
 31
0.0
  0
LINE
  5
254F2
  8
0
  6
CONTINUOUS
 10
44.99999999995498
 20
4.898546379484964
 30
0.0
 11
43.57899999995641
 21
6.319546379483535
 31
0.0
  0
LINE
  5
254F3
  8
0
  6
CONTINUOUS
 10
44.99999999995498
 20
5.572065588565151
 30
0.0
 11
43.57899999995641
 21
6.993065588563722
 31
0.0
  0
LINE
  5
254F4
  8
0
  6
CONTINUOUS
 10
44.99999999995498
 20
6.245584797645336
 30
0.0
 11
43.57899999995641
 21
7.666584797643908
 31
0.0
  0
LINE
  5
254F5
  8
0
  6
CONTINUOUS
 10
44.99999999995498
 20
6.919104006725522
 30
0.0
 11
43.57899999995641
 21
8.340104006724093
 31
0.0
  0
LINE
  5
254F6
  8
0
  6
CONTINUOUS
 10
44.99999999995498
 20
7.592623215805709
 30
0.0
 11
43.82952321576943
 21
8.763099999991255
 31
0.0
  0
LINE
  5
254F7
  8
0
  6
CONTINUOUS
 10
44.99999999995498
 20
8.266142424885896
 30
0.0
 11
44.50304242484962
 21
8.763099999991255
 31
0.0
  0
ENDBLK
  5
25521
  8
0
  0
BLOCK
  8
0
  2
*X350
 70
     1
 10
0.0
 20
0.0
 30
0.0
  3
*X350
  1

  0
LINE
  5
254F9
  8
0
  6
CONTINUOUS
 10
0.0
 20
8.548461116714023
 30
0.0
 11
0.2146388832772324
 21
8.763099999991255
 31
0.0
  0
LINE
  5
254FA
  8
0
  6
CONTINUOUS
 10
-0.0000000000000002
 20
7.874941907633837
 30
0.0
 11
0.8881580923574184
 21
8.763099999991255
 31
0.0
  0
LINE
  5
254FB
  8
0
  6
CONTINUOUS
 10
0.0
 20
7.20142269855365
 30
0.0
 11
1.420999999998572
 21
8.622422698552223
 31
0.0
  0
LINE
  5
254FC
  8
0
  6
CONTINUOUS
 10
-0.0000000000000001
 20
6.527903489473465
 30
0.0
 11
1.420999999998571
 21
7.948903489472036
 31
0.0
  0
LINE
  5
254FD
  8
0
  6
CONTINUOUS
 10
-0.0000000000000002
 20
5.854384280393278
 30
0.0
 11
1.420999999998571
 21
7.275384280391849
 31
0.0
  0
LINE
  5
254FE
  8
0
  6
CONTINUOUS
 10
-0.0000000000000002
 20
5.180865071313091
 30
0.0
 11
1.420999999998571
 21
6.601865071311663
 31
0.0
  0
LINE
  5
254FF
  8
0
  6
CONTINUOUS
 10
0.0
 20
4.507345862232905
 30
0.0
 11
1.420999999998571
 21
5.928345862231477
 31
0.0
  0
LINE
  5
25500
  8
0
  6
CONTINUOUS
 10
-0.0000000000000003
 20
3.833826653152718
 30
0.0
 11
1.420999999998571
 21
5.25482665315129
 31
0.0
  0
LINE
  5
25501
  8
0
  6
CONTINUOUS
 10
-0.0000000000000002
 20
3.160307444072532
 30
0.0
 11
1.420999999998571
 21
4.581307444071103
 31
0.0
  0
LINE
  5
25502
  8
0
  6
CONTINUOUS
 10
-0.0000000000000001
 20
2.486788234992345
 30
0.0
 11
1.420999999998571
 21
3.907788234990917
 31
0.0
  0
LINE
  5
25503
  8
0
  6
CONTINUOUS
 10
-0.0000000000000006
 20
1.813269025912159
 30
0.0
 11
1.420999999998571
 21
3.234269025910731
 31
0.0
  0
LINE
  5
25504
  8
0
  6
CONTINUOUS
 10
0.0
 20
1.139749816831973
 30
0.0
 11
1.420999999998571
 21
2.560749816830544
 31
0.0
  0
LINE
  5
25505
  8
0
  6
CONTINUOUS
 10
0.0000000000000002
 20
0.466230607751787
 30
0.0
 11
1.420999999998571
 21
1.887230607750358
 31
0.0
  0
LINE
  5
25506
  8
0
  6
CONTINUOUS
 10
0.2072886013284003
 20
-0.0000000000000009
 30
0.0
 11
1.420999999998571
 21
1.213711398670171
 31
0.0
  0
LINE
  5
25507
  8
0
  6
CONTINUOUS
 10
0.8808078104085864
 20
-0.0000000000000009
 30
0.0
 11
1.420999999998571
 21
0.5401921895899839
 31
0.0
  0
LINE
  5
25508
  8
0
  6
CONTINUOUS
 10
0.0581249075061505
 20
-0.0000000000000009
 30
0.0
 11
-0.0000000000000002
 21
0.0581249075061496
 31
0.0
  0
LINE
  5
25509
  8
0
  6
CONTINUOUS
 10
0.7316441165863372
 20
-0.0000000000000009
 30
0.0
 11
-0.0000000000000002
 21
0.7316441165863363
 31
0.0
  0
LINE
  5
2550A
  8
0
  6
CONTINUOUS
 10
1.405163325666523
 20
-0.0000000000000009
 30
0.0
 11
-0.0000000000000002
 21
1.405163325666523
 31
0.0
  0
LINE
  5
2550B
  8
0
  6
CONTINUOUS
 10
1.420999999998572
 20
0.6576825347481381
 30
0.0
 11
-0.0000000000000001
 21
2.07868253474671
 31
0.0
  0
LINE
  5
2550C
  8
0
  6
CONTINUOUS
 10
1.420999999998571
 20
1.331201743828324
 30
0.0
 11
-0.0000000000000001
 21
2.752201743826896
 31
0.0
  0
LINE
  5
2550D
  8
0
  6
CONTINUOUS
 10
1.420999999998571
 20
2.004720952908511
 30
0.0
 11
-0.0000000000000002
 21
3.425720952907082
 31
0.0
  0
LINE
  5
2550E
  8
0
  6
CONTINUOUS
 10
1.420999999998571
 20
2.678240161988697
 30
0.0
 11
-0.0000000000000001
 21
4.099240161987269
 31
0.0
  0
LINE
  5
2550F
  8
0
  6
CONTINUOUS
 10
1.420999999998572
 20
3.351759371068884
 30
0.0
 11
0.0
 21
4.772759371067455
 31
0.0
  0
LINE
  5
25510
  8
0
  6
CONTINUOUS
 10
1.420999999998571
 20
4.02527858014907
 30
0.0
 11
-0.0000000000000003
 21
5.446278580147642
 31
0.0
  0
LINE
  5
25511
  8
0
  6
CONTINUOUS
 10
1.420999999998571
 20
4.698797789229257
 30
0.0
 11
0.0
 21
6.119797789227828
 31
0.0
  0
LINE
  5
25512
  8
0
  6
CONTINUOUS
 10
1.420999999998571
 20
5.372316998309444
 30
0.0
 11
-0.0000000000000001
 21
6.793316998308015
 31
0.0
  0
LINE
  5
25513
  8
0
  6
CONTINUOUS
 10
1.420999999998572
 20
6.045836207389629
 30
0.0
 11
-0.0000000000000004
 21
7.466836207388202
 31
0.0
  0
LINE
  5
25514
  8
0
  6
CONTINUOUS
 10
1.420999999998571
 20
6.719355416469816
 30
0.0
 11
0.0
 21
8.140355416468388
 31
0.0
  0
LINE
  5
25515
  8
0
  6
CONTINUOUS
 10
1.420999999998571
 20
7.392874625550003
 30
0.0
 11
0.0507746255573185
 21
8.763099999991255
 31
0.0
  0
LINE
  5
25516
  8
0
  6
CONTINUOUS
 10
1.420999999998571
 20
8.06639383463019
 30
0.0
 11
0.7242938346375052
 21
8.763099999991255
 31
0.0
  0
LINE
  5
25517
  8
0
  6
CONTINUOUS
 10
1.420999999998571
 20
8.739913043710375
 30
0.0
 11
1.397813043717691
 21
8.763099999991255
 31
0.0
  0
ENDBLK
  5
25523
  8
0
  0
ENDSEC
  0
SECTION
  2
ENTITIES
  0
POLYLINE
  5
23B0F
  8
01
 10
0.0
 20
0.0
 30
0.0
 66
     1
 70
     8
  0
VERTEX
  5
252C6
  8
01
 10
641.7162416153651
 20
-591.9733414792015
 30
0.0
 70
    32
  0
VERTEX
  5
252C7
  8
01
 10
641.1141582820317
 20
-591.9733414792015
 30
0.0
 70
    32
  0
VERTEX
  5
252C8
  8
01
 10
640.5120749486986
 20
-591.9733414792015
 30
0.0
 70
    32
  0
VERTEX
  5
252C9
  8
01
 10
639.9099916153651
 20
-591.9733414792015
 30
0.0
 70
    32
  0
VERTEX
  5
252CA
  8
01
 10
639.3079082820318
 20
-591.9733414792015
 30
0.0
 70
    32
  0
VERTEX
  5
252CB
  8
01
 10
638.7058249486986
 20
-591.9733414792015
 30
0.0
 70
    32
  0
VERTEX
  5
252CC
  8
01
 10
638.1037416153652
 20
-591.9733414792015
 30
0.0
 70
    32
  0
VERTEX
  5
252CD
  8
01
 10
637.5016582820319
 20
-591.9733414792015
 30
0.0
 70
    32
  0
VERTEX
  5
252CE
  8
01
 10
636.8995749486986
 20
-591.9733414792015
 30
0.0
 70
    32
  0
VERTEX
  5
252CF
  8
01
 10
636.2974916153652
 20
-591.9733414792015
 30
0.0
 70
    32
  0
VERTEX
  5
252D0
  8
01
 10
635.695408282032
 20
-591.9733414792015
 30
0.0
 70
    32
  0
VERTEX
  5
252D1
  8
01
 10
635.0933249486986
 20
-591.9733414792015
 30
0.0
 70
    32
  0
VERTEX
  5
252D2
  8
01
 10
634.4912416153653
 20
-591.9733414792015
 30
0.0
 70
    32
  0
VERTEX
  5
252D3
  8
01
 10
633.889158282032
 20
-591.9733414792015
 30
0.0
 70
    32
  0
VERTEX
  5
252D4
  8
01
 10
633.2870749486987
 20
-591.9733414792015
 30
0.0
 70
    32
  0
VERTEX
  5
252D5
  8
01
 10
632.6849916153653
 20
-591.9733414792015
 30
0.0
 70
    32
  0
VERTEX
  5
252D6
  8
01
 10
632.082908282032
 20
-591.9733414792015
 30
0.0
 70
    32
  0
VERTEX
  5
252D7
  8
01
 10
631.4808249486987
 20
-591.9733414792015
 30
0.0
 70
    32
  0
VERTEX
  5
252D8
  8
01
 10
630.8787416153654
 20
-591.9733414792015
 30
0.0
 70
    32
  0
VERTEX
  5
252D9
  8
01
 10
630.276658282032
 20
-591.9733414792015
 30
0.0
 70
    32
  0
VERTEX
  5
252DA
  8
01
 10
629.6745749486988
 20
-591.9733414792015
 30
0.0
 70
    32
  0
VERTEX
  5
252DB
  8
01
 10
629.0724916153655
 20
-591.9733414792015
 30
0.0
 70
    32
  0
VERTEX
  5
252DC
  8
01
 10
628.470408282032
 20
-591.9733414792015
 30
0.0
 70
    32
  0
VERTEX
  5
252DD
  8
01
 10
627.8683249486988
 20
-591.9733414792015
 30
0.0
 70
    32
  0
VERTEX
  5
252DE
  8
01
 10
627.2662416153654
 20
-591.9733414792015
 30
0.0
 70
    32
  0
VERTEX
  5
252DF
  8
01
 10
626.6641582820321
 20
-591.9733414792015
 30
0.0
 70
    32
  0
VERTEX
  5
252E0
  8
01
 10
626.0620749486989
 20
-591.9733414792015
 30
0.0
 70
    32
  0
VERTEX
  5
252E1
  8
01
 10
625.4599916153654
 20
-591.9733414792015
 30
0.0
 70
    32
  0
VERTEX
  5
252E2
  8
01
 10
624.8579082820321
 20
-591.9733414792015
 30
0.0
 70
    32
  0
VERTEX
  5
252E3
  8
01
 10
624.2558249486989
 20
-591.9733414792015
 30
0.0
 70
    32
  0
VERTEX
  5
252E4
  8
01
 10
623.6537416153654
 20
-591.9733414792015
 30
0.0
 70
    32
  0
VERTEX
  5
252E5
  8
01
 10
623.0516582820321
 20
-591.9733414792015
 30
0.0
 70
    32
  0
VERTEX
  5
252E6
  8
01
 10
622.4495749486989
 20
-591.9733414792015
 30
0.0
 70
    32
  0
VERTEX
  5
252E7
  8
01
 10
621.8474916153655
 20
-591.9733414792015
 30
0.0
 70
    32
  0
VERTEX
  5
252E8
  8
01
 10
621.2454082820321
 20
-591.9733414792015
 30
0.0
 70
    32
  0
VERTEX
  5
252E9
  8
01
 10
620.6433249486989
 20
-591.9733414792015
 30
0.0
 70
    32
  0
VERTEX
  5
252EA
  8
01
 10
620.0412416153655
 20
-591.9733414792015
 30
0.0
 70
    32
  0
VERTEX
  5
252EB
  8
01
 10
619.4391582820322
 20
-591.9733414792015
 30
0.0
 70
    32
  0
VERTEX
  5
252EC
  8
01
 10
618.837074948699
 20
-591.9733414792015
 30
0.0
 70
    32
  0
VERTEX
  5
252ED
  8
01
 10
618.2349916153655
 20
-591.9733414792015
 30
0.0
 70
    32
  0
VERTEX
  5
252EE
  8
01
 10
617.6329082820322
 20
-591.9733414792015
 30
0.0
 70
    32
  0
VERTEX
  5
252EF
  8
01
 10
617.030824948699
 20
-591.9733414792015
 30
0.0
 70
    32
  0
VERTEX
  5
252F0
  8
01
 10
616.4287416153655
 20
-591.9733414792015
 30
0.0
 70
    32
  0
VERTEX
  5
252F1
  8
01
 10
615.8266582820321
 20
-591.9733414792015
 30
0.0
 70
    32
  0
VERTEX
  5
252F2
  8
01
 10
615.224574948699
 20
-591.9733414792015
 30
0.0
 70
    32
  0
VERTEX
  5
252F3
  8
01
 10
614.6224916153656
 20
-591.9733414792015
 30
0.0
 70
    32
  0
VERTEX
  5
252F4
  8
01
 10
614.0204082820321
 20
-591.9733414792015
 30
0.0
 70
    32
  0
VERTEX
  5
252F5
  8
01
 10
613.4183249486989
 20
-591.9733414792015
 30
0.0
 70
    32
  0
VERTEX
  5
252F6
  8
01
 10
612.8162416153655
 20
-591.9733414792015
 30
0.0
 70
    32
  0
SEQEND
  5
25524
  8
01
  0
POLYLINE
  5
23B12
  8
01
 10
0.0
 20
0.0
 30
0.0
 66
     1
 70
     8
  0
VERTEX
  5
252F7
  8
01
 10
612.5162416153653
 20
-549.6733414792017
 30
0.0
 70
    32
  0
VERTEX
  5
252F8
  8
01
 10
612.5162416153653
 20
-550.5483414792016
 30
0.0
 70
    32
  0
VERTEX
  5
252F9
  8
01
 10
612.5162416153653
 20
-551.4233414792018
 30
0.0
 70
    32
  0
VERTEX
  5
252FA
  8
01
 10
612.5162416153653
 20
-552.2983414792017
 30
0.0
 70
    32
  0
VERTEX
  5
252FB
  8
01
 10
612.5162416153653
 20
-553.1733414792016
 30
0.0
 70
    32
  0
VERTEX
  5
252FC
  8
01
 10
612.5162416153653
 20
-554.0483414792018
 30
0.0
 70
    32
  0
VERTEX
  5
252FD
  8
01
 10
612.5162416153653
 20
-554.9233414792017
 30
0.0
 70
    32
  0
VERTEX
  5
252FE
  8
01
 10
612.5162416153653
 20
-555.7983414792016
 30
0.0
 70
    32
  0
VERTEX
  5
252FF
  8
01
 10
612.5162416153653
 20
-556.6733414792018
 30
0.0
 70
    32
  0
VERTEX
  5
25300
  8
01
 10
612.5162416153653
 20
-557.5483414792017
 30
0.0
 70
    32
  0
VERTEX
  5
25301
  8
01
 10
612.5162416153653
 20
-558.4233414792018
 30
0.0
 70
    32
  0
VERTEX
  5
25302
  8
01
 10
612.5162416153653
 20
-559.2983414792018
 30
0.0
 70
    32
  0
VERTEX
  5
25303
  8
01
 10
612.5162416153653
 20
-560.1733414792017
 30
0.0
 70
    32
  0
VERTEX
  5
25304
  8
01
 10
612.5162416153653
 20
-561.0483414792018
 30
0.0
 70
    32
  0
VERTEX
  5
25305
  8
01
 10
612.5162416153653
 20
-561.9233414792018
 30
0.0
 70
    32
  0
VERTEX
  5
25306
  8
01
 10
612.5162416153653
 20
-562.7983414792017
 30
0.0
 70
    32
  0
VERTEX
  5
25307
  8
01
 10
612.5162416153653
 20
-563.6733414792018
 30
0.0
 70
    32
  0
VERTEX
  5
25308
  8
01
 10
612.5162416153653
 20
-564.5483414792018
 30
0.0
 70
    32
  0
VERTEX
  5
25309
  8
01
 10
612.5162416153653
 20
-565.4233414792017
 30
0.0
 70
    32
  0
VERTEX
  5
2530A
  8
01
 10
612.5162416153653
 20
-566.2983414792018
 30
0.0
 70
    32
  0
VERTEX
  5
2530B
  8
01
 10
612.5162416153653
 20
-567.1733414792018
 30
0.0
 70
    32
  0
VERTEX
  5
2530C
  8
01
 10
612.5162416153653
 20
-568.0483414792018
 30
0.0
 70
    32
  0
VERTEX
  5
2530D
  8
01
 10
612.5162416153653
 20
-568.9233414792017
 30
0.0
 70
    32
  0
VERTEX
  5
2530E
  8
01
 10
612.5162416153653
 20
-569.7983414792017
 30
0.0
 70
    32
  0
VERTEX
  5
2530F
  8
01
 10
612.5162416153653
 20
-570.6733414792018
 30
0.0
 70
    32
  0
VERTEX
  5
25310
  8
01
 10
612.5162416153653
 20
-571.5483414792017
 30
0.0
 70
    32
  0
VERTEX
  5
25311
  8
01
 10
612.5162416153653
 20
-572.4233414792017
 30
0.0
 70
    32
  0
VERTEX
  5
25312
  8
01
 10
612.5162416153653
 20
-573.2983414792018
 30
0.0
 70
    32
  0
VERTEX
  5
25313
  8
01
 10
612.5162416153653
 20
-574.1733414792017
 30
0.0
 70
    32
  0
VERTEX
  5
25314
  8
01
 10
612.5162416153653
 20
-575.0483414792017
 30
0.0
 70
    32
  0
VERTEX
  5
25315
  8
01
 10
612.5162416153653
 20
-575.9233414792018
 30
0.0
 70
    32
  0
VERTEX
  5
25316
  8
01
 10
612.5162416153653
 20
-576.7983414792017
 30
0.0
 70
    32
  0
VERTEX
  5
25317
  8
01
 10
612.5162416153653
 20
-577.6733414792016
 30
0.0
 70
    32
  0
VERTEX
  5
25318
  8
01
 10
612.5162416153653
 20
-578.5483414792018
 30
0.0
 70
    32
  0
VERTEX
  5
25319
  8
01
 10
612.5162416153653
 20
-579.4233414792017
 30
0.0
 70
    32
  0
VERTEX
  5
2531A
  8
01
 10
612.5162416153653
 20
-580.2983414792016
 30
0.0
 70
    32
  0
VERTEX
  5
2531B
  8
01
 10
612.5162416153653
 20
-581.1733414792018
 30
0.0
 70
    32
  0
VERTEX
  5
2531C
  8
01
 10
612.5162416153653
 20
-582.0483414792017
 30
0.0
 70
    32
  0
VERTEX
  5
2531D
  8
01
 10
612.5162416153653
 20
-582.9233414792017
 30
0.0
 70
    32
  0
VERTEX
  5
2531E
  8
01
 10
612.5162416153653
 20
-583.7983414792016
 30
0.0
 70
    32
  0
VERTEX
  5
2531F
  8
01
 10
612.5162416153653
 20
-584.6733414792017
 30
0.0
 70
    32
  0
VERTEX
  5
25320
  8
01
 10
612.5162416153653
 20
-585.5483414792017
 30
0.0
 70
    32
  0
VERTEX
  5
25321
  8
01
 10
612.5162416153653
 20
-586.4233414792016
 30
0.0
 70
    32
  0
VERTEX
  5
25322
  8
01
 10
612.5162416153653
 20
-587.2983414792017
 30
0.0
 70
    32
  0
VERTEX
  5
25323
  8
01
 10
612.5162416153653
 20
-588.1733414792017
 30
0.0
 70
    32
  0
VERTEX
  5
25324
  8
01
 10
612.5162416153653
 20
-589.0483414792016
 30
0.0
 70
    32
  0
VERTEX
  5
25325
  8
01
 10
612.5162416153653
 20
-589.9233414792014
 30
0.0
 70
    32
  0
VERTEX
  5
25326
  8
01
 10
612.5162416153653
 20
-590.7983414792017
 30
0.0
 70
    32
  0
VERTEX
  5
25327
  8
01
 10
612.5162416153653
 20
-591.6733414792016
 30
0.0
 70
    32
  0
SEQEND
  5
25525
  8
01
  0
ARC
  5
23B3A
  8
01
 10
612.8162416153655
 20
-591.6733414792016
 30
0.0
 40
0.3
 50
180.0
 51
270.0
  0
ARC
  5
23B3B
  8
01
 10
641.7162416153651
 20
-590.6733414792016
 30
0.0
 40
1.3
 50
270.0
 51
0.0
  0
LINE
  5
23B53
  8
01
 10
190.5161583846348
 20
-575.6733632265018
 30
0.0
 11
612.5162416153653
 21
-575.6733632265018
 31
0.0
  0
LINE
  5
23B54
  8
01
 10
190.5161583846346
 20
-591.6733632265018
 30
0.0
 11
612.5162416161536
 21
-591.6733632265018
 31
0.0
  0
POLYLINE
  5
23BC5
  8
01
 10
0.0
 20
0.0
 30
0.0
 66
     1
 70
     8
  0
VERTEX
  5
25328
  8
01
 10
161.3161583846349
 20
-591.9733414792016
 30
0.0
 70
    32
  0
VERTEX
  5
25329
  8
01
 10
161.9182417179683
 20
-591.9733414792016
 30
0.0
 70
    32
  0
VERTEX
  5
2532A
  8
01
 10
162.5203250513015
 20
-591.9733414792016
 30
0.0
 70
    32
  0
VERTEX
  5
2532B
  8
01
 10
163.1224083846349
 20
-591.9733414792016
 30
0.0
 70
    32
  0
VERTEX
  5
2532C
  8
01
 10
163.7244917179682
 20
-591.9733414792016
 30
0.0
 70
    32
  0
VERTEX
  5
2532D
  8
01
 10
164.3265750513015
 20
-591.9733414792016
 30
0.0
 70
    32
  0
VERTEX
  5
2532E
  8
01
 10
164.9286583846348
 20
-591.9733414792016
 30
0.0
 70
    32
  0
VERTEX
  5
2532F
  8
01
 10
165.5307417179681
 20
-591.9733414792016
 30
0.0
 70
    32
  0
VERTEX
  5
25330
  8
01
 10
166.1328250513014
 20
-591.9733414792016
 30
0.0
 70
    32
  0
VERTEX
  5
25331
  8
01
 10
166.7349083846348
 20
-591.9733414792016
 30
0.0
 70
    32
  0
VERTEX
  5
25332
  8
01
 10
167.3369917179681
 20
-591.9733414792016
 30
0.0
 70
    32
  0
VERTEX
  5
25333
  8
01
 10
167.9390750513014
 20
-591.9733414792016
 30
0.0
 70
    32
  0
VERTEX
  5
25334
  8
01
 10
168.5411583846347
 20
-591.9733414792016
 30
0.0
 70
    32
  0
VERTEX
  5
25335
  8
01
 10
169.143241717968
 20
-591.9733414792016
 30
0.0
 70
    32
  0
VERTEX
  5
25336
  8
01
 10
169.7453250513014
 20
-591.9733414792016
 30
0.0
 70
    32
  0
VERTEX
  5
25337
  8
01
 10
170.3474083846347
 20
-591.9733414792016
 30
0.0
 70
    32
  0
VERTEX
  5
25338
  8
01
 10
170.949491717968
 20
-591.9733414792016
 30
0.0
 70
    32
  0
VERTEX
  5
25339
  8
01
 10
171.5515750513013
 20
-591.9733414792016
 30
0.0
 70
    32
  0
VERTEX
  5
2533A
  8
01
 10
172.1536583846347
 20
-591.9733414792016
 30
0.0
 70
    32
  0
VERTEX
  5
2533B
  8
01
 10
172.755741717968
 20
-591.9733414792016
 30
0.0
 70
    32
  0
VERTEX
  5
2533C
  8
01
 10
173.3578250513013
 20
-591.9733414792016
 30
0.0
 70
    32
  0
VERTEX
  5
2533D
  8
01
 10
173.9599083846346
 20
-591.9733414792016
 30
0.0
 70
    32
  0
VERTEX
  5
2533E
  8
01
 10
174.561991717968
 20
-591.9733414792016
 30
0.0
 70
    32
  0
VERTEX
  5
2533F
  8
01
 10
175.1640750513013
 20
-591.9733414792016
 30
0.0
 70
    32
  0
VERTEX
  5
25340
  8
01
 10
175.7661583846346
 20
-591.9733414792016
 30
0.0
 70
    32
  0
VERTEX
  5
25341
  8
01
 10
176.3682417179679
 20
-591.9733414792016
 30
0.0
 70
    32
  0
VERTEX
  5
25342
  8
01
 10
176.9703250513012
 20
-591.9733414792016
 30
0.0
 70
    32
  0
VERTEX
  5
25343
  8
01
 10
177.5724083846346
 20
-591.9733414792016
 30
0.0
 70
    32
  0
VERTEX
  5
25344
  8
01
 10
178.1744917179679
 20
-591.9733414792016
 30
0.0
 70
    32
  0
VERTEX
  5
25345
  8
01
 10
178.7765750513013
 20
-591.9733414792016
 30
0.0
 70
    32
  0
VERTEX
  5
25346
  8
01
 10
179.3786583846346
 20
-591.9733414792016
 30
0.0
 70
    32
  0
VERTEX
  5
25347
  8
01
 10
179.9807417179679
 20
-591.9733414792016
 30
0.0
 70
    32
  0
VERTEX
  5
25348
  8
01
 10
180.5828250513012
 20
-591.9733414792016
 30
0.0
 70
    32
  0
VERTEX
  5
25349
  8
01
 10
181.1849083846346
 20
-591.9733414792016
 30
0.0
 70
    32
  0
VERTEX
  5
2534A
  8
01
 10
181.7869917179679
 20
-591.9733414792016
 30
0.0
 70
    32
  0
VERTEX
  5
2534B
  8
01
 10
182.3890750513012
 20
-591.9733414792016
 30
0.0
 70
    32
  0
VERTEX
  5
2534C
  8
01
 10
182.9911583846345
 20
-591.9733414792016
 30
0.0
 70
    32
  0
VERTEX
  5
2534D
  8
01
 10
183.5932417179679
 20
-591.9733414792016
 30
0.0
 70
    32
  0
VERTEX
  5
2534E
  8
01
 10
184.1953250513012
 20
-591.9733414792016
 30
0.0
 70
    32
  0
VERTEX
  5
2534F
  8
01
 10
184.7974083846345
 20
-591.9733414792016
 30
0.0
 70
    32
  0
VERTEX
  5
25350
  8
01
 10
185.3994917179679
 20
-591.9733414792016
 30
0.0
 70
    32
  0
VERTEX
  5
25351
  8
01
 10
186.0015750513012
 20
-591.9733414792016
 30
0.0
 70
    32
  0
VERTEX
  5
25352
  8
01
 10
186.6036583846346
 20
-591.9733414792016
 30
0.0
 70
    32
  0
VERTEX
  5
25353
  8
01
 10
187.2057417179678
 20
-591.9733414792016
 30
0.0
 70
    32
  0
VERTEX
  5
25354
  8
01
 10
187.8078250513012
 20
-591.9733414792016
 30
0.0
 70
    32
  0
VERTEX
  5
25355
  8
01
 10
188.4099083846345
 20
-591.9733414792016
 30
0.0
 70
    32
  0
VERTEX
  5
25356
  8
01
 10
189.0119917179679
 20
-591.9733414792016
 30
0.0
 70
    32
  0
VERTEX
  5
25357
  8
01
 10
189.6140750513012
 20
-591.9733414792016
 30
0.0
 70
    32
  0
VERTEX
  5
25358
  8
01
 10
190.2161583846346
 20
-591.9733414792016
 30
0.0
 70
    32
  0
SEQEND
  5
25526
  8
01
  0
POLYLINE
  5
23BC8
  8
01
 10
0.0
 20
0.0
 30
0.0
 66
     1
 70
     8
  0
VERTEX
  5
25359
  8
01
 10
190.5161583846347
 20
-549.6733414792017
 30
0.0
 70
    32
  0
VERTEX
  5
2535A
  8
01
 10
190.5161583846347
 20
-550.5483414792016
 30
0.0
 70
    32
  0
VERTEX
  5
2535B
  8
01
 10
190.5161583846347
 20
-551.4233414792018
 30
0.0
 70
    32
  0
VERTEX
  5
2535C
  8
01
 10
190.5161583846347
 20
-552.2983414792017
 30
0.0
 70
    32
  0
VERTEX
  5
2535D
  8
01
 10
190.5161583846347
 20
-553.1733414792016
 30
0.0
 70
    32
  0
VERTEX
  5
2535E
  8
01
 10
190.5161583846347
 20
-554.0483414792018
 30
0.0
 70
    32
  0
VERTEX
  5
2535F
  8
01
 10
190.5161583846347
 20
-554.9233414792017
 30
0.0
 70
    32
  0
VERTEX
  5
25360
  8
01
 10
190.5161583846347
 20
-555.7983414792016
 30
0.0
 70
    32
  0
VERTEX
  5
25361
  8
01
 10
190.5161583846347
 20
-556.6733414792018
 30
0.0
 70
    32
  0
VERTEX
  5
25362
  8
01
 10
190.5161583846347
 20
-557.5483414792017
 30
0.0
 70
    32
  0
VERTEX
  5
25363
  8
01
 10
190.5161583846347
 20
-558.4233414792016
 30
0.0
 70
    32
  0
VERTEX
  5
25364
  8
01
 10
190.5161583846347
 20
-559.2983414792018
 30
0.0
 70
    32
  0
VERTEX
  5
25365
  8
01
 10
190.5161583846347
 20
-560.1733414792017
 30
0.0
 70
    32
  0
VERTEX
  5
25366
  8
01
 10
190.5161583846347
 20
-561.0483414792017
 30
0.0
 70
    32
  0
VERTEX
  5
25367
  8
01
 10
190.5161583846347
 20
-561.9233414792018
 30
0.0
 70
    32
  0
VERTEX
  5
25368
  8
01
 10
190.5161583846347
 20
-562.7983414792017
 30
0.0
 70
    32
  0
VERTEX
  5
25369
  8
01
 10
190.5161583846347
 20
-563.6733414792017
 30
0.0
 70
    32
  0
VERTEX
  5
2536A
  8
01
 10
190.5161583846347
 20
-564.5483414792018
 30
0.0
 70
    32
  0
VERTEX
  5
2536B
  8
01
 10
190.5161583846347
 20
-565.4233414792017
 30
0.0
 70
    32
  0
VERTEX
  5
2536C
  8
01
 10
190.5161583846347
 20
-566.2983414792017
 30
0.0
 70
    32
  0
VERTEX
  5
2536D
  8
01
 10
190.5161583846347
 20
-567.1733414792018
 30
0.0
 70
    32
  0
VERTEX
  5
2536E
  8
01
 10
190.5161583846347
 20
-568.0483414792017
 30
0.0
 70
    32
  0
VERTEX
  5
2536F
  8
01
 10
190.5161583846347
 20
-568.9233414792017
 30
0.0
 70
    32
  0
VERTEX
  5
25370
  8
01
 10
190.5161583846347
 20
-569.7983414792018
 30
0.0
 70
    32
  0
VERTEX
  5
25371
  8
01
 10
190.5161583846347
 20
-570.6733414792017
 30
0.0
 70
    32
  0
VERTEX
  5
25372
  8
01
 10
190.5161583846347
 20
-571.5483414792017
 30
0.0
 70
    32
  0
VERTEX
  5
25373
  8
01
 10
190.5161583846347
 20
-572.4233414792017
 30
0.0
 70
    32
  0
VERTEX
  5
25374
  8
01
 10
190.5161583846347
 20
-573.2983414792017
 30
0.0
 70
    32
  0
VERTEX
  5
25375
  8
01
 10
190.5161583846347
 20
-574.1733414792017
 30
0.0
 70
    32
  0
VERTEX
  5
25376
  8
01
 10
190.5161583846347
 20
-575.0483414792016
 30
0.0
 70
    32
  0
VERTEX
  5
25377
  8
01
 10
190.5161583846347
 20
-575.9233414792017
 30
0.0
 70
    32
  0
VERTEX
  5
25378
  8
01
 10
190.5161583846347
 20
-576.7983414792016
 30
0.0
 70
    32
  0
VERTEX
  5
25379
  8
01
 10
190.5161583846347
 20
-577.6733414792016
 30
0.0
 70
    32
  0
VERTEX
  5
2537A
  8
01
 10
190.5161583846347
 20
-578.5483414792017
 30
0.0
 70
    32
  0
VERTEX
  5
2537B
  8
01
 10
190.5161583846347
 20
-579.4233414792016
 30
0.0
 70
    32
  0
VERTEX
  5
2537C
  8
01
 10
190.5161583846347
 20
-580.2983414792016
 30
0.0
 70
    32
  0
VERTEX
  5
2537D
  8
01
 10
190.5161583846347
 20
-581.1733414792017
 30
0.0
 70
    32
  0
VERTEX
  5
2537E
  8
01
 10
190.5161583846347
 20
-582.0483414792016
 30
0.0
 70
    32
  0
VERTEX
  5
2537F
  8
01
 10
190.5161583846347
 20
-582.9233414792016
 30
0.0
 70
    32
  0
VERTEX
  5
25380
  8
01
 10
190.5161583846347
 20
-583.7983414792017
 30
0.0
 70
    32
  0
VERTEX
  5
25381
  8
01
 10
190.5161583846347
 20
-584.6733414792016
 30
0.0
 70
    32
  0
VERTEX
  5
25382
  8
01
 10
190.5161583846347
 20
-585.5483414792016
 30
0.0
 70
    32
  0
VERTEX
  5
25383
  8
01
 10
190.5161583846347
 20
-586.4233414792017
 30
0.0
 70
    32
  0
VERTEX
  5
25384
  8
01
 10
190.5161583846347
 20
-587.2983414792016
 30
0.0
 70
    32
  0
VERTEX
  5
25385
  8
01
 10
190.5161583846347
 20
-588.1733414792014
 30
0.0
 70
    32
  0
VERTEX
  5
25386
  8
01
 10
190.5161583846347
 20
-589.0483414792017
 30
0.0
 70
    32
  0
VERTEX
  5
25387
  8
01
 10
190.5161583846347
 20
-589.9233414792016
 30
0.0
 70
    32
  0
VERTEX
  5
25388
  8
01
 10
190.5161583846347
 20
-590.7983414792018
 30
0.0
 70
    32
  0
VERTEX
  5
25389
  8
01
 10
190.5161583846347
 20
-591.6733414792017
 30
0.0
 70
    32
  0
SEQEND
  5
25527
  8
01
  0
ARC
  5
23BF0
  8
01
 10
190.2161583846346
 20
-591.6733414792017
 30
0.0
 40
0.3
 50
270.0
 51
0.0
  0
ARC
  5
23BF1
  8
01
 10
161.3161583846349
 20
-590.6733414792017
 30
0.0
 40
1.3
 50
180.0
 51
270.0
  0
LINE
  5
23C90
  8
1PHANTOM
 10
614.5162416153645
 20
-552.6733414792016
 30
0.0
 11
614.5162416153645
 21
-549.6733414792016
 31
0.0
  0
LINE
  5
23C91
  8
1PHANTOM
 10
638.5162416153645
 20
-552.6733414792016
 30
0.0
 11
638.5162416153645
 21
-549.6733414792016
 31
0.0
  0
LINE
  5
23C93
  8
1PHANTOM
 10
632.5162416153645
 20
-567.6733414792016
 30
0.0
 11
620.5162416153645
 21
-567.6733414792016
 31
0.0
  0
LINE
  5
23C94
  8
1PHANTOM
 10
620.5162416153645
 20
-567.6733414792016
 30
0.0
 11
620.5162416153645
 21
-552.6733414792016
 31
0.0
  0
LINE
  5
23C95
  8
1PHANTOM
 10
632.5162416153645
 20
-567.6733414792016
 30
0.0
 11
632.5162416153645
 21
-552.6733414792016
 31
0.0
  0
LINE
  5
23C96
  8
1PHANTOM
 10
638.5162416153645
 20
-552.6733414792016
 30
0.0
 11
632.5162416153645
 21
-552.6733414792016
 31
0.0
  0
LINE
  5
23C97
  8
1PHANTOM
 10
620.5162416153645
 20
-552.6733414792016
 30
0.0
 11
614.5162416153645
 21
-552.6733414792016
 31
0.0
  0
LINE
  5
23D64
  8
01
 10
641.7162416153653
 20
-649.5213303512653
 30
0.0
 11
612.8162416153652
 21
-649.5213303512653
 31
0.0
  0
LINE
  5
23D73
  8
01
 10
160.0161583846349
 20
-590.6733414792017
 30
0.0
 11
160.0161583846347
 21
-549.6733414792017
 31
0.0
  0
LINE
  5
23E16
  8
01
 10
731.4439064104149
 20
-651.7713303512653
 30
0.0
 11
731.4439064104149
 21
-659.8713303512652
 31
0.0
  0
LINE
  5
23E32
  8
01
 10
731.4439064104149
 20
-649.5213303512653
 30
0.0
 11
731.4439064104149
 21
-662.1213303512652
 31
0.0
  0
LINE
  5
23E35
  8
01
 10
731.4439064104149
 20
-618.5931567659834
 30
0.0
 11
731.4439064104149
 21
-693.0495039365471
 31
0.0
  0
LINE
  5
23E39
  8
01
 10
190.5161583846347
 20
-649.8213303512655
 30
0.0
 11
612.5162416153653
 21
-649.8213303512655
 31
0.0
  0
LINE
  5
23E3A
  8
01
 10
190.5161583846347
 20
-664.8213303512653
 30
0.0
 11
612.5162416153653
 21
-664.8213303512653
 31
0.0
  0
LINE
  5
24330
  8
01
 10
612.5162416153653
 20
-657.6142235700787
 30
0.0
 11
190.5161583846347
 21
-657.6142235700787
 31
0.0
  0
LINE
  5
2442F
  8
01
 10
642.3662416153652
 20
-657.3698131069956
 30
0.0
 11
612.5162416153653
 21
-657.3698131069956
 31
0.0
  0
LINE
  5
24462
  8
01
 10
643.0162416153651
 20
-590.6733414792016
 30
0.0
 11
643.0162416153653
 21
-549.6733414792014
 31
0.0
  0
LINE
  5
244DC
  8
01
 10
731.4439064104149
 20
-649.5213303512653
 30
0.0
 11
690.4439064104147
 21
-649.5213303512653
 31
0.0
  0
LINE
  5
246EC
  8
01
 10
643.0162416153653
 20
-650.8213303512653
 30
0.0
 11
643.0162416153653
 21
-656.2439800820758
 31
0.0
  0
LINE
  5
24A10
  8
01
 10
731.4439064104149
 20
-649.5213303512653
 30
0.0
 11
731.4439064104149
 21
-665.1213303512652
 31
0.0
  0
LINE
  5
24A12
  8
01
 10
731.4439064104149
 20
-665.1213303512652
 30
0.0
 11
703.568262063398
 21
-665.1213303512652
 31
0.0
  0
LINE
  5
24A13
  8
01
 10
689.1439064104147
 20
-650.8213303512653
 30
0.0
 11
689.1439064104147
 21
-656.2439800820757
 31
0.0
  0
LINE
  5
24A14
  8
1HIDDEN
 10
689.4439064104149
 20
-650.8213303512653
 30
0.0
 11
689.4439064104149
 21
-656.8213303512653
 31
0.0
  0
LINE
  5
24A15
  8
1HIDDEN
 10
702.4439064104149
 20
-649.8213303512653
 30
0.0
 11
690.4439064104149
 21
-649.8213303512653
 31
0.0
  0
LINE
  5
24A16
  8
1HIDDEN
 10
704.4439064104149
 20
-664.8213303512653
 30
0.0
 11
703.5682620633985
 21
-664.8213303512653
 31
0.0
  0
LINE
  5
24A1D
  8
1HIDDEN
 10
705.4439064104149
 20
-652.8213303512653
 30
0.0
 11
705.4439064104149
 21
-663.8213303512653
 31
0.0
  0
ARC
  5
24A1E
  8
1HIDDEN
 10
702.4439064104149
 20
-652.8213303512653
 30
0.0
 40
3.0
 50
0.0
 51
90.0
  0
LINE
  5
24A1F
  8
1HIDDEN
 10
689.4439064104149
 20
-656.8213303512653
 30
0.0
 11
703.0682620633986
 21
-664.6873557550498
 31
0.0
  0
LINE
  5
24A20
  8
01
 10
689.7939064104147
 20
-657.3698131069955
 30
0.0
 11
702.9182620633981
 21
-664.947163376185
 31
0.0
  0
ARC
  5
24A21
  8
1HIDDEN
 10
690.4439064104149
 20
-650.8213303512653
 30
0.0
 40
1.0
 50
90.0
 51
180.0
  0
ARC
  5
24A22
  8
1HIDDEN
 10
690.4439064104149
 20
-656.2439800820756
 30
0.0
 40
1.0
 50
180.0
 51
239.9999999999994
  0
ARC
  5
24A23
  8
1HIDDEN
 10
703.5682620633985
 20
-663.8213303512653
 30
0.0
 40
1.0
 50
240.0000000000084
 51
270.0
  0
ARC
  5
24A24
  8
1HIDDEN
 10
704.4439064104149
 20
-663.8213303512653
 30
0.0
 40
1.0
 50
270.0
 51
0.0
  0
ARC
  5
24A25
  8
01
 10
690.4439064104147
 20
-650.8213303512653
 30
0.0
 40
1.3
 50
90.0
 51
180.0
  0
ARC
  5
24A26
  8
01
 10
690.4439064104147
 20
-656.2439800820757
 30
0.0
 40
1.3
 50
180.0
 51
240.0000000000005
  0
ARC
  5
24A27
  8
01
 10
703.568262063398
 20
-663.8213303512653
 30
0.0
 40
1.3
 50
240.0000000000005
 51
270.0
  0
LINE
  5
24A2A
  8
01
 10
612.5162416153653
 20
-649.8213303512653
 30
0.0
 11
612.5162416153653
 21
-664.8213303512653
 31
0.0
  0
LINE
  5
24A34
  8
01
 10
642.3662416153652
 20
-657.3698131069956
 30
0.0
 11
629.241885962382
 21
-664.947163376185
 31
0.0
  0
LINE
  5
24A3D
  8
01
 10
628.591885962382
 20
-665.1213303512652
 30
0.0
 11
612.8162416153652
 21
-665.1213303512652
 31
0.0
  0
ARC
  5
24A3F
  8
01
 10
612.8162416153652
 20
-649.8213303512653
 30
0.0
 40
0.3
 50
90.0
 51
180.0
  0
ARC
  5
24A40
  8
01
 10
612.8162416153652
 20
-664.8213303512653
 30
0.0
 40
0.3
 50
180.0
 51
270.0
  0
ARC
  5
24A41
  8
01
 10
641.7162416153653
 20
-650.8213303512653
 30
0.0
 40
1.3
 50
0.0
 51
90.0
  0
ARC
  5
24A42
  8
01
 10
641.7162416153653
 20
-656.2439800820757
 30
0.0
 40
1.3
 50
299.9999999999926
 51
359.9999999999952
  0
ARC
  5
24A43
  8
01
 10
628.591885962382
 20
-663.8213303512653
 30
0.0
 40
1.3
 50
270.0
 51
299.9999999999974
  0
LINE
  5
24A44
  8
01
 10
161.3161583846346
 20
-649.5213303512654
 30
0.0
 11
190.2161583846347
 21
-649.5213303512654
 31
0.0
  0
LINE
  5
24A46
  8
01
 10
160.6661583846347
 20
-657.3698131069957
 30
0.0
 11
190.5161583846347
 21
-657.3698131069957
 31
0.0
  0
LINE
  5
24A47
  8
01
 10
160.0161583846347
 20
-650.8213303512654
 30
0.0
 11
160.0161583846347
 21
-656.243980082076
 31
0.0
  0
LINE
  5
24A48
  8
01
 10
190.5161583846347
 20
-649.8213303512654
 30
0.0
 11
190.5161583846347
 21
-664.8213303512654
 31
0.0
  0
LINE
  5
24A49
  8
01
 10
160.6661583846347
 20
-657.3698131069957
 30
0.0
 11
173.790514037618
 21
-664.9471633761851
 31
0.0
  0
LINE
  5
24A4A
  8
01
 10
174.440514037618
 20
-665.1213303512653
 30
0.0
 11
190.2161583846347
 21
-665.1213303512653
 31
0.0
  0
ARC
  5
24A4B
  8
01
 10
190.2161583846347
 20
-649.8213303512654
 30
0.0
 40
0.3
 50
0.0
 51
90.0
  0
ARC
  5
24A4C
  8
01
 10
190.2161583846347
 20
-664.8213303512654
 30
0.0
 40
0.3
 50
270.0
 51
0.0
  0
ARC
  5
24A4D
  8
01
 10
161.3161583846346
 20
-650.8213303512654
 30
0.0
 40
1.3
 50
90.0
 51
180.0
  0
ARC
  5
24A4E
  8
01
 10
161.3161583846346
 20
-656.2439800820758
 30
0.0
 40
1.3
 50
179.999999999995
 51
240.0000000000074
  0
ARC
  5
24A4F
  8
01
 10
174.440514037618
 20
-663.8213303512654
 30
0.0
 40
1.3
 50
240.0000000000005
 51
270.0
  0
LINE
  5
24ABF
  8
1PHANTOM
 10
188.5161583846354
 20
-552.6733414792017
 30
0.0
 11
188.5161583846354
 21
-549.6733414792017
 31
0.0
  0
LINE
  5
24AC0
  8
1PHANTOM
 10
164.5161583846354
 20
-552.6733414792017
 30
0.0
 11
164.5161583846354
 21
-549.6733414792017
 31
0.0
  0
LINE
  5
24AC1
  8
1PHANTOM
 10
170.5161583846354
 20
-567.6733414792017
 30
0.0
 11
182.5161583846354
 21
-567.6733414792017
 31
0.0
  0
LINE
  5
24AC2
  8
1PHANTOM
 10
182.5161583846354
 20
-567.6733414792017
 30
0.0
 11
182.5161583846354
 21
-552.6733414792017
 31
0.0
  0
LINE
  5
24AC3
  8
1PHANTOM
 10
170.5161583846354
 20
-567.6733414792017
 30
0.0
 11
170.5161583846354
 21
-552.6733414792017
 31
0.0
  0
LINE
  5
24AC4
  8
1PHANTOM
 10
164.5161583846354
 20
-552.6733414792017
 30
0.0
 11
170.5161583846354
 21
-552.6733414792017
 31
0.0
  0
LINE
  5
24AC5
  8
1PHANTOM
 10
182.5161583846354
 20
-552.6733414792017
 30
0.0
 11
188.5161583846354
 21
-552.6733414792017
 31
0.0
  0
LINE
  5
24AC7
  8
1PHANTOM
 10
615.0162416153646
 20
-553.6733333354194
 30
0.0
 11
615.0162439421406
 21
-552.6733414792017
 31
0.0
  0
LINE
  5
24AC8
  8
1PHANTOM
 10
622.0162416153645
 20
-553.6733496229837
 30
0.0
 11
622.0162416153645
 21
-552.6733414792017
 31
0.0
  0
LINE
  5
24AC9
  8
1PHANTOM
 10
615.0162439421406
 20
-552.6733414792017
 30
0.0
 11
622.0162416153645
 21
-552.6733414792017
 31
0.0
  0
LINE
  5
24ACA
  8
1PHANTOM
 10
618.5162427787525
 20
-552.6733414792017
 30
0.0
 11
618.248293753377
 21
-553.6733408557418
 31
0.0
  0
LINE
  5
24ACC
  8
1PHANTOM
 10
631.0162404519766
 20
-553.6733333354193
 30
0.0
 11
631.0162427787526
 21
-552.6733414792016
 31
0.0
  0
LINE
  5
24ACD
  8
1PHANTOM
 10
638.0162404519765
 20
-553.6733496229836
 30
0.0
 11
638.0162404519765
 21
-552.6733414792016
 31
0.0
  0
LINE
  5
24ACE
  8
1PHANTOM
 10
631.0162427787526
 20
-552.6733414792016
 30
0.0
 11
638.0162404519765
 21
-552.6733414792016
 31
0.0
  0
LINE
  5
24ACF
  8
1PHANTOM
 10
634.5162416153645
 20
-552.6733414792016
 30
0.0
 11
634.248292589989
 21
-553.6733408557417
 31
0.0
  0
LINE
  5
24AD1
  8
1PHANTOM
 10
165.0161572212462
 20
-553.6733333354194
 30
0.0
 11
165.0161595480222
 21
-552.6733414792017
 31
0.0
  0
LINE
  5
24AD2
  8
1PHANTOM
 10
172.0161572212461
 20
-553.6733496229837
 30
0.0
 11
172.0161572212461
 21
-552.6733414792017
 31
0.0
  0
LINE
  5
24AD3
  8
1PHANTOM
 10
165.0161595480222
 20
-552.6733414792017
 30
0.0
 11
172.0161572212461
 21
-552.6733414792017
 31
0.0
  0
LINE
  5
24AD4
  8
1PHANTOM
 10
168.5161583846341
 20
-552.6733414792017
 30
0.0
 11
168.2482093592586
 21
-553.6733408557418
 31
0.0
  0
LINE
  5
24AD5
  8
1PHANTOM
 10
181.0161560578582
 20
-553.6733333354193
 30
0.0
 11
181.0161583846342
 21
-552.6733414792016
 31
0.0
  0
LINE
  5
24AD6
  8
1PHANTOM
 10
188.0161560578581
 20
-553.6733496229836
 30
0.0
 11
188.0161560578581
 21
-552.6733414792016
 31
0.0
  0
LINE
  5
24AD7
  8
1PHANTOM
 10
181.0161583846342
 20
-552.6733414792016
 30
0.0
 11
188.0161560578581
 21
-552.6733414792016
 31
0.0
  0
LINE
  5
24AD8
  8
1PHANTOM
 10
184.5161572212461
 20
-552.6733414792016
 30
0.0
 11
184.2482081958706
 21
-553.6733408557417
 31
0.0
  0
TEXT
  5
24B9C
  8
1TEXT
 10
496.5562121203312
 20
-483.6858550066087
 30
0.0
 40
8.0
  1
KC-167-X
  0
LINE
  5
24B9F
  8
1DIM
 10
496.5562121203312
 20
-509.6858550066087
 30
0.0
 11
496.5562121203312
 21
-488.6858550066087
 31
0.0
  0
LINE
  5
24BA3
  8
01
 10
160.0161583846347
 20
-549.6733414792017
 30
0.0
 11
190.5161583846347
 21
-549.6733414792017
 31
0.0
  0
LINE
  5
24BA4
  8
01
 10
612.5162416153653
 20
-549.6733414792017
 30
0.0
 11
643.0162416153653
 21
-549.6733414792014
 31
0.0
  0
CIRCLE
  5
24BA8
  8
1PHANTOM
 10
634.5162416153645
 20
-655.5213303512653
 30
0.0
 40
2.25
  0
CIRCLE
  5
24BA9
  8
1PHANTOM
 10
618.5162416153645
 20
-655.5213303512653
 30
0.0
 40
2.25
  0
CIRCLE
  5
24BAB
  8
1PHANTOM
 10
626.5162416153645
 20
-657.3213303512653
 30
0.0
 40
2.25
  0
LINE
  5
24BAC
  8
1CENTER
 10
615.1412
 20
-655.5213
 30
0.0
 11
621.8912
 21
-655.5213
 31
0.0
  0
LINE
  5
24BAD
  8
1CENTER
 10
618.5162
 20
-658.8963
 30
0.0
 11
618.5162
 21
-652.1463
 31
0.0
  0
LINE
  5
24BAE
  8
1CENTER
 10
623.1412
 20
-657.3213
 30
0.0
 11
629.8912
 21
-657.3213
 31
0.0
  0
LINE
  5
24BAF
  8
1CENTER
 10
626.5162
 20
-660.6963
 30
0.0
 11
626.5162
 21
-653.9463
 31
0.0
  0
LINE
  5
24BB0
  8
1CENTER
 10
631.1412
 20
-655.5213
 30
0.0
 11
637.8912
 21
-655.5213
 31
0.0
  0
LINE
  5
24BB1
  8
1CENTER
 10
634.5162
 20
-658.8963
 30
0.0
 11
634.5162
 21
-652.1463
 31
0.0
  0
CIRCLE
  5
24DBB
  8
1PHANTOM
 10
168.5161583846356
 20
-655.5213303512654
 30
0.0
 40
2.25
  0
CIRCLE
  5
24DBC
  8
1PHANTOM
 10
184.5161583846356
 20
-655.5213303512654
 30
0.0
 40
2.25
  0
CIRCLE
  5
24DBD
  8
1PHANTOM
 10
176.5161583846356
 20
-657.3213303512654
 30
0.0
 40
2.25
  0
LINE
  5
24DBE
  8
1CENTER
 10
187.8912
 20
-655.5213000000001
 30
0.0
 11
181.1412
 21
-655.5213000000001
 31
0.0
  0
LINE
  5
24DBF
  8
1CENTER
 10
184.5162
 20
-658.8963000000001
 30
0.0
 11
184.5162
 21
-652.1463000000001
 31
0.0
  0
LINE
  5
24DC0
  8
1CENTER
 10
179.8912
 20
-657.3213000000001
 30
0.0
 11
173.1412
 21
-657.3213000000001
 31
0.0
  0
LINE
  5
24DC1
  8
1CENTER
 10
176.5162
 20
-660.6963000000001
 30
0.0
 11
176.5162
 21
-653.9463000000001
 31
0.0
  0
LINE
  5
24DC2
  8
1CENTER
 10
171.8912
 20
-655.5213000000001
 30
0.0
 11
165.1412
 21
-655.5213000000001
 31
0.0
  0
LINE
  5
24DC3
  8
1CENTER
 10
168.5162
 20
-658.8963000000001
 30
0.0
 11
168.5162
 21
-652.1463000000001
 31
0.0
  0
LINE
  5
24EF4
  8
1PHANTOM
 10
727.4439064104149
 20
-656.0212998500003
 30
0.0
 11
728.4439064104149
 21
-655.0213001499999
 31
0.0
  0
LINE
  5
24EF5
  8
1PHANTOM
 10
727.4439064104149
 20
-659.3212999999998
 30
0.0
 11
728.4439064104149
 21
-659.3212999999998
 31
0.0
  0
LINE
  5
24EF6
  8
1PHANTOM
 10
728.4439064104149
 20
-659.3212999999998
 30
0.0
 11
728.4439064104149
 21
-651.7213000000004
 31
0.0
  0
LINE
  5
24EF7
  8
1PHANTOM
 10
727.4439064104149
 20
-659.3212999999998
 30
0.0
 11
727.4439064104149
 21
-651.7213000000004
 31
0.0
  0
LINE
  5
24EF8
  8
1PHANTOM
 10
727.4439064104149
 20
-651.7213000000004
 30
0.0
 11
728.4439064104149
 21
-651.7213000000004
 31
0.0
  0
LINE
  5
24FE0
  8
1PHANTOM
 10
710.7439064104152
 20
-652.521330351265
 30
0.0
 11
710.4439064104149
 21
-652.8213303477703
 31
0.0
  0
LINE
  5
24FE1
  8
1PHANTOM
 10
710.4439064104149
 20
-652.8213303477703
 30
0.0
 11
710.4439064104149
 21
-661.3213303512653
 31
0.0
  0
LINE
  5
24FE2
  8
1PHANTOM
 10
710.4439064104149
 20
-661.3213303512653
 30
0.0
 11
710.7439064104149
 21
-661.6213303512652
 31
0.0
  0
LINE
  5
24FE3
  8
1PHANTOM
 10
729.4439064104149
 20
-652.5213303512653
 30
0.0
 11
710.7439064104152
 21
-652.521330351265
 31
0.0
  0
LINE
  5
24FE4
  8
1PHANTOM
 10
710.7439064104149
 20
-661.6213303512652
 30
0.0
 11
729.4439064104149
 21
-661.6213303512652
 31
0.0
  0
LINE
  5
24FE5
  8
1PHANTOM
 10
729.4439064104149
 20
-663.1213303512652
 30
0.0
 11
731.4439064104149
 21
-663.1213303512652
 31
0.0
  0
LINE
  5
24FE6
  8
1PHANTOM
 10
729.4439064104149
 20
-661.6213303512652
 30
0.0
 11
729.4439064104149
 21
-663.1213303512652
 31
0.0
  0
LINE
  5
24FE7
  8
1PHANTOM
 10
729.4439064104149
 20
-651.5213303512653
 30
0.0
 11
729.4439064104149
 21
-652.5213303512653
 31
0.0
  0
LINE
  5
24FE8
  8
1PHANTOM
 10
731.4439064104149
 20
-651.5213303512653
 30
0.0
 11
729.4439064104149
 21
-651.5213303512653
 31
0.0
  0
TEXT
  5
2504E
  8
1TEXT
 10
531.9162121203308
 20
-494.1858550066087
 30
0.0
 40
4.0
  1
表面処理：レール
 41
0.9
 72
     1
 11
548.9562121203307
 21
-494.1858550066087
 31
0.0
  0
TEXT
  5
2504F
  8
1TEXT
 10
533.3162121203308
 20
-501.0211436661331
 30
0.0
 40
4.0
  1
ステンカラーヘアライン
 41
0.6
 72
     1
 11
548.9562121203307
 21
-501.0211436661331
 31
0.0
  0
LINE
  5
25050
  8
1DIM
 10
496.556212120331
 20
-488.6858550066087
 30
0.0
 11
601.556212120331
 21
-488.6858550066087
 31
0.0
  0
LINE
  5
25051
  8
1DIM
 10
496.5562121203312
 20
-502.6858550066087
 30
0.0
 11
601.556212120331
 21
-502.6858550066087
 31
0.0
  0
LINE
  5
25052
  8
1DIM
 10
496.556212120331
 20
-495.6858550066087
 30
0.0
 11
601.556212120331
 21
-495.6858550066087
 31
0.0
  0
LINE
  5
25053
  8
1DIM
 10
496.556212120331
 20
-509.6858550066087
 30
0.0
 11
601.556212120331
 21
-509.6858550066087
 31
0.0
  0
LINE
  5
25054
  8
1DIM
 10
496.556212120331
 20
-509.6858550066087
 30
0.0
 11
601.556212120331
 21
-509.6858550066087
 31
0.0
  0
LINE
  5
25055
  8
1DIM
 10
566.5562121203311
 20
-488.6858550066087
 30
0.0
 11
566.5562121203311
 21
-509.6858550066087
 31
0.0
  0
TEXT
  5
25056
  8
1TEXT
 10
577.089545453664
 20
-494.1858550066087
 30
0.0
 40
4.0
  1
コード
 72
     1
 11
583.9562121203306
 21
-494.1858550066087
 31
0.0
  0
LINE
  5
25057
  8
1DIM
 10
531.5562121203312
 20
-509.6858550066087
 30
0.0
 11
531.5562121203312
 21
-488.6858550066087
 31
0.0
  0
LINE
  5
25058
  8
1DIM
 10
601.556212120331
 20
-509.6858550066087
 30
0.0
 11
601.556212120331
 21
-488.6858550066087
 31
0.0
  0
TEXT
  5
25059
  8
1TEXT
 10
532.2162121203307
 20
-508.0211436661331
 30
0.0
 40
4.0
  1
ブラストブラック
 41
0.9
 72
     1
 11
548.9562121203307
 21
-508.0211436661331
 31
0.0
  0
TEXT
  5
2505A
  8
1TEXT
 10
497.4895454536642
 20
-494.1858550066087
 30
0.0
 40
4.0
  1
表面処理：本体
 72
     1
 11
513.9562121203309
 21
-494.1858550066087
 31
0.0
  0
TEXT
  5
2505F
  8
1TEXT
 10
497.4228787869974
 20
-501.0211436661331
 30
0.0
 40
4.0
  1
サテンニッケル
 72
     1
 11
513.9562121203307
 21
-501.0211436661331
 31
0.0
  0
TEXT
  5
25060
  8
1TEXT
 10
497.6895454536641
 20
-508.0211436661331
 30
0.0
 40
4.0
  1
マットブラック
 72
     1
 11
513.9562121203307
 21
-508.0211436661331
 31
0.0
  0
TEXT
  5
25061
  8
1TEXT
 10
569.7777398981091
 20
-501.400211990258
 30
0.0
 40
4.0
  1
KC-167-ZN
 41
0.85
 72
     1
 11
583.9562121203313
 21
-501.400211990258
 31
0.0
  0
TEXT
  5
25062
  8
1TEXT
 10
569.9464898981091
 20
-508.400211990258
 30
0.0
 40
4.0
  1
KC-167-K003
 41
0.7
 72
     1
 11
583.9562121203313
 21
-508.400211990258
 31
0.0
  0
LINE
  5
25071
  8
01
 10
746.4439064104149
 20
-618.5931567659834
 30
0.0
 11
746.4439064104149
 21
-693.0495039365471
 31
0.0
  0
LINE
  5
250FB
  8
1DIM
 10
643.0162416153653
 20
-549.6733414792014
 30
0.0
 11
643.0162416153653
 21
-522.3114362914425
 31
0.0
  0
LINE
  5
250FC
  8
1DIM
 10
612.516241614577
 20
-549.6733197319015
 30
0.0
 11
612.516241614577
 21
-522.3114362914425
 31
0.0
  0
LINE
  5
250FD
  8
1DIM
 10
641.0162416153653
 20
-523.3114362914425
 30
0.0
 11
614.516241614577
 21
-523.3114362914425
 31
0.0
  0
LINE
  5
25101
  8
1DIM
 10
634.5162
 20
-658.8962999999999
 30
0.0
 11
634.5162
 21
-676.5121519558675
 31
0.0
  0
LINE
  5
25102
  8
1DIM
 10
618.5162
 20
-658.8963
 30
0.0
 11
618.5162
 21
-676.5121519558675
 31
0.0
  0
LINE
  5
25103
  8
1DIM
 10
632.5162
 20
-675.5121519558675
 30
0.0
 11
620.5162
 21
-675.5121519558675
 31
0.0
  0
LINE
  5
25107
  8
1DIM1
 10
184.5162
 20
-658.8963000000001
 30
0.0
 11
184.5162
 21
-689.155312588579
 31
0.0
1001
ACAD
1000
DSTYLE
1002
{
1070
    70
1070
     0
1070
    69
1070
     0
1070
    40
1040
3.0
1002
}
  0
LINE
  5
25108
  8
1DIM1
 10
618.5162
 20
-658.8963
 30
0.0
 11
618.5162
 21
-689.155312588579
 31
0.0
1001
ACAD
1000
DSTYLE
1002
{
1070
    70
1070
     0
1070
    69
1070
     0
1070
    40
1040
3.0
1002
}
  0
LINE
  5
25109
  8
1DIM1
 10
190.5162
 20
-686.155312588579
 30
0.0
 11
612.5162
 21
-686.155312588579
 31
0.0
1001
ACAD
1000
DSTYLE
1002
{
1070
    70
1070
     0
1070
    69
1070
     0
1070
    40
1040
3.0
1002
}
  0
LINE
  5
2510D
  8
1DIM1
 10
176.5162
 20
-660.6963000000001
 30
0.0
 11
176.5162
 21
-711.3434832934852
 31
0.0
1001
ACAD
1000
DSTYLE
1002
{
1070
    40
1040
3.0
1002
}
  0
LINE
  5
2510E
  8
1DIM1
 10
626.5162
 20
-660.6963
 30
0.0
 11
626.5162
 21
-711.3434832934852
 31
0.0
1001
ACAD
1000
DSTYLE
1002
{
1070
    40
1040
3.0
1002
}
  0
LINE
  5
2510F
  8
1DIM1
 10
182.5162
 20
-708.3434832934852
 30
0.0
 11
620.5162
 21
-708.3434832934852
 31
0.0
1001
ACAD
1000
DSTYLE
1002
{
1070
    40
1040
3.0
1002
}
  0
LINE
  5
25113
  8
1DIM1
 10
160.0161583846347
 20
-656.243980082076
 30
0.0
 11
160.0161583846347
 21
-733.997530806712
 31
0.0
1001
ACAD
1000
DSTYLE
1002
{
1070
    70
1070
     0
1070
    69
1070
     0
1070
    40
1040
3.0
1002
}
  0
LINE
  5
25114
  8
1DIM1
 10
643.0162416153652
 20
-656.2439800820757
 30
0.0
 11
643.0162416153652
 21
-733.997530806712
 31
0.0
1001
ACAD
1000
DSTYLE
1002
{
1070
    70
1070
     0
1070
    69
1070
     0
1070
    40
1040
3.0
1002
}
  0
LINE
  5
25115
  8
1DIM1
 10
166.0161583846347
 20
-730.997530806712
 30
0.0
 11
637.0162416153652
 21
-730.997530806712
 31
0.0
1001
ACAD
1000
DSTYLE
1002
{
1070
    70
1070
     0
1070
    69
1070
     0
1070
    40
1040
3.0
1002
}
  0
SOLID
  5
25119
  8
1DIM
 10
593.1199523780687
 20
-660.0299369890245
 30
0.0
 11
594.3377305342453
 21
-658.4087869424679
 31
0.0
 12
593.7115566178263
 22
-660.337262334457
 32
0.0
 13
593.7115566178263
 23
-660.337262334457
 33
0.0
1001
ACAD
1000
DSTYLE
1002
{
1070
    45
1040
0.5
1002
}
  0
LINE
  5
2511A
  8
1DIM
 10
593.4157544979474
 20
-660.1835996617407
 30
0.0
 11
584.7147787103866
 21
-676.9330615673413
 31
0.0
1001
ACAD
1000
DSTYLE
1002
{
1070
    45
1040
0.5
1002
}
  0
LINE
  5
2511B
  8
1DIM
 10
584.7147787103866
 20
-676.9330615673413
 30
0.0
 11
545.0314453770532
 21
-676.9330615673413
 31
0.0
1001
ACAD
1000
DSTYLE
1002
{
1070
    45
1040
0.5
1002
}
  0
TEXT
  5
2511C
  8
1DIM
  6
CONTINUOUS
 10
558.3314453770531
 20
-669.628772846321
 30
0.0
 40
3.5
  1
材質：アルミ
  0
TEXT
  5
2511D
  8
1DIM
  6
CONTINUOUS
 10
544.9147787103865
 20
-675.4621061796544
 30
0.0
 40
3.5
  1
仕上げ：各種仕上げ
  0
SOLID
  5
2511E
  8
1DIM
 10
630.1052670405177
 20
-650.431765726701
 30
0.0
 11
630.3993737966442
 21
-652.4379093723834
 31
0.0
 12
629.4705235206275
 22
-650.6355918987249
 32
0.0
 13
629.4705235206275
 23
-650.6355918987249
 33
0.0
1001
ACAD
1000
DSTYLE
1002
{
1070
    45
1040
0.5
1002
}
  0
LINE
  5
2511F
  8
1DIM
 10
629.7878952805726
 20
-650.533678812713
 30
0.0
 11
625.5681343326254
 21
-637.3927465634384
 31
0.0
1001
ACAD
1000
DSTYLE
1002
{
1070
    45
1040
0.5
1002
}
  0
LINE
  5
25120
  8
1DIM
 10
625.5681343326254
 20
-637.3927465634384
 30
0.0
 11
578.3014676659587
 21
-637.3927465634384
 31
0.0
1001
ACAD
1000
DSTYLE
1002
{
1070
    45
1040
0.5
1002
}
  0
TEXT
  5
25121
  8
1DIM
  6
CONTINUOUS
 10
578.0681343326253
 20
-630.859413230105
 30
0.0
 40
3.5
  1
材質：亜鉛ダイキャスト
  0
TEXT
  5
25122
  8
1DIM
  6
CONTINUOUS
 10
585.7681343326253
 20
-636.6927465634384
 30
0.0
 40
3.5
  1
仕上げ：各種仕上げ
  0
LINE
  5
25123
  8
1DIM
 10
595.8331532705689
 20
-664.8213303512653
 30
0.0
 11
602.1894363514962
 21
-664.8213303512653
 31
0.0
  0
LINE
  5
25124
  8
1DIM
 10
595.8331532705689
 20
-649.8213303512653
 30
0.0
 11
602.1894363514962
 21
-649.8213303512653
 31
0.0
  0
LINE
  5
25125
  8
1DIM
 10
601.1894363514962
 20
-664.8213303512653
 30
0.0
 11
601.1894363514962
 21
-673.3879970179321
 31
0.0
  0
LINE
  5
25126
  8
1DIM
 10
601.1894363514962
 20
-662.8213303512653
 30
0.0
 11
601.1894363514962
 21
-651.8213303512653
 31
0.0
  0
LINE
  5
2512A
  8
1DIM
 10
731.4439064104149
 20
-665.1213303512652
 30
0.0
 11
731.4439064104149
 21
-695.702969256661
 31
0.0
1001
ACAD
1000
DSTYLE
1002
{
1070
    45
1040
0.5
1002
}
  0
LINE
  5
2512B
  8
1DIM
 10
689.1439064104147
 20
-656.2439800820757
 30
0.0
 11
689.1439064104147
 21
-695.702969256661
 31
0.0
1001
ACAD
1000
DSTYLE
1002
{
1070
    45
1040
0.5
1002
}
  0
LINE
  5
2512C
  8
1DIM
 10
729.4439064104149
 20
-694.702969256661
 30
0.0
 11
691.1439064104147
 21
-694.702969256661
 31
0.0
1001
ACAD
1000
DSTYLE
1002
{
1070
    45
1040
0.5
1002
}
  0
LINE
  5
25130
  8
1DIM
 10
731.4439064104149
 20
-693.0495039365471
 30
0.0
 11
731.4439064104149
 21
-682.7682042096069
 31
0.0
1001
ACAD
1000
DSTYLE
1002
{
1070
    45
1040
0.5
1002
}
  0
LINE
  5
25131
  8
1DIM
 10
716.4438688762181
 20
-666.6800992512652
 30
0.0
 11
716.4438688762181
 21
-684.7682042096069
 31
0.0
1001
ACAD
1000
DSTYLE
1002
{
1070
    45
1040
0.5
1002
}
  0
LINE
  5
25132
  8
1DIM
 10
729.4439064104149
 20
-683.7682042096069
 30
0.0
 11
718.4438688762181
 21
-683.7682042096069
 31
0.0
1001
ACAD
1000
DSTYLE
1002
{
1070
    45
1040
0.5
1002
}
  0
LINE
  5
25136
  8
1HATCH
 10
718.093868876218
 20
-663.4713303512652
 30
0.0
 11
718.4438688762181
 21
-663.8213301771912
 31
0.0
  0
LINE
  5
25137
  8
1HATCH
 10
714.4438688762181
 20
-663.8213301771912
 30
0.0
 11
714.7938688762181
 21
-663.4713303512652
 31
0.0
  0
LINE
  5
25138
  8
1HATCH
 10
719.4438688762181
 20
-664.8213303412653
 30
0.0
 11
713.4438688762181
 21
-664.8213303412651
 31
0.0
  0
LINE
  5
25139
  8
1HATCH
 10
718.4438688762181
 20
-657.4713303512652
 30
0.0
 11
714.4438688762181
 21
-657.4713303512652
 31
0.0
  0
LINE
  5
2513B
  8
1HATCH
 10
714.7938688762181
 20
-657.1213303512652
 30
0.0
 11
714.7938688762181
 21
-663.4713303512652
 31
0.0
  0
LINE
  5
2513C
  8
1HATCH
 10
718.093868876218
 20
-657.1213303512652
 30
0.0
 11
718.093868876218
 21
-663.4713303512652
 31
0.0
  0
LINE
  5
2513D
  8
1CENTER
 10
716.4438688762181
 20
-655.5196553512652
 30
0.0
 11
716.4438688762181
 21
-666.6800992512652
 31
0.0
  0
LINE
  5
2513F
  8
1CENTER
 10
719.8422314104148
 20
-657.3213
 30
0.0
 11
750.2863369843833
 21
-657.3213
 31
0.0
  0
LINE
  5
25140
  8
1HATCH
 10
721.4439064104149
 20
-655.6713
 30
0.0
 11
746.4439064104148
 21
-655.6713
 31
0.0
  0
LINE
  5
25141
  8
1HATCH
 10
721.4439064104149
 20
-658.9712999999999
 30
0.0
 11
746.4439064104148
 21
-658.9712999999999
 31
0.0
  0
LINE
  5
25142
  8
1HATCH
 10
721.7939064104148
 20
-655.3213
 30
0.0
 11
721.7939064104148
 21
-659.3213
 31
0.0
  0
LINE
  5
25143
  8
0
 10
746.4439064104149
 20
-655.3212999999998
 30
0.0
 11
746.4439064104149
 21
-659.3212999999998
 31
0.0
  0
LINE
  5
25144
  8
0
 10
747.4439064104148
 20
-652.7882368203337
 30
0.0
 11
747.4439064104149
 21
-661.8266677848061
 31
0.0
  0
LINE
  5
25145
  8
1DIM
 10
745.4048210016692
 20
-655.5212534643713
 30
0.0
 11
761.7591068947856
 21
-655.5212534643713
 31
0.0
  0
LINE
  5
25146
  8
1DIM
 10
731.4439064104149
 20
-649.5213303512653
 30
0.0
 11
761.7591068947856
 21
-649.5213303512653
 31
0.0
  0
LINE
  5
25147
  8
1DIM
 10
760.7591068947856
 20
-653.5212534643713
 30
0.0
 11
760.7591068947856
 21
-651.5213303512653
 31
0.0
  0
LINE
  5
2514B
  8
1DIM
 10
750.2863369843833
 20
-657.3213
 30
0.0
 11
768.9044303497549
 21
-657.3213
 31
0.0
1001
ACAD
1000
DSTYLE
1002
{
1070
    45
1040
0.5
1002
}
  0
LINE
  5
2514C
  8
1DIM
 10
731.4439064104149
 20
-649.5213303512653
 30
0.0
 11
768.9044303497549
 21
-649.5213303512653
 31
0.0
1001
ACAD
1000
DSTYLE
1002
{
1070
    45
1040
0.5
1002
}
  0
LINE
  5
2514D
  8
1DIM
 10
767.9044303497549
 20
-655.3213
 30
0.0
 11
767.9044303497549
 21
-651.5213303512653
 31
0.0
1001
ACAD
1000
DSTYLE
1002
{
1070
    45
1040
0.5
1002
}
  0
LINE
  5
25151
  8
1DIM
 10
731.4439064104149
 20
-665.1213303512652
 30
0.0
 11
778.9204412890468
 21
-665.1213303512652
 31
0.0
1001
ACAD
1000
DSTYLE
1002
{
1070
    45
1040
0.5
1002
}
  0
LINE
  5
25152
  8
1DIM
 10
731.4439064104149
 20
-649.5213303512653
 30
0.0
 11
778.9204412890468
 21
-649.5213303512653
 31
0.0
1001
ACAD
1000
DSTYLE
1002
{
1070
    45
1040
0.5
1002
}
  0
LINE
  5
25153
  8
1DIM
 10
777.9204412890468
 20
-663.1213303512652
 30
0.0
 11
777.9204412890468
 21
-651.5213303512653
 31
0.0
1001
ACAD
1000
DSTYLE
1002
{
1070
    45
1040
0.5
1002
}
  0
LINE
  5
25158
  8
1CENTER
 10
626.5162416153645
 20
-558.2750164792017
 30
0.0
 11
626.5162416153645
 21
-527.8309109052332
 31
0.0
  0
LINE
  5
25159
  8
1HATCH
 10
624.8662416153645
 20
-556.6733414792016
 30
0.0
 11
624.8662416153645
 21
-531.6733414792017
 31
0.0
  0
LINE
  5
2515A
  8
1HATCH
 10
628.1662416153645
 20
-556.6733414792016
 30
0.0
 11
628.1662416153645
 21
-531.6733414792017
 31
0.0
  0
LINE
  5
2515B
  8
1HATCH
 10
624.5162416153645
 20
-556.3233414792016
 30
0.0
 11
628.5162416153645
 21
-556.3233414792016
 31
0.0
  0
LINE
  5
2515C
  8
0
 10
624.5162416153644
 20
-531.6733414792016
 30
0.0
 11
628.5162416153644
 21
-531.6733414792016
 31
0.0
  0
LINE
  5
2515D
  8
0
 10
621.9831784356983
 20
-530.6733414792017
 30
0.0
 11
631.0216094001706
 21
-530.6733414792016
 31
0.0
  0
LINE
  5
2515F
  8
1CENTER
 10
176.5161583846356
 20
-558.2750164792017
 30
0.0
 11
176.5161583846356
 21
-527.8309109052334
 31
0.0
  0
LINE
  5
25160
  8
1HATCH
 10
178.1661583846355
 20
-556.6733414792018
 30
0.0
 11
178.1661583846355
 21
-531.6733414792018
 31
0.0
  0
LINE
  5
25161
  8
1HATCH
 10
174.8661583846356
 20
-556.6733414792018
 30
0.0
 11
174.8661583846356
 21
-531.6733414792017
 31
0.0
  0
LINE
  5
25162
  8
1HATCH
 10
178.5161583846356
 20
-556.3233414792016
 30
0.0
 11
174.5161583846356
 21
-556.3233414792016
 31
0.0
  0
LINE
  5
25163
  8
0
 10
178.5161583846356
 20
-531.6733414792018
 30
0.0
 11
174.5161583846356
 21
-531.6733414792017
 31
0.0
  0
LINE
  5
25164
  8
0
 10
181.0492215643018
 20
-530.6733414792018
 30
0.0
 11
172.0107905998294
 21
-530.6733414792017
 31
0.0
  0
LINE
  5
25165
  8
1DIM
 10
595.8331532705689
 20
-591.6733632265018
 30
0.0
 11
602.1894363514962
 21
-591.6733632265018
 31
0.0
  0
LINE
  5
25166
  8
1DIM
 10
595.8331532705689
 20
-575.6733632265018
 30
0.0
 11
602.1894363514962
 21
-575.6733632265018
 31
0.0
  0
LINE
  5
25167
  8
1DIM
 10
601.1894363514962
 20
-591.6733632265018
 30
0.0
 11
601.1894363514962
 21
-600.2400298931686
 31
0.0
  0
LINE
  5
25168
  8
1DIM
 10
601.1894363514962
 20
-589.6733632265018
 30
0.0
 11
601.1894363514962
 21
-577.6733632265018
 31
0.0
  0
LINE
  5
2516C
  8
1DIM
 10
746.4439064104149
 20
-618.5931567659834
 30
0.0
 11
746.4439064104149
 21
-608.8899107752288
 31
0.0
1001
ACAD
1000
DSTYLE
1002
{
1070
    70
1070
     0
1070
    69
1070
     0
1002
}
  0
LINE
  5
2516D
  8
1DIM
 10
731.4439064104149
 20
-618.5931567659834
 30
0.0
 11
731.4439064104149
 21
-608.8899107752288
 31
0.0
1001
ACAD
1000
DSTYLE
1002
{
1070
    70
1070
     0
1070
    69
1070
     0
1002
}
  0
LINE
  5
2516E
  8
1DIM
 10
731.4439064104149
 20
-609.8899107752288
 30
0.0
 11
693.0105730770815
 21
-609.8899107752288
 31
0.0
1001
ACAD
1000
DSTYLE
1002
{
1070
    70
1070
     0
1070
    69
1070
     0
1002
}
  0
LINE
  5
2516F
  8
1DIM
 10
744.4439064104149
 20
-609.8899107752288
 30
0.0
 11
733.4439064104149
 21
-609.8899107752288
 31
0.0
1001
ACAD
1000
DSTYLE
1002
{
1070
    70
1070
     0
1070
    69
1070
     0
1002
}
  0
LINE
  5
25174
  8
1CENTER
 10
745.4048210016692
 20
-655.5212534643713
 30
0.0
 11
722.9021879488329
 21
-655.5212534643713
 31
0.0
  0
LINE
  5
25175
  8
0
 10
740.343908956683
 20
-654.4269296503762
 30
0.0
 11
741.143904390734
 21
-656.3892647392516
 31
0.0
  0
LINE
  5
25176
  8
0
 10
741.143904390734
 20
-656.3892647392516
 30
0.0
 11
741.4556742469861
 21
-655.8009881642092
 31
0.0
  0
LINE
  5
25177
  8
0
 10
729.1439110638973
 20
-653.5213000002692
 30
0.0
 11
729.9439017567199
 21
-657.5213000002692
 31
0.0
  0
LINE
  5
25178
  8
0
 10
731.5439017567201
 20
-657.5213000002692
 30
0.0
 11
731.6439029201172
 21
-657.0213000002692
 31
0.0
  0
LINE
  5
25179
  8
0
 10
729.9439017567199
 20
-657.5213000002692
 30
0.0
 11
730.0439029201171
 21
-657.0213000002692
 31
0.0
  0
LINE
  5
2517A
  8
0
 10
733.14390175672
 20
-657.5213000002692
 30
0.0
 11
733.2439029201172
 21
-657.0213000002692
 31
0.0
  0
LINE
  5
2517B
  8
0
 10
737.9439022835227
 20
-657.2948929480652
 30
0.0
 11
738.0731729811525
 21
-656.7582992127941
 31
0.0
  0
LINE
  5
2517C
  8
0
 10
734.74390175672
 20
-657.5213000002692
 30
0.0
 11
734.843902920117
 21
-657.0213000002692
 31
0.0
  0
LINE
  5
2517D
  8
0
 10
736.34390175672
 20
-657.5213000002692
 30
0.0
 11
736.4439029201171
 21
-657.0213000002692
 31
0.0
  0
LINE
  5
2517E
  8
0
 10
739.5439033371283
 20
-656.8420788436584
 30
0.0
 11
739.7266674797563
 21
-656.2903293798552
 31
0.0
  0
LINE
  5
2517F
  8
0
 10
730.6439099005004
 20
-654.0213000002692
 30
0.0
 11
730.7439110638975
 21
-653.5213000002692
 31
0.0
  0
LINE
  5
25180
  8
0
 10
732.2439099005003
 20
-654.0213000002692
 30
0.0
 11
732.3439110638974
 21
-653.5213000002692
 31
0.0
  0
LINE
  5
25181
  8
0
 10
733.8439099005002
 20
-654.0213000002692
 30
0.0
 11
733.9439110638974
 21
-653.5213000002692
 31
0.0
  0
LINE
  5
25182
  8
0
 10
740.1924731602426
 20
-654.8841014910073
 30
0.0
 11
740.343908956683
 21
-654.4269296503762
 31
0.0
  0
LINE
  5
25183
  8
0
 10
737.0439099005002
 20
-654.0213000002692
 30
0.0
 11
737.1439110638973
 21
-653.5213000002692
 31
0.0
  0
LINE
  5
25184
  8
0
 10
735.4439099005003
 20
-654.0213000002692
 30
0.0
 11
735.5439110638974
 21
-653.5213000002692
 31
0.0
  0
LINE
  5
25185
  8
0
 10
738.6311404979372
 20
-654.4422145974779
 30
0.0
 11
738.7439100102872
 21
-653.974116142328
 31
0.0
  0
LINE
  5
25186
  8
0
 10
733.9439110638974
 20
-653.5213000002692
 30
0.0
 11
734.74390175672
 21
-657.5213000002692
 31
0.0
  0
LINE
  5
25187
  8
0
 10
737.1439110638973
 20
-653.5213000002692
 30
0.0
 11
737.9439022835227
 21
-657.2948929480652
 31
0.0
  0
LINE
  5
25188
  8
0
 10
735.5439110638974
 20
-653.5213000002692
 30
0.0
 11
736.34390175672
 21
-657.5213000002692
 31
0.0
  0
LINE
  5
25189
  8
0
 10
738.7439100102872
 20
-653.974116142328
 30
0.0
 11
739.5439033371283
 21
-656.8420788436584
 31
0.0
  0
LINE
  5
2518A
  8
0
 10
730.7439110638975
 20
-653.5213000002692
 30
0.0
 11
731.5439017567201
 21
-657.5213000002692
 31
0.0
  0
LINE
  5
2518B
  8
0
 10
732.3439110638974
 20
-653.5213000002692
 30
0.0
 11
733.14390175672
 21
-657.5213000002692
 31
0.0
  0
LINE
  5
2518C
  8
0
 10
727.4439029202226
 20
-657.021300000269
 30
0.0
 11
727.4439099006073
 21
-654.0212999997311
 31
0.0
  0
LINE
  5
2518D
  8
0
 10
728.34390175672
 20
-657.5213000002692
 30
0.0
 11
728.4439029201171
 21
-657.0213000002692
 31
0.0
  0
LINE
  5
2518E
  8
0
 10
727.4439099004996
 20
-654.0213000002692
 30
0.0
 11
727.5439110638974
 21
-653.5213000002692
 31
0.0
  0
LINE
  5
2518F
  8
0
 10
729.0439099005002
 20
-654.0213000002692
 30
0.0
 11
729.1439110638973
 21
-653.5213000002692
 31
0.0
  0
LINE
  5
25190
  8
0
 10
727.5439110638974
 20
-653.5213000002692
 30
0.0
 11
728.34390175672
 21
-657.5213000002692
 31
0.0
  0
LINE
  5
25192
  8
1CENTER
 10
634.5161950797358
 20
-535.7124268879472
 30
0.0
 11
634.5161950797358
 21
-558.2150599407836
 31
0.0
  0
LINE
  5
25193
  8
0
 10
633.4218712657407
 20
-540.7733389329335
 30
0.0
 11
635.3842063546161
 21
-539.9733434988825
 31
0.0
  0
LINE
  5
25194
  8
0
 10
635.3842063546161
 20
-539.9733434988825
 30
0.0
 11
634.7959297795737
 21
-539.6615736426304
 31
0.0
  0
LINE
  5
25195
  8
0
 10
632.5162416156337
 20
-551.9733368257191
 30
0.0
 11
636.5162416156337
 21
-551.1733461328965
 31
0.0
  0
LINE
  5
25196
  8
0
 10
636.5162416156337
 20
-549.5733461328964
 30
0.0
 11
636.0162416156337
 21
-549.4733449694993
 31
0.0
  0
LINE
  5
25197
  8
0
 10
636.5162416156337
 20
-551.1733461328965
 30
0.0
 11
636.0162416156337
 21
-551.0733449694993
 31
0.0
  0
LINE
  5
25198
  8
0
 10
636.5162416156337
 20
-547.9733461328965
 30
0.0
 11
636.0162416156337
 21
-547.8733449694993
 31
0.0
  0
LINE
  5
25199
  8
0
 10
636.2898345634297
 20
-543.1733456060938
 30
0.0
 11
635.7532408281586
 21
-543.0440749084639
 31
0.0
  0
LINE
  5
2519A
  8
0
 10
636.5162416156337
 20
-546.3733461328965
 30
0.0
 11
636.0162416156337
 21
-546.2733449694995
 31
0.0
  0
LINE
  5
2519B
  8
0
 10
636.5162416156337
 20
-544.7733461328964
 30
0.0
 11
636.0162416156337
 21
-544.6733449694993
 31
0.0
  0
LINE
  5
2519C
  8
0
 10
635.8370204590229
 20
-541.5733445524882
 30
0.0
 11
635.2852709952197
 21
-541.3905804098601
 31
0.0
  0
LINE
  5
2519D
  8
0
 10
633.0162416156337
 20
-550.4733379891161
 30
0.0
 11
632.5162416156337
 21
-550.373336825719
 31
0.0
  0
LINE
  5
2519E
  8
0
 10
633.0162416156337
 20
-548.8733379891162
 30
0.0
 11
632.5162416156337
 21
-548.7733368257191
 31
0.0
  0
LINE
  5
2519F
  8
0
 10
633.0162416156337
 20
-547.2733379891163
 30
0.0
 11
632.5162416156337
 21
-547.173336825719
 31
0.0
  0
LINE
  5
251A0
  8
0
 10
633.8790431063718
 20
-540.9247747293739
 30
0.0
 11
633.4218712657407
 21
-540.7733389329335
 31
0.0
  0
LINE
  5
251A1
  8
0
 10
633.0162416156337
 20
-544.0733379891162
 30
0.0
 11
632.5162416156337
 21
-543.9733368257191
 31
0.0
  0
LINE
  5
251A2
  8
0
 10
633.0162416156337
 20
-545.6733379891161
 30
0.0
 11
632.5162416156337
 21
-545.573336825719
 31
0.0
  0
LINE
  5
251A3
  8
0
 10
633.4371562128424
 20
-542.4861073916793
 30
0.0
 11
632.9690577576924
 21
-542.3733378793293
 31
0.0
  0
LINE
  5
251A4
  8
0
 10
632.5162416156337
 20
-547.173336825719
 30
0.0
 11
636.5162416156337
 21
-546.3733461328965
 31
0.0
  0
LINE
  5
251A5
  8
0
 10
632.5162416156337
 20
-543.9733368257191
 30
0.0
 11
636.2898345634297
 21
-543.1733456060938
 31
0.0
  0
LINE
  5
251A6
  8
0
 10
632.5162416156337
 20
-545.573336825719
 30
0.0
 11
636.5162416156337
 21
-544.7733461328964
 31
0.0
  0
LINE
  5
251A7
  8
0
 10
632.9690577576924
 20
-542.3733378793293
 30
0.0
 11
635.8370204590229
 21
-541.5733445524882
 31
0.0
  0
LINE
  5
251A8
  8
0
 10
632.5162416156337
 20
-550.373336825719
 30
0.0
 11
636.5162416156337
 21
-549.5733461328964
 31
0.0
  0
LINE
  5
251A9
  8
0
 10
632.5162416156337
 20
-548.7733368257191
 30
0.0
 11
636.5162416156337
 21
-547.9733461328965
 31
0.0
  0
LINE
  5
251AA
  8
0
 10
636.0162416156335
 20
-553.6733449693938
 30
0.0
 11
633.0162416150956
 21
-553.6733379890092
 31
0.0
  0
LINE
  5
251AB
  8
0
 10
636.5162416156337
 20
-552.7733461328964
 30
0.0
 11
636.0162416156337
 21
-552.6733449694993
 31
0.0
  0
LINE
  5
251AC
  8
0
 10
633.0162416156337
 20
-553.6733379891168
 30
0.0
 11
632.5162416156337
 21
-553.573336825719
 31
0.0
  0
LINE
  5
251AD
  8
0
 10
633.0162416156337
 20
-552.0733379891162
 30
0.0
 11
632.5162416156337
 21
-551.9733368257191
 31
0.0
  0
LINE
  5
251AE
  8
0
 10
632.5162416156337
 20
-553.573336825719
 30
0.0
 11
636.5162416156337
 21
-552.7733461328964
 31
0.0
  0
LINE
  5
251B0
  8
1CENTER
 10
618.5161950797358
 20
-535.7124268879472
 30
0.0
 11
618.5161950797358
 21
-558.2150599407836
 31
0.0
  0
LINE
  5
251B1
  8
0
 10
617.4218712657407
 20
-540.7733389329335
 30
0.0
 11
619.3842063546161
 21
-539.9733434988825
 31
0.0
  0
LINE
  5
251B2
  8
0
 10
619.3842063546161
 20
-539.9733434988825
 30
0.0
 11
618.7959297795737
 21
-539.6615736426304
 31
0.0
  0
LINE
  5
251B3
  8
0
 10
616.5162416156337
 20
-551.9733368257191
 30
0.0
 11
620.5162416156337
 21
-551.1733461328965
 31
0.0
  0
LINE
  5
251B4
  8
0
 10
620.5162416156337
 20
-549.5733461328964
 30
0.0
 11
620.0162416156337
 21
-549.4733449694993
 31
0.0
  0
LINE
  5
251B5
  8
0
 10
620.5162416156337
 20
-551.1733461328965
 30
0.0
 11
620.0162416156337
 21
-551.0733449694993
 31
0.0
  0
LINE
  5
251B6
  8
0
 10
620.5162416156337
 20
-547.9733461328965
 30
0.0
 11
620.0162416156337
 21
-547.8733449694993
 31
0.0
  0
LINE
  5
251B7
  8
0
 10
620.2898345634297
 20
-543.1733456060938
 30
0.0
 11
619.7532408281586
 21
-543.0440749084639
 31
0.0
  0
LINE
  5
251B8
  8
0
 10
620.5162416156337
 20
-546.3733461328965
 30
0.0
 11
620.0162416156337
 21
-546.2733449694995
 31
0.0
  0
LINE
  5
251B9
  8
0
 10
620.5162416156337
 20
-544.7733461328964
 30
0.0
 11
620.0162416156337
 21
-544.6733449694993
 31
0.0
  0
LINE
  5
251BA
  8
0
 10
619.8370204590229
 20
-541.5733445524882
 30
0.0
 11
619.2852709952197
 21
-541.3905804098601
 31
0.0
  0
LINE
  5
251BB
  8
0
 10
617.0162416156337
 20
-550.4733379891161
 30
0.0
 11
616.5162416156337
 21
-550.373336825719
 31
0.0
  0
LINE
  5
251BC
  8
0
 10
617.0162416156337
 20
-548.8733379891162
 30
0.0
 11
616.5162416156337
 21
-548.7733368257191
 31
0.0
  0
LINE
  5
251BD
  8
0
 10
617.0162416156337
 20
-547.2733379891163
 30
0.0
 11
616.5162416156337
 21
-547.173336825719
 31
0.0
  0
LINE
  5
251BE
  8
0
 10
617.8790431063718
 20
-540.9247747293739
 30
0.0
 11
617.4218712657407
 21
-540.7733389329335
 31
0.0
  0
LINE
  5
251BF
  8
0
 10
617.0162416156337
 20
-544.0733379891162
 30
0.0
 11
616.5162416156337
 21
-543.9733368257191
 31
0.0
  0
LINE
  5
251C0
  8
0
 10
617.0162416156337
 20
-545.6733379891161
 30
0.0
 11
616.5162416156337
 21
-545.573336825719
 31
0.0
  0
LINE
  5
251C1
  8
0
 10
617.4371562128424
 20
-542.4861073916793
 30
0.0
 11
616.9690577576924
 21
-542.3733378793293
 31
0.0
  0
LINE
  5
251C2
  8
0
 10
616.5162416156337
 20
-547.173336825719
 30
0.0
 11
620.5162416156337
 21
-546.3733461328965
 31
0.0
  0
LINE
  5
251C3
  8
0
 10
616.5162416156337
 20
-543.9733368257191
 30
0.0
 11
620.2898345634297
 21
-543.1733456060938
 31
0.0
  0
LINE
  5
251C4
  8
0
 10
616.5162416156337
 20
-545.573336825719
 30
0.0
 11
620.5162416156337
 21
-544.7733461328964
 31
0.0
  0
LINE
  5
251C5
  8
0
 10
616.9690577576924
 20
-542.3733378793293
 30
0.0
 11
619.8370204590229
 21
-541.5733445524882
 31
0.0
  0
LINE
  5
251C6
  8
0
 10
616.5162416156337
 20
-550.373336825719
 30
0.0
 11
620.5162416156337
 21
-549.5733461328964
 31
0.0
  0
LINE
  5
251C7
  8
0
 10
616.5162416156337
 20
-548.7733368257191
 30
0.0
 11
620.5162416156337
 21
-547.9733461328965
 31
0.0
  0
LINE
  5
251C8
  8
0
 10
620.0162416156335
 20
-553.6733449693938
 30
0.0
 11
617.0162416150956
 21
-553.6733379890092
 31
0.0
  0
LINE
  5
251C9
  8
0
 10
620.5162416156337
 20
-552.7733461328964
 30
0.0
 11
620.0162416156337
 21
-552.6733449694993
 31
0.0
  0
LINE
  5
251CA
  8
0
 10
617.0162416156337
 20
-553.6733379891168
 30
0.0
 11
616.5162416156337
 21
-553.573336825719
 31
0.0
  0
LINE
  5
251CB
  8
0
 10
617.0162416156337
 20
-552.0733379891162
 30
0.0
 11
616.5162416156337
 21
-551.9733368257191
 31
0.0
  0
LINE
  5
251CC
  8
0
 10
616.5162416156337
 20
-553.573336825719
 30
0.0
 11
620.5162416156337
 21
-552.7733461328964
 31
0.0
  0
LINE
  5
251CE
  8
1CENTER
 10
184.5161118490054
 20
-535.7124268879473
 30
0.0
 11
184.5161118490054
 21
-558.2150599407837
 31
0.0
  0
LINE
  5
251CF
  8
0
 10
183.4217880350103
 20
-540.7733389329336
 30
0.0
 11
185.3841231238858
 21
-539.9733434988826
 31
0.0
  0
LINE
  5
251D0
  8
0
 10
185.3841231238858
 20
-539.9733434988826
 30
0.0
 11
184.7958465488433
 21
-539.6615736426305
 31
0.0
  0
LINE
  5
251D1
  8
0
 10
182.5161583849033
 20
-551.9733368257192
 30
0.0
 11
186.5161583849033
 21
-551.1733461328967
 31
0.0
  0
LINE
  5
251D2
  8
0
 10
186.5161583849033
 20
-549.5733461328965
 30
0.0
 11
186.0161583849033
 21
-549.4733449694994
 31
0.0
  0
LINE
  5
251D3
  8
0
 10
186.5161583849033
 20
-551.1733461328967
 30
0.0
 11
186.0161583849033
 21
-551.0733449694994
 31
0.0
  0
LINE
  5
251D4
  8
0
 10
186.5161583849033
 20
-547.9733461328966
 30
0.0
 11
186.0161583849033
 21
-547.8733449694994
 31
0.0
  0
LINE
  5
251D5
  8
0
 10
186.2897513326993
 20
-543.1733456060939
 30
0.0
 11
185.7531575974282
 21
-543.044074908464
 31
0.0
  0
LINE
  5
251D6
  8
0
 10
186.5161583849033
 20
-546.3733461328966
 30
0.0
 11
186.0161583849033
 21
-546.2733449694996
 31
0.0
  0
LINE
  5
251D7
  8
0
 10
186.5161583849033
 20
-544.7733461328966
 30
0.0
 11
186.0161583849033
 21
-544.6733449694995
 31
0.0
  0
LINE
  5
251D8
  8
0
 10
185.8369372282925
 20
-541.5733445524883
 30
0.0
 11
185.2851877644893
 21
-541.3905804098603
 31
0.0
  0
LINE
  5
251D9
  8
0
 10
183.0161583849033
 20
-550.4733379891162
 30
0.0
 11
182.5161583849033
 21
-550.3733368257191
 31
0.0
  0
LINE
  5
251DA
  8
0
 10
183.0161583849033
 20
-548.8733379891163
 30
0.0
 11
182.5161583849033
 21
-548.7733368257192
 31
0.0
  0
LINE
  5
251DB
  8
0
 10
183.0161583849033
 20
-547.2733379891164
 30
0.0
 11
182.5161583849033
 21
-547.1733368257192
 31
0.0
  0
LINE
  5
251DC
  8
0
 10
183.8789598756414
 20
-540.924774729374
 30
0.0
 11
183.4217880350103
 21
-540.7733389329336
 31
0.0
  0
LINE
  5
251DD
  8
0
 10
183.0161583849033
 20
-544.0733379891163
 30
0.0
 11
182.5161583849033
 21
-543.9733368257192
 31
0.0
  0
LINE
  5
251DE
  8
0
 10
183.0161583849033
 20
-545.6733379891162
 30
0.0
 11
182.5161583849033
 21
-545.5733368257191
 31
0.0
  0
LINE
  5
251DF
  8
0
 10
183.437072982112
 20
-542.4861073916794
 30
0.0
 11
182.968974526962
 21
-542.3733378793294
 31
0.0
  0
LINE
  5
251E0
  8
0
 10
182.5161583849033
 20
-547.1733368257192
 30
0.0
 11
186.5161583849033
 21
-546.3733461328966
 31
0.0
  0
LINE
  5
251E1
  8
0
 10
182.5161583849033
 20
-543.9733368257192
 30
0.0
 11
186.2897513326993
 21
-543.1733456060939
 31
0.0
  0
LINE
  5
251E2
  8
0
 10
182.5161583849033
 20
-545.5733368257191
 30
0.0
 11
186.5161583849033
 21
-544.7733461328966
 31
0.0
  0
LINE
  5
251E3
  8
0
 10
182.968974526962
 20
-542.3733378793294
 30
0.0
 11
185.8369372282925
 21
-541.5733445524883
 31
0.0
  0
LINE
  5
251E4
  8
0
 10
182.5161583849033
 20
-550.3733368257191
 30
0.0
 11
186.5161583849033
 21
-549.5733461328965
 31
0.0
  0
LINE
  5
251E5
  8
0
 10
182.5161583849033
 20
-548.7733368257192
 30
0.0
 11
186.5161583849033
 21
-547.9733461328966
 31
0.0
  0
LINE
  5
251E6
  8
0
 10
186.0161583849031
 20
-553.673344969394
 30
0.0
 11
183.0161583843652
 21
-553.6733379890093
 31
0.0
  0
LINE
  5
251E7
  8
0
 10
186.5161583849033
 20
-552.7733461328966
 30
0.0
 11
186.0161583849033
 21
-552.6733449694995
 31
0.0
  0
LINE
  5
251E8
  8
0
 10
183.0161583849033
 20
-553.6733379891169
 30
0.0
 11
182.5161583849033
 21
-553.5733368257191
 31
0.0
  0
LINE
  5
251E9
  8
0
 10
183.0161583849033
 20
-552.0733379891163
 30
0.0
 11
182.5161583849033
 21
-551.9733368257192
 31
0.0
  0
LINE
  5
251EA
  8
0
 10
182.5161583849033
 20
-553.5733368257191
 30
0.0
 11
186.5161583849033
 21
-552.7733461328966
 31
0.0
  0
LINE
  5
251EC
  8
1CENTER
 10
168.5161118490054
 20
-535.7124268879473
 30
0.0
 11
168.5161118490054
 21
-558.2150599407837
 31
0.0
  0
LINE
  5
251ED
  8
0
 10
167.4217880350103
 20
-540.7733389329336
 30
0.0
 11
169.3841231238858
 21
-539.9733434988826
 31
0.0
  0
LINE
  5
251EE
  8
0
 10
169.3841231238858
 20
-539.9733434988826
 30
0.0
 11
168.7958465488433
 21
-539.6615736426305
 31
0.0
  0
LINE
  5
251EF
  8
0
 10
166.5161583849033
 20
-551.9733368257192
 30
0.0
 11
170.5161583849033
 21
-551.1733461328967
 31
0.0
  0
LINE
  5
251F0
  8
0
 10
170.5161583849033
 20
-549.5733461328965
 30
0.0
 11
170.0161583849033
 21
-549.4733449694994
 31
0.0
  0
LINE
  5
251F1
  8
0
 10
170.5161583849033
 20
-551.1733461328967
 30
0.0
 11
170.0161583849033
 21
-551.0733449694994
 31
0.0
  0
LINE
  5
251F2
  8
0
 10
170.5161583849033
 20
-547.9733461328966
 30
0.0
 11
170.0161583849033
 21
-547.8733449694994
 31
0.0
  0
LINE
  5
251F3
  8
0
 10
170.2897513326993
 20
-543.1733456060939
 30
0.0
 11
169.7531575974282
 21
-543.044074908464
 31
0.0
  0
LINE
  5
251F4
  8
0
 10
170.5161583849033
 20
-546.3733461328966
 30
0.0
 11
170.0161583849033
 21
-546.2733449694996
 31
0.0
  0
LINE
  5
251F5
  8
0
 10
170.5161583849033
 20
-544.7733461328966
 30
0.0
 11
170.0161583849033
 21
-544.6733449694995
 31
0.0
  0
LINE
  5
251F6
  8
0
 10
169.8369372282925
 20
-541.5733445524883
 30
0.0
 11
169.2851877644893
 21
-541.3905804098603
 31
0.0
  0
LINE
  5
251F7
  8
0
 10
167.0161583849033
 20
-550.4733379891162
 30
0.0
 11
166.5161583849033
 21
-550.3733368257191
 31
0.0
  0
LINE
  5
251F8
  8
0
 10
167.0161583849033
 20
-548.8733379891163
 30
0.0
 11
166.5161583849033
 21
-548.7733368257192
 31
0.0
  0
LINE
  5
251F9
  8
0
 10
167.0161583849033
 20
-547.2733379891164
 30
0.0
 11
166.5161583849033
 21
-547.1733368257192
 31
0.0
  0
LINE
  5
251FA
  8
0
 10
167.8789598756414
 20
-540.924774729374
 30
0.0
 11
167.4217880350103
 21
-540.7733389329336
 31
0.0
  0
LINE
  5
251FB
  8
0
 10
167.0161583849033
 20
-544.0733379891163
 30
0.0
 11
166.5161583849033
 21
-543.9733368257192
 31
0.0
  0
LINE
  5
251FC
  8
0
 10
167.0161583849033
 20
-545.6733379891162
 30
0.0
 11
166.5161583849033
 21
-545.5733368257191
 31
0.0
  0
LINE
  5
251FD
  8
0
 10
167.437072982112
 20
-542.4861073916794
 30
0.0
 11
166.968974526962
 21
-542.3733378793294
 31
0.0
  0
LINE
  5
251FE
  8
0
 10
166.5161583849033
 20
-547.1733368257192
 30
0.0
 11
170.5161583849033
 21
-546.3733461328966
 31
0.0
  0
LINE
  5
251FF
  8
0
 10
166.5161583849033
 20
-543.9733368257192
 30
0.0
 11
170.2897513326993
 21
-543.1733456060939
 31
0.0
  0
LINE
  5
25200
  8
0
 10
166.5161583849033
 20
-545.5733368257191
 30
0.0
 11
170.5161583849033
 21
-544.7733461328966
 31
0.0
  0
LINE
  5
25201
  8
0
 10
166.968974526962
 20
-542.3733378793294
 30
0.0
 11
169.8369372282925
 21
-541.5733445524883
 31
0.0
  0
LINE
  5
25202
  8
0
 10
166.5161583849033
 20
-550.3733368257191
 30
0.0
 11
170.5161583849033
 21
-549.5733461328965
 31
0.0
  0
LINE
  5
25203
  8
0
 10
166.5161583849033
 20
-548.7733368257192
 30
0.0
 11
170.5161583849033
 21
-547.9733461328966
 31
0.0
  0
LINE
  5
25204
  8
0
 10
170.0161583849031
 20
-553.673344969394
 30
0.0
 11
167.0161583843652
 21
-553.6733379890093
 31
0.0
  0
LINE
  5
25205
  8
0
 10
170.5161583849033
 20
-552.7733461328966
 30
0.0
 11
170.0161583849033
 21
-552.6733449694995
 31
0.0
  0
LINE
  5
25206
  8
0
 10
167.0161583849033
 20
-553.6733379891169
 30
0.0
 11
166.5161583849033
 21
-553.5733368257191
 31
0.0
  0
LINE
  5
25207
  8
0
 10
167.0161583849033
 20
-552.0733379891163
 30
0.0
 11
166.5161583849033
 21
-551.9733368257192
 31
0.0
  0
LINE
  5
25208
  8
0
 10
166.5161583849033
 20
-553.5733368257191
 30
0.0
 11
170.5161583849033
 21
-552.7733461328966
 31
0.0
  0
LINE
  5
25209
  8
0
  6
BYBLOCK
 10
641.0162416153653
 20
-522.7755379114425
 30
0.0
 11
643.0162416153653
 21
-523.3114362914425
 31
0.0
  0
LINE
  5
2520A
  8
0
  6
BYBLOCK
 10
643.0162416153653
 20
-523.3114362914425
 30
0.0
 11
641.0162416153653
 21
-523.8473346714426
 31
0.0
  0
LINE
  5
2520B
  8
0
  6
BYBLOCK
 10
643.0162416153653
 20
-523.3114362914425
 30
0.0
 11
641.0162416153653
 21
-523.3114362914425
 31
0.0
  0
LINE
  5
2520C
  8
0
  6
BYBLOCK
 10
614.516241614577
 20
-523.8473346714426
 30
0.0
 11
612.516241614577
 21
-523.3114362914425
 31
0.0
  0
LINE
  5
2520D
  8
0
  6
BYBLOCK
 10
612.516241614577
 20
-523.3114362914425
 30
0.0
 11
614.516241614577
 21
-522.7755379114425
 31
0.0
  0
LINE
  5
2520E
  8
0
  6
BYBLOCK
 10
612.516241614577
 20
-523.3114362914425
 30
0.0
 11
614.516241614577
 21
-523.3114362914425
 31
0.0
  0
TEXT
  5
2520F
  8
1DIM
  6
CONTINUOUS
 10
622.8079082816378
 20
-522.6114362914426
 30
0.0
 40
3.5
  1
30.5
  0
LINE
  5
25210
  8
0
  6
BYBLOCK
 10
632.5162
 20
-674.9762535758674
 30
0.0
 11
634.5162
 21
-675.5121519558675
 31
0.0
  0
LINE
  5
25211
  8
0
  6
BYBLOCK
 10
634.5162
 20
-675.5121519558675
 30
0.0
 11
632.5162
 21
-676.0480503358675
 31
0.0
  0
LINE
  5
25212
  8
0
  6
BYBLOCK
 10
634.5162
 20
-675.5121519558675
 30
0.0
 11
632.5162
 21
-675.5121519558675
 31
0.0
  0
LINE
  5
25213
  8
0
  6
BYBLOCK
 10
620.5162
 20
-676.0480503358675
 30
0.0
 11
618.5162
 21
-675.5121519558675
 31
0.0
  0
LINE
  5
25214
  8
0
  6
BYBLOCK
 10
618.5162
 20
-675.5121519558675
 30
0.0
 11
620.5162
 21
-674.9762535758674
 31
0.0
  0
LINE
  5
25215
  8
0
  6
BYBLOCK
 10
618.5162
 20
-675.5121519558675
 30
0.0
 11
620.5162
 21
-675.5121519558675
 31
0.0
  0
TEXT
  5
25216
  8
1DIM
  6
CONTINUOUS
 10
622.4328666666667
 20
-674.8121519558674
 30
0.0
 40
3.5
  1
P16
  0
LINE
  5
25217
  8
0
  6
BYBLOCK
 10
190.5162
 20
-687.763007728579
 30
0.0
 11
184.5162
 21
-686.155312588579
 31
0.0
  0
LINE
  5
25218
  8
0
  6
BYBLOCK
 10
184.5162
 20
-686.155312588579
 30
0.0
 11
190.5162
 21
-684.547617448579
 31
0.0
  0
LINE
  5
25219
  8
0
  6
BYBLOCK
 10
184.5162
 20
-686.155312588579
 30
0.0
 11
190.5162
 21
-686.155312588579
 31
0.0
  0
LINE
  5
2521A
  8
0
  6
BYBLOCK
 10
612.5162
 20
-684.547617448579
 30
0.0
 11
618.5162
 21
-686.155312588579
 31
0.0
  0
LINE
  5
2521B
  8
0
  6
BYBLOCK
 10
618.5162
 20
-686.155312588579
 30
0.0
 11
612.5162
 21
-687.763007728579
 31
0.0
  0
LINE
  5
2521C
  8
0
  6
BYBLOCK
 10
618.5162
 20
-686.155312588579
 30
0.0
 11
612.5162
 21
-686.155312588579
 31
0.0
  0
TEXT
  5
2521D
  8
1DIM1
  6
CONTINUOUS
 10
387.5162
 20
-684.055312588579
 30
0.0
 40
10.5
  1
434
1001
ACAD
1000
DSTYLE
1002
{
1070
    70
1070
     0
1070
    69
1070
     0
1070
    40
1040
3.0
1002
}
  0
LINE
  5
2521E
  8
0
  6
BYBLOCK
 10
182.5162
 20
-709.9511784334852
 30
0.0
 11
176.5162
 21
-708.3434832934852
 31
0.0
  0
LINE
  5
2521F
  8
0
  6
BYBLOCK
 10
176.5162
 20
-708.3434832934852
 30
0.0
 11
182.5162
 21
-706.7357881534851
 31
0.0
  0
LINE
  5
25220
  8
0
  6
BYBLOCK
 10
176.5162
 20
-708.3434832934852
 30
0.0
 11
182.5162
 21
-708.3434832934852
 31
0.0
  0
LINE
  5
25221
  8
0
  6
BYBLOCK
 10
620.5162
 20
-706.7357881534851
 30
0.0
 11
626.5162
 21
-708.3434832934852
 31
0.0
  0
LINE
  5
25222
  8
0
  6
BYBLOCK
 10
626.5162
 20
-708.3434832934852
 30
0.0
 11
620.5162
 21
-709.9511784334852
 31
0.0
  0
LINE
  5
25223
  8
0
  6
BYBLOCK
 10
626.5162
 20
-708.3434832934852
 30
0.0
 11
620.5162
 21
-708.3434832934852
 31
0.0
  0
TEXT
  5
25224
  8
1DIM1
  6
CONTINUOUS
 10
382.8859916666667
 20
-706.2434832934852
 30
0.0
 40
10.5
  1
P450
1001
ACAD
1000
DSTYLE
1002
{
1070
    40
1040
3.0
1002
}
  0
LINE
  5
25225
  8
0
  6
BYBLOCK
 10
166.0161583846347
 20
-732.605225946712
 30
0.0
 11
160.0161583846347
 21
-730.997530806712
 31
0.0
  0
LINE
  5
25226
  8
0
  6
BYBLOCK
 10
160.0161583846347
 20
-730.997530806712
 30
0.0
 11
166.0161583846347
 21
-729.389835666712
 31
0.0
  0
LINE
  5
25227
  8
0
  6
BYBLOCK
 10
160.0161583846347
 20
-730.997530806712
 30
0.0
 11
166.0161583846347
 21
-730.997530806712
 31
0.0
  0
LINE
  5
25228
  8
0
  6
BYBLOCK
 10
637.0162416153652
 20
-729.389835666712
 30
0.0
 11
643.0162416153652
 21
-730.997530806712
 31
0.0
  0
LINE
  5
25229
  8
0
  6
BYBLOCK
 10
643.0162416153652
 20
-730.997530806712
 30
0.0
 11
637.0162416153652
 21
-732.605225946712
 31
0.0
  0
LINE
  5
2522A
  8
0
  6
BYBLOCK
 10
643.0162416153652
 20
-730.997530806712
 30
0.0
 11
637.0162416153652
 21
-730.997530806712
 31
0.0
  0
TEXT
  5
2522B
  8
1DIM1
  6
CONTINUOUS
 10
387.5161999999999
 20
-728.897530806712
 30
0.0
 40
10.5
  1
483
1001
ACAD
1000
DSTYLE
1002
{
1070
    70
1070
     0
1070
    69
1070
     0
1070
    40
1040
3.0
1002
}
  0
LINE
  5
2522C
  8
0
  6
BYBLOCK
 10
601.7253347314962
 20
-662.8213303512653
 30
0.0
 11
601.1894363514962
 21
-664.8213303512653
 31
0.0
  0
LINE
  5
2522D
  8
0
  6
BYBLOCK
 10
601.1894363514962
 20
-664.8213303512653
 30
0.0
 11
600.6535379714961
 21
-662.8213303512653
 31
0.0
  0
LINE
  5
2522E
  8
0
  6
BYBLOCK
 10
601.1894363514962
 20
-664.8213303512653
 30
0.0
 11
601.1894363514962
 21
-662.8213303512653
 31
0.0
  0
LINE
  5
2522F
  8
0
  6
BYBLOCK
 10
600.6535379714961
 20
-651.8213303512653
 30
0.0
 11
601.1894363514962
 21
-649.8213303512653
 31
0.0
  0
LINE
  5
25230
  8
0
  6
BYBLOCK
 10
601.1894363514962
 20
-649.8213303512653
 30
0.0
 11
601.7253347314962
 21
-651.8213303512653
 31
0.0
  0
LINE
  5
25231
  8
0
  6
BYBLOCK
 10
601.1894363514962
 20
-649.8213303512653
 30
0.0
 11
601.1894363514962
 21
-651.8213303512653
 31
0.0
  0
TEXT
  5
25232
  8
1DIM
  6
CONTINUOUS
 10
600.4894363514962
 20
-672.4379970179322
 30
0.0
 40
3.5
  1
15
 50
90.0
  0
LINE
  5
25233
  8
0
  6
BYBLOCK
 10
729.4439064104149
 20
-694.167070876661
 30
0.0
 11
731.4439064104149
 21
-694.702969256661
 31
0.0
  0
LINE
  5
25234
  8
0
  6
BYBLOCK
 10
731.4439064104149
 20
-694.702969256661
 30
0.0
 11
729.4439064104149
 21
-695.2388676366611
 31
0.0
  0
LINE
  5
25235
  8
0
  6
BYBLOCK
 10
731.4439064104149
 20
-694.702969256661
 30
0.0
 11
729.4439064104149
 21
-694.702969256661
 31
0.0
  0
LINE
  5
25236
  8
0
  6
BYBLOCK
 10
691.1439064104147
 20
-695.2388676366611
 30
0.0
 11
689.1439064104147
 21
-694.702969256661
 31
0.0
  0
LINE
  5
25237
  8
0
  6
BYBLOCK
 10
689.1439064104147
 20
-694.702969256661
 30
0.0
 11
691.1439064104147
 21
-694.167070876661
 31
0.0
  0
LINE
  5
25238
  8
0
  6
BYBLOCK
 10
689.1439064104147
 20
-694.702969256661
 30
0.0
 11
691.1439064104147
 21
-694.702969256661
 31
0.0
  0
TEXT
  5
25239
  8
1DIM
  6
CONTINUOUS
 10
705.0439064104148
 20
-694.0029692566611
 30
0.0
 40
3.5
  1
42.5
1001
ACAD
1000
DSTYLE
1002
{
1070
    45
1040
0.5
1002
}
  0
LINE
  5
2523A
  8
0
  6
BYBLOCK
 10
729.4439064104149
 20
-683.2323058296068
 30
0.0
 11
731.4439064104149
 21
-683.7682042096069
 31
0.0
  0
LINE
  5
2523B
  8
0
  6
BYBLOCK
 10
731.4439064104149
 20
-683.7682042096069
 30
0.0
 11
729.4439064104149
 21
-684.3041025896069
 31
0.0
  0
LINE
  5
2523C
  8
0
  6
BYBLOCK
 10
731.4439064104149
 20
-683.7682042096069
 30
0.0
 11
729.4439064104149
 21
-683.7682042096069
 31
0.0
  0
LINE
  5
2523D
  8
0
  6
BYBLOCK
 10
718.4438688762181
 20
-684.3041025896069
 30
0.0
 11
716.4438688762181
 21
-683.7682042096069
 31
0.0
  0
LINE
  5
2523E
  8
0
  6
BYBLOCK
 10
716.4438688762181
 20
-683.7682042096069
 30
0.0
 11
718.4438688762181
 21
-683.2323058296068
 31
0.0
  0
LINE
  5
2523F
  8
0
  6
BYBLOCK
 10
716.4438688762181
 20
-683.7682042096069
 30
0.0
 11
718.4438688762181
 21
-683.7682042096069
 31
0.0
  0
TEXT
  5
25240
  8
1DIM
  6
CONTINUOUS
 10
720.1105543099833
 20
-683.068204209607
 30
0.0
 40
3.5
  1
15
1001
ACAD
1000
DSTYLE
1002
{
1070
    45
1040
0.5
1002
}
  0
LINE
  5
25241
  8
0
 10
718.4438688762181
 20
-663.8213301771912
 30
0.0
 11
718.4438688762181
 21
-657.4713303512651
 31
0.0
  0
LINE
  5
25242
  8
0
 10
718.4438688762181
 20
-657.4713303512651
 30
0.0
 11
718.093868876218
 21
-657.1213303512652
 31
0.0
  0
LINE
  5
25243
  8
0
 10
718.093868876218
 20
-657.1213303512652
 30
0.0
 11
714.7938688762182
 21
-657.1213303512652
 31
0.0
  0
LINE
  5
25244
  8
0
 10
714.7938688762182
 20
-657.1213303512652
 30
0.0
 11
714.4438688762181
 21
-657.4713303512651
 31
0.0
  0
LINE
  5
25245
  8
0
 10
714.4438688762181
 20
-657.4713303512651
 30
0.0
 11
714.4438688762181
 21
-663.8213301771912
 31
0.0
  0
LINE
  5
25246
  8
0
 10
714.4438688762181
 20
-663.8213301771912
 30
0.0
 11
713.4438688762181
 21
-664.8213303412651
 31
0.0
  0
LINE
  5
25247
  8
0
 10
713.4438688762181
 20
-664.8213303412651
 30
0.0
 11
713.4438688762181
 21
-665.1213303512652
 31
0.0
  0
LINE
  5
25248
  8
0
 10
713.4438688762181
 20
-665.1213303512652
 30
0.0
 11
719.4438688762181
 21
-665.1213303512652
 31
0.0
  0
LINE
  5
25249
  8
0
 10
719.4438688762181
 20
-665.1213303512652
 30
0.0
 11
719.4438688762181
 21
-664.8213302512652
 31
0.0
  0
LINE
  5
2524A
  8
0
 10
719.4438688762181
 20
-664.8213302512652
 30
0.0
 11
718.4438688762181
 21
-663.8213301771912
 31
0.0
  0
LINE
  5
2524B
  8
0
 10
721.7939064104148
 20
-659.3213
 30
0.0
 11
746.4439064104148
 21
-659.3212999999998
 31
0.0
  0
LINE
  5
2524C
  8
0
 10
746.4439064104148
 20
-659.3212999999998
 30
0.0
 11
746.4439064104149
 21
-662.0713000000001
 31
0.0
  0
LINE
  5
2524D
  8
0
 10
746.4439064104149
 20
-662.0713000000001
 30
0.0
 11
747.4439064104149
 21
-662.0713
 31
0.0
  0
ARC
  5
2524E
  8
0
 10
740.6730730770814
 20
-657.3213000000001
 30
0.0
 40
8.270833333333439
 50
324.9488632525554
 51
35.05113674744624
  0
LINE
  5
2524F
  8
0
 10
747.4439064104148
 20
-652.5713
 30
0.0
 11
746.4439064104148
 21
-652.5712999999998
 31
0.0
  0
LINE
  5
25250
  8
0
 10
746.4439064104148
 20
-652.5712999999998
 30
0.0
 11
746.4439064104149
 21
-655.3212999999998
 31
0.0
  0
LINE
  5
25251
  8
0
 10
746.4439064104149
 20
-655.3212999999998
 30
0.0
 11
721.7939064104148
 21
-655.3213
 31
0.0
  0
LINE
  5
25252
  8
0
 10
721.7939064104148
 20
-655.3213
 30
0.0
 11
721.4439064104149
 21
-655.6713
 31
0.0
  0
LINE
  5
25253
  8
0
 10
721.4439064104149
 20
-655.6713
 30
0.0
 11
721.4439064104149
 21
-658.9712999999998
 31
0.0
  0
LINE
  5
25254
  8
0
 10
721.4439064104149
 20
-658.9712999999998
 30
0.0
 11
721.7939064104148
 21
-659.3213
 31
0.0
  0
LINE
  5
25255
  8
0
  6
BYBLOCK
 10
761.2950052747857
 20
-653.5212534643713
 30
0.0
 11
760.7591068947856
 21
-655.5212534643713
 31
0.0
  0
LINE
  5
25256
  8
0
  6
BYBLOCK
 10
760.7591068947856
 20
-655.5212534643713
 30
0.0
 11
760.2232085147856
 21
-653.5212534643713
 31
0.0
  0
LINE
  5
25257
  8
0
  6
BYBLOCK
 10
760.7591068947856
 20
-655.5212534643713
 30
0.0
 11
760.7591068947856
 21
-653.5212534643713
 31
0.0
  0
LINE
  5
25258
  8
0
  6
BYBLOCK
 10
760.2232085147856
 20
-651.5213303512653
 30
0.0
 11
760.7591068947856
 21
-649.5213303512653
 31
0.0
  0
LINE
  5
25259
  8
0
  6
BYBLOCK
 10
760.7591068947856
 20
-649.5213303512653
 30
0.0
 11
761.2950052747857
 21
-651.5213303512653
 31
0.0
  0
LINE
  5
2525A
  8
0
  6
BYBLOCK
 10
760.7591068947856
 20
-649.5213303512653
 30
0.0
 11
760.7591068947856
 21
-651.5213303512653
 31
0.0
  0
TEXT
  5
2525B
  8
1DIM
  6
CONTINUOUS
 10
760.0591068947856
 20
-653.6879585744849
 30
0.0
 40
3.5
  1
6
 50
90.0
  0
LINE
  5
2525C
  8
0
  6
BYBLOCK
 10
768.4403287297549
 20
-655.3213
 30
0.0
 11
767.9044303497549
 21
-657.3213
 31
0.0
  0
LINE
  5
2525D
  8
0
  6
BYBLOCK
 10
767.9044303497549
 20
-657.3213
 30
0.0
 11
767.3685319697548
 21
-655.3213
 31
0.0
  0
LINE
  5
2525E
  8
0
  6
BYBLOCK
 10
767.9044303497549
 20
-657.3213
 30
0.0
 11
767.9044303497549
 21
-655.3213
 31
0.0
  0
LINE
  5
2525F
  8
0
  6
BYBLOCK
 10
767.3685319697548
 20
-651.5213303512653
 30
0.0
 11
767.9044303497549
 21
-649.5213303512653
 31
0.0
  0
LINE
  5
25260
  8
0
  6
BYBLOCK
 10
767.9044303497549
 20
-649.5213303512653
 30
0.0
 11
768.4403287297549
 21
-651.5213303512653
 31
0.0
  0
LINE
  5
25261
  8
0
  6
BYBLOCK
 10
767.9044303497549
 20
-649.5213303512653
 30
0.0
 11
767.9044303497549
 21
-651.5213303512653
 31
0.0
  0
TEXT
  5
25262
  8
1DIM
  6
CONTINUOUS
 10
767.2044303497548
 20
-654.5879818422992
 30
0.0
 40
3.5
  1
8
 50
90.0
1001
ACAD
1000
DSTYLE
1002
{
1070
    45
1040
0.5
1002
}
  0
LINE
  5
25263
  8
0
  6
BYBLOCK
 10
778.4563396690469
 20
-663.1213303512652
 30
0.0
 11
777.9204412890468
 21
-665.1213303512652
 31
0.0
  0
LINE
  5
25264
  8
0
  6
BYBLOCK
 10
777.9204412890468
 20
-665.1213303512652
 30
0.0
 11
777.3845429090468
 21
-663.1213303512652
 31
0.0
  0
LINE
  5
25265
  8
0
  6
BYBLOCK
 10
777.9204412890468
 20
-665.1213303512652
 30
0.0
 11
777.9204412890468
 21
-663.1213303512652
 31
0.0
  0
LINE
  5
25266
  8
0
  6
BYBLOCK
 10
777.3845429090468
 20
-651.5213303512653
 30
0.0
 11
777.9204412890468
 21
-649.5213303512653
 31
0.0
  0
LINE
  5
25267
  8
0
  6
BYBLOCK
 10
777.9204412890468
 20
-649.5213303512653
 30
0.0
 11
778.4563396690469
 21
-651.5213303512653
 31
0.0
  0
LINE
  5
25268
  8
0
  6
BYBLOCK
 10
777.9204412890468
 20
-649.5213303512653
 30
0.0
 11
777.9204412890468
 21
-651.5213303512653
 31
0.0
  0
TEXT
  5
25269
  8
1DIM
  6
CONTINUOUS
 10
777.2204412890467
 20
-662.0001497957098
 30
0.0
 40
3.5
  1
15.5
 50
90.0
1001
ACAD
1000
DSTYLE
1002
{
1070
    45
1040
0.5
1002
}
  0
LINE
  5
2526A
  8
0
 10
628.5162416153645
 20
-556.3233414792016
 30
0.0
 11
628.5162416153644
 21
-531.6733414792016
 31
0.0
  0
LINE
  5
2526B
  8
0
 10
628.5162416153644
 20
-531.6733414792016
 30
0.0
 11
631.2662416153646
 21
-531.6733414792016
 31
0.0
  0
LINE
  5
2526C
  8
0
 10
631.2662416153646
 20
-531.6733414792016
 30
0.0
 11
631.2662416153645
 21
-530.6733414792016
 31
0.0
  0
ARC
  5
2526D
  8
0
 10
626.5162416153646
 20
-537.444174812535
 30
0.0
 40
8.270833333333439
 50
54.94886325255551
 51
125.0511367474463
  0
LINE
  5
2526E
  8
0
 10
621.7662416153645
 20
-530.6733414792018
 30
0.0
 11
621.7662416153644
 21
-531.6733414792017
 31
0.0
  0
LINE
  5
2526F
  8
0
 10
621.7662416153644
 20
-531.6733414792017
 30
0.0
 11
624.5162416153644
 21
-531.6733414792016
 31
0.0
  0
LINE
  5
25270
  8
0
 10
624.5162416153644
 20
-531.6733414792016
 30
0.0
 11
624.5162416153645
 21
-556.3233414792016
 31
0.0
  0
LINE
  5
25271
  8
0
 10
624.5162416153645
 20
-556.3233414792016
 30
0.0
 11
624.8662416153645
 21
-556.6733414792016
 31
0.0
  0
LINE
  5
25272
  8
0
 10
624.8662416153645
 20
-556.6733414792016
 30
0.0
 11
628.1662416153644
 21
-556.6733414792016
 31
0.0
  0
LINE
  5
25273
  8
0
 10
628.1662416153644
 20
-556.6733414792016
 30
0.0
 11
628.5162416153645
 21
-556.3233414792016
 31
0.0
  0
LINE
  5
25274
  8
0
 10
174.5161583846356
 20
-531.6733414792018
 30
0.0
 11
174.5161583846356
 21
-556.3233414792016
 31
0.0
  0
LINE
  5
25275
  8
0
 10
174.5161583846356
 20
-556.3233414792016
 30
0.0
 11
174.8661583846357
 21
-556.6733414792018
 31
0.0
  0
LINE
  5
25276
  8
0
 10
174.8661583846357
 20
-556.6733414792018
 30
0.0
 11
178.1661583846355
 21
-556.6733414792018
 31
0.0
  0
LINE
  5
25277
  8
0
 10
178.1661583846355
 20
-556.6733414792018
 30
0.0
 11
178.5161583846356
 21
-556.3233414792016
 31
0.0
  0
LINE
  5
25278
  8
0
 10
178.5161583846356
 20
-556.3233414792016
 30
0.0
 11
178.5161583846357
 21
-531.6733414792018
 31
0.0
  0
LINE
  5
25279
  8
0
 10
178.5161583846357
 20
-531.6733414792018
 30
0.0
 11
181.2661583846356
 21
-531.6733414792018
 31
0.0
  0
LINE
  5
2527A
  8
0
 10
181.2661583846356
 20
-531.6733414792018
 30
0.0
 11
181.2661583846356
 21
-530.6733414792018
 31
0.0
  0
ARC
  5
2527B
  8
0
 10
176.5161583846354
 20
-537.4441748125353
 30
0.0
 40
8.270833333333439
 50
54.94886325255423
 51
125.051136747444
  0
LINE
  5
2527C
  8
0
 10
171.7661583846356
 20
-530.6733414792017
 30
0.0
 11
171.7661583846355
 21
-531.6733414792017
 31
0.0
  0
LINE
  5
2527D
  8
0
 10
171.7661583846355
 20
-531.6733414792017
 30
0.0
 11
174.5161583846356
 21
-531.6733414792018
 31
0.0
  0
LINE
  5
2527E
  8
0
  6
BYBLOCK
 10
601.7253347314962
 20
-589.6733632265018
 30
0.0
 11
601.1894363514962
 21
-591.6733632265018
 31
0.0
  0
LINE
  5
2527F
  8
0
  6
BYBLOCK
 10
601.1894363514962
 20
-591.6733632265018
 30
0.0
 11
600.6535379714961
 21
-589.6733632265018
 31
0.0
  0
LINE
  5
25280
  8
0
  6
BYBLOCK
 10
601.1894363514962
 20
-591.6733632265018
 30
0.0
 11
601.1894363514962
 21
-589.6733632265018
 31
0.0
  0
LINE
  5
25281
  8
0
  6
BYBLOCK
 10
600.6535379714961
 20
-577.6733632265018
 30
0.0
 11
601.1894363514962
 21
-575.6733632265018
 31
0.0
  0
LINE
  5
25282
  8
0
  6
BYBLOCK
 10
601.1894363514962
 20
-575.6733632265018
 30
0.0
 11
601.7253347314962
 21
-577.6733632265018
 31
0.0
  0
LINE
  5
25283
  8
0
  6
BYBLOCK
 10
601.1894363514962
 20
-575.6733632265018
 30
0.0
 11
601.1894363514962
 21
-577.6733632265018
 31
0.0
  0
TEXT
  5
25284
  8
1DIM
  6
CONTINUOUS
 10
600.4894363514961
 20
-599.2900298931687
 30
0.0
 40
3.5
  1
16
 50
90.0
  0
LINE
  5
25285
  8
0
  6
BYBLOCK
 10
744.4439064104149
 20
-609.3540123952288
 30
0.0
 11
746.4439064104149
 21
-609.8899107752288
 31
0.0
  0
LINE
  5
25286
  8
0
  6
BYBLOCK
 10
746.4439064104149
 20
-609.8899107752288
 30
0.0
 11
744.4439064104149
 21
-610.4258091552289
 31
0.0
  0
LINE
  5
25287
  8
0
  6
BYBLOCK
 10
746.4439064104149
 20
-609.8899107752288
 30
0.0
 11
744.4439064104149
 21
-609.8899107752288
 31
0.0
  0
LINE
  5
25288
  8
0
  6
BYBLOCK
 10
733.4439064104149
 20
-610.4258091552289
 30
0.0
 11
731.4439064104149
 21
-609.8899107752288
 31
0.0
  0
LINE
  5
25289
  8
0
  6
BYBLOCK
 10
731.4439064104149
 20
-609.8899107752288
 30
0.0
 11
733.4439064104149
 21
-609.3540123952288
 31
0.0
  0
LINE
  5
2528A
  8
0
  6
BYBLOCK
 10
731.4439064104149
 20
-609.8899107752288
 30
0.0
 11
733.4439064104149
 21
-609.8899107752288
 31
0.0
  0
TEXT
  5
2528B
  8
1DIM
  6
CONTINUOUS
 10
696.0484202993038
 20
-609.1899107752289
 30
0.0
 40
3.5
  1
扉厚15～21mm
1001
ACAD
1000
DSTYLE
1002
{
1070
    70
1070
     0
1070
    69
1070
     0
1002
}
  0
LINE
  5
2528C
  8
0
 10
742.4439064103608
 20
-655.5213000002692
 30
0.0
 11
737.1439099004999
 21
-654.0213000002692
 31
0.0
  0
LINE
  5
2528D
  8
0
 10
737.1439099004999
 20
-654.0213000002692
 30
0.0
 11
727.4439099006073
 21
-654.0213000002695
 31
0.0
  0
LINE
  5
2528E
  8
0
 10
727.4439099006073
 20
-654.0213000002695
 30
0.0
 11
727.4439145543054
 21
-652.0212534643714
 31
0.0
  0
LINE
  5
2528F
  8
0
 10
727.4439145543054
 20
-652.0212534643714
 30
0.0
 11
726.3439110641101
 21
-652.0212534643713
 31
0.0
  0
ARC
  5
25290
  8
0
 10
726.3439110641101
 20
-653.5212534643713
 30
0.0
 40
1.5
 50
90.0
 51
179.9998666844706
  0
LINE
  5
25291
  8
0
 10
724.8439110641141
 20
-653.5212499741789
 30
0.0
 11
724.8439017569345
 21
-657.5212499741789
 31
0.0
  0
ARC
  5
25292
  8
0
 10
726.3439017569304
 20
-657.5212534643713
 30
0.0
 40
1.5
 50
179.9998666844706
 51
270.0
  0
LINE
  5
25293
  8
0
 10
726.3439017569304
 20
-659.0212534643713
 30
0.0
 11
727.4438982667411
 21
-659.0212534643713
 31
0.0
  0
LINE
  5
25294
  8
0
 10
727.4438982667411
 20
-659.0212534643713
 30
0.0
 11
727.4439029202226
 21
-657.021300000269
 31
0.0
  0
LINE
  5
25295
  8
0
 10
727.4439029202226
 20
-657.021300000269
 30
0.0
 11
737.1439029201154
 21
-657.0213000002692
 31
0.0
  0
LINE
  5
25296
  8
0
 10
737.1439029201154
 20
-657.0213000002692
 30
0.0
 11
742.4439064103608
 21
-655.5213000002692
 31
0.0
  0
LINE
  5
25297
  8
0
 10
634.5162416156337
 20
-538.6733414792557
 30
0.0
 11
633.0162416156337
 21
-543.9733379891165
 31
0.0
  0
LINE
  5
25298
  8
0
 10
633.0162416156337
 20
-543.9733379891165
 30
0.0
 11
633.016241615634
 21
-553.6733379890092
 31
0.0
  0
LINE
  5
25299
  8
0
 10
633.016241615634
 20
-553.6733379890092
 30
0.0
 11
631.0161950797359
 21
-553.6733333353111
 31
0.0
  0
LINE
  5
2529A
  8
0
 10
631.0161950797359
 20
-553.6733333353111
 30
0.0
 11
631.0161950797358
 21
-554.7733368255064
 31
0.0
  0
ARC
  5
2529B
  8
0
 10
632.5161950797358
 20
-554.7733368255064
 30
0.0
 40
1.5
 50
180.0
 51
269.9998666844705
  0
LINE
  5
2529C
  8
0
 10
632.5161915895434
 20
-556.2733368255024
 30
0.0
 11
636.5161915895434
 21
-556.2733461326819
 31
0.0
  0
ARC
  5
2529D
  8
0
 10
636.5161950797358
 20
-554.773346132686
 30
0.0
 40
1.5
 50
269.9998666844705
 51
0.0
  0
LINE
  5
2529E
  8
0
 10
638.0161950797358
 20
-554.773346132686
 30
0.0
 11
638.0161950797358
 21
-553.6733496228753
 31
0.0
  0
LINE
  5
2529F
  8
0
 10
638.0161950797358
 20
-553.6733496228753
 30
0.0
 11
636.0162416156335
 21
-553.6733449693938
 31
0.0
  0
LINE
  5
252A0
  8
0
 10
636.0162416156335
 20
-553.6733449693938
 30
0.0
 11
636.0162416156337
 21
-543.9733449695012
 31
0.0
  0
LINE
  5
252A1
  8
0
 10
636.0162416156337
 20
-543.9733449695012
 30
0.0
 11
634.5162416156337
 21
-538.6733414792557
 31
0.0
  0
LINE
  5
252A2
  8
0
 10
618.5162416156337
 20
-538.6733414792557
 30
0.0
 11
617.0162416156337
 21
-543.9733379891165
 31
0.0
  0
LINE
  5
252A3
  8
0
 10
617.0162416156337
 20
-543.9733379891165
 30
0.0
 11
617.016241615634
 21
-553.6733379890092
 31
0.0
  0
LINE
  5
252A4
  8
0
 10
617.016241615634
 20
-553.6733379890092
 30
0.0
 11
615.0161950797359
 21
-553.6733333353111
 31
0.0
  0
LINE
  5
252A5
  8
0
 10
615.0161950797359
 20
-553.6733333353111
 30
0.0
 11
615.0161950797358
 21
-554.7733368255064
 31
0.0
  0
ARC
  5
252A6
  8
0
 10
616.5161950797358
 20
-554.7733368255064
 30
0.0
 40
1.5
 50
180.0
 51
269.9998666844705
  0
LINE
  5
252A7
  8
0
 10
616.5161915895434
 20
-556.2733368255024
 30
0.0
 11
620.5161915895434
 21
-556.2733461326819
 31
0.0
  0
ARC
  5
252A8
  8
0
 10
620.5161950797358
 20
-554.773346132686
 30
0.0
 40
1.5
 50
269.9998666844705
 51
0.0
  0
LINE
  5
252A9
  8
0
 10
622.0161950797358
 20
-554.773346132686
 30
0.0
 11
622.0161950797358
 21
-553.6733496228753
 31
0.0
  0
LINE
  5
252AA
  8
0
 10
622.0161950797358
 20
-553.6733496228753
 30
0.0
 11
620.0162416156335
 21
-553.6733449693938
 31
0.0
  0
LINE
  5
252AB
  8
0
 10
620.0162416156335
 20
-553.6733449693938
 30
0.0
 11
620.0162416156337
 21
-543.9733449695012
 31
0.0
  0
LINE
  5
252AC
  8
0
 10
620.0162416156337
 20
-543.9733449695012
 30
0.0
 11
618.5162416156337
 21
-538.6733414792557
 31
0.0
  0
LINE
  5
252AD
  8
0
 10
184.5161583849033
 20
-538.6733414792558
 30
0.0
 11
183.0161583849033
 21
-543.9733379891165
 31
0.0
  0
LINE
  5
252AE
  8
0
 10
183.0161583849033
 20
-543.9733379891165
 30
0.0
 11
183.0161583849036
 21
-553.6733379890093
 31
0.0
  0
LINE
  5
252AF
  8
0
 10
183.0161583849036
 20
-553.6733379890093
 30
0.0
 11
181.0161118490055
 21
-553.6733333353112
 31
0.0
  0
LINE
  5
252B0
  8
0
 10
181.0161118490055
 20
-553.6733333353112
 30
0.0
 11
181.0161118490054
 21
-554.7733368255065
 31
0.0
  0
ARC
  5
252B1
  8
0
 10
182.5161118490054
 20
-554.7733368255065
 30
0.0
 40
1.5
 50
180.0
 51
269.9998666844705
  0
LINE
  5
252B2
  8
0
 10
182.516108358813
 20
-556.2733368255025
 30
0.0
 11
186.516108358813
 21
-556.273346132682
 31
0.0
  0
ARC
  5
252B3
  8
0
 10
186.5161118490054
 20
-554.7733461326861
 30
0.0
 40
1.5
 50
269.9998666844705
 51
0.0
  0
LINE
  5
252B4
  8
0
 10
188.0161118490054
 20
-554.7733461326861
 30
0.0
 11
188.0161118490054
 21
-553.6733496228754
 31
0.0
  0
LINE
  5
252B5
  8
0
 10
188.0161118490054
 20
-553.6733496228754
 30
0.0
 11
186.0161583849031
 21
-553.673344969394
 31
0.0
  0
LINE
  5
252B6
  8
0
 10
186.0161583849031
 20
-553.673344969394
 30
0.0
 11
186.0161583849033
 21
-543.9733449695013
 31
0.0
  0
LINE
  5
252B7
  8
0
 10
186.0161583849033
 20
-543.9733449695013
 30
0.0
 11
184.5161583849033
 21
-538.6733414792558
 31
0.0
  0
LINE
  5
252B8
  8
0
 10
168.5161583849033
 20
-538.6733414792558
 30
0.0
 11
167.0161583849033
 21
-543.9733379891165
 31
0.0
  0
LINE
  5
252B9
  8
0
 10
167.0161583849033
 20
-543.9733379891165
 30
0.0
 11
167.0161583849036
 21
-553.6733379890093
 31
0.0
  0
LINE
  5
252BA
  8
0
 10
167.0161583849036
 20
-553.6733379890093
 30
0.0
 11
165.0161118490055
 21
-553.6733333353112
 31
0.0
  0
LINE
  5
252BB
  8
0
 10
165.0161118490055
 20
-553.6733333353112
 30
0.0
 11
165.0161118490054
 21
-554.7733368255065
 31
0.0
  0
ARC
  5
252BC
  8
0
 10
166.5161118490054
 20
-554.7733368255065
 30
0.0
 40
1.5
 50
180.0
 51
269.9998666844705
  0
LINE
  5
252BD
  8
0
 10
166.516108358813
 20
-556.2733368255025
 30
0.0
 11
170.516108358813
 21
-556.273346132682
 31
0.0
  0
ARC
  5
252BE
  8
0
 10
170.5161118490054
 20
-554.7733461326861
 30
0.0
 40
1.5
 50
269.9998666844705
 51
0.0
  0
LINE
  5
252BF
  8
0
 10
172.0161118490054
 20
-554.7733461326861
 30
0.0
 11
172.0161118490054
 21
-553.6733496228754
 31
0.0
  0
LINE
  5
252C0
  8
0
 10
172.0161118490054
 20
-553.6733496228754
 30
0.0
 11
170.0161583849031
 21
-553.673344969394
 31
0.0
  0
LINE
  5
252C1
  8
0
 10
170.0161583849031
 20
-553.673344969394
 30
0.0
 11
170.0161583849033
 21
-543.9733449695013
 31
0.0
  0
LINE
  5
252C2
  8
0
 10
170.0161583849033
 20
-543.9733449695013
 30
0.0
 11
168.5161583849033
 21
-538.6733414792558
 31
0.0
  0
VIEWPORT
  5
57
 67
     1
  8
0
 10
0.0
 20
0.0
 30
0.0
 40
522.4048442906575
 41
297.0
 68
     1
 69
     1
1001
ACAD
1000
MVIEW
1002
{
1070
    16
1010
0.0
1020
0.0
1030
0.0
1010
0.0
1020
0.0
1030
1.0
1040
0.0
1040
297.0
1040
-4.171999999925333
1040
12.83903210976956
1040
50.0
1040
0.0
1040
0.0
1070
    16
1070
   100
1070
     0
1070
     1
1070
     0
1070
     0
1070
     0
1070
     0
1040
0.0
1040
0.0
1040
0.0
1040
10.0
1040
10.0
1040
10.0
1040
10.0
1070
     0
1002
{
1002
}
1002
}
  0
ENDSEC
  0
EOF
