  0
SECTION
  2
HEADER
  9
$ACADVER
  1
AC1009
  9
$DWGCODEPAGE
  3
ansi_932
  9
$INSBASE
 10
0.0
 20
0.0
 30
0.0
  9
$EXTMIN
 10
-1548.515576594107
 20
5779.138808161029
 30
0.0
  9
$EXTMAX
 10
-1395.675832305521
 20
5889.957701790668
 30
0.0
  9
$LIMMIN
 10
0.0
 20
0.0
  9
$LIMMAX
 10
420.0
 20
297.0
  9
$ORTHOMODE
 70
     0
  9
$REGENMODE
 70
     1
  9
$FILLMODE
 70
     1
  9
$QTEXTMODE
 70
     0
  9
$MIRRTEXT
 70
     0
  9
$DRAGMODE
 70
     2
  9
$LTSCALE
 40
0.5
  9
$OSMODE
 70
   951
  9
$ATTMODE
 70
     1
  9
$TEXTSIZE
 40
2.0
  9
$TRACEWID
 40
1.0
  9
$TEXTSTYLE
  7
STANDARD
  9
$CLAYER
  8
1TEXT
  9
$CELTYPE
  6
BYLAYER
  9
$CECOLOR
 62
   256
  9
$DIMSCALE
 40
1.0
  9
$DIMASZ
 40
2.0
  9
$DIMEXO
 40
0.0
  9
$DIMDLI
 40
7.0
  9
$DIMRND
 40
0.0
  9
$DIMDLE
 40
0.0
  9
$DIMEXE
 40
1.0
  9
$DIMTP
 40
0.0
  9
$DIMTM
 40
0.0
  9
$DIMTXT
 40
3.5
  9
$DIMCEN
 40
0.0
  9
$DIMTSZ
 40
0.0
  9
$DIMTOL
 70
     0
  9
$DIMLIM
 70
     0
  9
$DIMTIH
 70
     0
  9
$DIMTOH
 70
     0
  9
$DIMSE1
 70
     0
  9
$DIMSE2
 70
     0
  9
$DIMTAD
 70
     1
  9
$DIMZIN
 70
     8
  9
$DIMBLK
  1

  9
$DIMASO
 70
     1
  9
$DIMSHO
 70
     1
  9
$DIMPOST
  1
 
  9
$DIMAPOST
  1

  9
$DIMALT
 70
     0
  9
$DIMALTD
 70
     2
  9
$DIMALTF
 40
25.4
  9
$DIMLFAC
 40
1.0
  9
$DIMTOFL
 70
     1
  9
$DIMTVP
 40
0.0
  9
$DIMTIX
 70
     0
  9
$DIMSOXD
 70
     0
  9
$DIMSAH
 70
     1
  9
$DIMBLK1
  1
OPEN30
  9
$DIMBLK2
  1
OPEN30
  9
$DIMSTYLE
  2
NEWX10
  9
$DIMCLRD
 70
   256
  9
$DIMCLRE
 70
   256
  9
$DIMCLRT
 70
   201
  9
$DIMTFAC
 40
0.7
  9
$DIMGAP
 40
0.7
  9
$LUNITS
 70
     2
  9
$LUPREC
 70
     4
  9
$SKETCHINC
 40
1.0
  9
$FILLETRAD
 40
0.3
  9
$AUNITS
 70
     0
  9
$AUPREC
 70
     2
  9
$MENU
  1
acad
  9
$ELEVATION
 40
0.0
  9
$PELEVATION
 40
0.0
  9
$THICKNESS
 40
0.0
  9
$LIMCHECK
 70
     0
  9
$CHAMFERA
 40
1.0
  9
$CHAMFERB
 40
1.0
  9
$SKPOLY
 70
     0
  9
$TDCREATE
 40
2459282.729709236
  9
$TDUPDATE
 40
2460770.636614549
  9
$TDINDWG
 40
0.0328668287
  9
$TDUSRTIMER
 40
0.0328668287
  9
$USRTIMER
 70
     1
  9
$ANGBASE
 50
0.0
  9
$ANGDIR
 70
     0
  9
$PDMODE
 70
     0
  9
$PDSIZE
 40
0.0
  9
$PLINEWID
 40
0.0
  9
$COORDS
 70
     1
  9
$SPLFRAME
 70
     0
  9
$SPLINETYPE
 70
     6
  9
$SPLINESEGS
 70
     8
  9
$ATTDIA
 70
     0
  9
$ATTREQ
 70
     1
  9
$HANDLING
 70
     1
  9
$HANDSEED
  5
DE502
  9
$SURFTAB1
 70
     6
  9
$SURFTAB2
 70
     6
  9
$SURFTYPE
 70
     6
  9
$SURFU
 70
     6
  9
$SURFV
 70
     6
  9
$UCSNAME
  2

  9
$UCSORG
 10
0.0
 20
0.0
 30
0.0
  9
$UCSXDIR
 10
1.0
 20
0.0
 30
0.0
  9
$UCSYDIR
 10
0.0
 20
1.0
 30
0.0
  9
$PUCSNAME
  2

  9
$PUCSORG
 10
0.0
 20
0.0
 30
0.0
  9
$PUCSXDIR
 10
1.0
 20
0.0
 30
0.0
  9
$PUCSYDIR
 10
0.0
 20
1.0
 30
0.0
  9
$USERI1
 70
     0
  9
$USERI2
 70
     0
  9
$USERI3
 70
     0
  9
$USERI4
 70
     0
  9
$USERI5
 70
     0
  9
$USERR1
 40
0.0
  9
$USERR2
 40
0.0
  9
$USERR3
 40
0.0
  9
$USERR4
 40
0.0
  9
$USERR5
 40
4.5
  9
$WORLDVIEW
 70
     1
  9
$SHADEDGE
 70
     1
  9
$SHADEDIF
 70
    70
  9
$TILEMODE
 70
     1
  9
$MAXACTVP
 70
    48
  9
$PLIMCHECK
 70
     0
  9
$PEXTMIN
 10
1.000000000000000E+20
 20
1.000000000000000E+20
 30
1.000000000000000E+20
  9
$PEXTMAX
 10
-1.000000000000000E+20
 20
-1.000000000000000E+20
 30
-1.000000000000000E+20
  9
$PLIMMIN
 10
-20.0
 20
-7.5
  9
$PLIMMAX
 10
277.0
 20
202.5
  9
$UNITMODE
 70
     0
  9
$VISRETAIN
 70
     1
  9
$PLINEGEN
 70
     0
  9
$PSLTSCALE
 70
     1
  0
ENDSEC
  0
SECTION
  2
TABLES
  0
TABLE
  2
VPORT
 70
     1
  0
VPORT
  2
*ACTIVE
 70
     0
 10
0.0
 20
0.0
 11
1.0
 21
1.0
 12
-12533.75624944981
 22
-1652.035394024151
 13
0.0
 23
0.0
 14
10.0
 24
10.0
 15
10.0
 25
10.0
 16
0.0
 26
0.0
 36
1.0
 17
11061.660545
 27
7486.583649
 37
474.311593
 40
118.984496318138
 41
2.144495412844037
 42
50.0
 43
0.0
 44
0.0
 50
0.0
 51
0.0
 71
    16
 72
    20
 73
     1
 74
     1
 75
     0
 76
     0
 77
     0
 78
     0
  0
ENDTAB
  0
TABLE
  2
LTYPE
 70
    15
  0
LTYPE
  2
CONTINUOUS
 70
     0
  3
Solid line
 72
    65
 73
     0
 40
0.0
  0
LTYPE
  2
CENTER2
 70
     0
  3
Center (.5x) ___ _ ___ _ ___ _ ___ _ ___ _ ___
 72
    65
 73
     4
 40
28.575
 49
19.05
 49
-3.175
 49
3.175
 49
-3.175
  0
ENDTAB
  0
TABLE
  2
LAYER
 70
    64
  0
LAYER
  2
0
 70
     0
 62
     7
  6
CONTINUOUS
  0
LAYER
  2
01
 70
     0
 62
     1
  6
CONTINUOUS
  0
LAYER
  2
1CENTER
 70
     0
 62
     7
  6
CENTER2
  0
LAYER
  2
1DIM
 70
     0
 62
     7
  6
CONTINUOUS
  0
LAYER
  2
1TEXT
 70
     0
 62
     7
  6
CONTINUOUS
  0
LAYER
  2
1HATCH
 70
     0
 62
     7
  6
CONTINUOUS
  0
ENDTAB
  0
TABLE
  2
STYLE
 70
    36
  0
STYLE
  2
STANDARD
 70
     0
 40
0.0
 41
1.0
 50
0.0
 71
     0
 42
2.0
  3
txt.shx
  4
extfont.shx
  0
STYLE
  2
MAKER
 70
     0
 40
0.0
 41
1.0
 50
0.0
 71
     0
 42
4.0
  3
meiryo.ttc
  4

  0
STYLE
  2
STANDARD06
 70
     0
 40
0.0
 41
0.6
 50
0.0
 71
     0
 42
2.0
  3
romans.shx
  4
extfont2.shx
  0
STYLE
  2
STD
 70
     0
 40
0.0
 41
1.0
 50
0.0
 71
     0
 42
2.0
  3
TXT.shx
  4
bigfont.shx
  0
ENDTAB
  0
TABLE
  2
VIEW
 70
     0
  0
ENDTAB
  0
TABLE
  2
UCS
 70
     5
  0
UCS
  2
U
 70
     0
 10
0.0
 20
0.0
 30
0.0
 11
1.0
 21
0.0
 31
0.0
 12
0.0
 22
2.000000000000000E-16
 32
1.0
  0
UCS
  2
L
 70
     0
 10
0.0
 20
0.0
 30
0.0
 11
-2.000000000000000E-16
 21
-1.0
 31
2.000000000000000E-16
 12
0.0
 22
2.000000000000000E-16
 32
1.0
  0
UCS
  2
R
 70
     0
 10
0.0
 20
0.0
 30
0.0
 11
3.000000000000000E-16
 21
1.0
 31
-2.000000000000000E-16
 12
0.0
 22
2.000000000000000E-16
 32
1.0
  0
UCS
  2
ISOME
 70
     0
 10
0.0
 20
0.0
 30
0.0
 11
0.7071450863198266
 21
-0.7070684729403536
 31
-3.830824619470000E-5
 12
0.4082704059428736
 22
0.408270407740115
 32
0.8164744636514736
  0
UCS
  2
PERSPECTIVE
 70
     0
 10
0.0
 20
0.0
 30
0.0
 11
0.8191477691768962
 21
-0.5735823260466403
 31
-0.0004974931557765
 12
0.1584844715982971
 22
0.225502028986108
 32
0.9612655757829659
  0
ENDTAB
  0
TABLE
  2
APPID
 70
    37
  0
APPID
  2
ACAD
 70
     0
  0
APPID
  2
CONTENTTABDATA
 70
     0
  0
APPID
  2
CONTENTCURRENTTAB
 70
     0
  0
APPID
  2
CONTENTBLOCKICON
 70
     0
  0
APPID
  2
CONTENTBLOCKDESCRIPTION
 70
     0
  0
APPID
  2
DRAWINGVARIABLESXDATA
 70
     0
  0
APPID
  2
CONTENTLONGBLOCKNAME
 70
     0
  0
APPID
  2
ACAD_PSEXT
 70
     0
  0
APPID
  2
ACAD_MLEADERVER
 70
     0
  0
APPID
  2
ACAD_DSTYLE_DIMRADIAL_EXTE
 70
     0
  0
APPID
  2
ACDBBLOCKREPETAG
 70
     0
  0
APPID
  2
ACDBDYNAMICBLOCKTRUENAME
 70
     0
  0
APPID
  2
ACDBDYNAMICBLOCKGUID
 70
     0
  0
APPID
  2
ACDBBLOCKREPBTAG
 70
     0
  0
APPID
  2
ACADANNOTATIVE
 70
     0
  0
APPID
  2
ACAUTHENVIRON
 70
     0
  0
APPID
  2
ACADANNOPO
 70
     0
  0
APPID
  2
ACLAYERTOOLS
 70
     0
  0
APPID
  2
ACAD_EXEMPT_FROM_CAD_STAND
 70
     0
  0
APPID
  2
ACAECLAYERSTANDARD
 70
     0
  0
APPID
  2
ACAD_DSTYLE_DIMJOGGED_JOGA
 70
     0
  0
APPID
  2
ACAD_DSTYLE_DIM_LINETYPE
 70
     0
  0
APPID
  2
ACAD_DSTYLE_DIM_EXT1_LINET
 70
     0
  0
APPID
  2
ACAD_DSTYLE_DIM_EXT2_LINET
 70
     0
  0
APPID
  2
ACAD_DIMASSOC_CALC_DIMLFAC
 70
     0
  0
APPID
  2
ACAD_DIMASSOC_DIMLFAC
 70
     0
  0
APPID
  2
ACAD_DIMASSOC_OVERRIDDEN_D
 70
     0
  0
APPID
  2
ACAD_NAV_VCDISPLAY
 70
     0
  0
APPID
  2
ACAD_OBJECT_CHANGE_GUID
 70
     0
  0
APPID
  2
ACADANNOTATIVEDECOMPOSITIO
 70
     0
  0
APPID
  2
ACAD_DSTYLE_DIMJAG
 70
     0
  0
APPID
  2
ACAD_DSTYLE_DIMTALN
 70
     0
  0
APPID
  2
ACADSTRINGINFO
 70
     0
  0
APPID
  2
GRADIENTCOLOR1ACI
 70
     0
  0
APPID
  2
GRADIENTCOLOR2ACI
 70
     0
  0
APPID
  2
ASKOBJSC
 70
     0
  0
APPID
  2
ASKDWGSC
 70
     0
  0
ENDTAB
  0
TABLE
  2
DIMSTYLE
 70
     6
  0
DIMSTYLE
  2
NEWX10
 70
     0
  3
 
  4

  5

  6
OPEN30
  7
OPEN30
 40
1.0
 41
2.0
 42
0.0
 43
7.0
 44
1.0
 45
0.0
 46
0.0
 47
0.0
 48
0.0
140
3.5
141
0.0
142
0.0
143
25.4
144
1.0
145
0.0
146
0.7
147
0.7
 71
     0
 72
     0
 73
     0
 74
     0
 75
     0
 76
     0
 77
     1
 78
     8
170
     0
171
     2
172
     1
173
     1
174
     0
175
     0
176
   256
177
   256
178
   201
  0
DIMSTYLE
  2
ISO-25
 70
     0
  3

  4

  5

  6

  7

 40
1.0
 41
20.0
 42
3.0
 43
3.75
 44
2.0
 45
0.0
 46
0.0
 47
0.0
 48
0.0
140
30.0
141
5.0
142
0.0
143
0.03937
144
1.0
145
0.0
146
1.0
147
8.0
 71
     0
 72
     0
 73
     0
 74
     0
 75
     0
 76
     0
 77
     1
 78
     8
170
     0
171
     3
172
     1
173
     0
174
     0
175
     0
176
     1
177
     1
178
     1
  0
ENDTAB
  0
ENDSEC
  0
SECTION
  2
BLOCKS
  0
BLOCK
  8
0
  2
$MODEL_SPACE
 70
     0
 10
0.0
 20
0.0
 30
0.0
  3
$MODEL_SPACE
  1

  0
ENDBLK
  5
1A
  8
0
  0
BLOCK
 67
     1
  8
0
  2
$PAPER_SPACE
 70
     0
 10
0.0
 20
0.0
 30
0.0
  3
$PAPER_SPACE
  1

  0
ENDBLK
  5
7DA19
 67
     1
  8
0
  0
BLOCK
  8
0
  2
_OPEN30
 70
     0
 10
0.0
 20
0.0
 30
0.0
  3
_OPEN30
  1

  0
LINE
  5
2F1
  8
0
  6
BYBLOCK
 62
     0
 10
-1.0
 20
0.267949
 30
0.0
 11
0.0
 21
0.0
 31
0.0
  0
LINE
  5
2F2
  8
0
  6
BYBLOCK
 62
     0
 10
0.0
 20
0.0
 30
0.0
 11
-1.0
 21
-0.267949
 31
0.0
  0
LINE
  5
2F3
  8
0
  6
BYBLOCK
 62
     0
 10
0.0
 20
0.0
 30
0.0
 11
-1.0
 21
0.0
 31
0.0
  0
ENDBLK
  5
2F4
  8
0
  0
BLOCK
  8
0
  2
A3WAKUKAWAJUN2017_HYOUDAI_
 70
     0
 10
0.0
 20
0.0
 30
0.0
  3
A3WAKUKAWAJUN2017_HYOUDAI_
  1

  0
LINE
  5
940D1
  8
0
 10
13.26299999998673
 20
-0.0001000000000317
 30
0.0
 11
9.236999999990758
 21
8.999899999990987
 31
0.0
1001
ACAD
1000
ASC_BOUNDS
1002
{
1070
    19
1005
94112
1002
}
  0
LINE
  5
940D2
  8
0
 10
5.657999999994331
 20
0.9999999999989768
 30
0.0
 11
9.236999999990758
 21
8.999999999991019
 31
0.0
1001
ACAD
1000
ASC_BOUNDS
1002
{
1070
    19
1005
94112
1002
}
  0
LINE
  5
940D3
  8
0
 10
18.59199999998134
 20
-0.2368999999997641
 30
0.0
 11
16.46099999998353
 21
5.432899999994561
 31
0.0
1001
ACAD
1000
ASC_BOUNDS
1002
{
1070
    19
1005
94113
1002
}
  0
LINE
  5
940D4
  8
0
 10
18.59199999998134
 20
-0.2368999999997641
 30
0.0
 11
22.38199999997767
 21
8.763099999991255
 31
0.0
1001
ACAD
1000
ASC_BOUNDS
1002
{
1070
    19
1005
94113
1002
}
  0
LINE
  5
940D5
  8
0
 10
14.32899999998563
 20
-0.2368999999997641
 30
0.0
 11
16.46099999998353
 21
5.432899999994561
 31
0.0
1001
ACAD
1000
ASC_BOUNDS
1002
{
1070
    19
1005
94113
1002
}
  0
LINE
  5
940D6
  8
0
 10
14.32899999998563
 20
-0.2368999999997641
 30
0.0
 11
10.53899999998941
 21
8.763099999991255
 31
0.0
1001
ACAD
1000
ASC_BOUNDS
1002
{
1070
    19
1005
94113
1002
}
  0
LINE
  5
940D7
  8
0
 10
19.53899999998043
 20
-0.0001000000000317
 30
0.0
 11
23.56599999997638
 21
8.999899999990987
 31
0.0
1001
ACAD
1000
ASC_BOUNDS
1002
{
1070
    19
1005
94114
1002
}
  0
LINE
  5
940D8
  8
0
 10
26.97358892824991
 20
1.383099999991202
 30
0.0
 11
23.56599999997638
 21
8.999899999990987
 31
0.0
1001
ACAD
1000
ASC_BOUNDS
1002
{
1070
    19
1005
94114
1002
}
  0
LINE
  5
940D9
  8
0
 10
5.657999999994331
 20
0.9999999999989768
 30
0.0
 11
3.181999999996833
 21
4.668599999995308
 31
0.0
1001
ACAD
1000
ASC_BOUNDS
1002
{
1070
    19
1005
94112
1002
}
  0
LINE
  5
940DA
  8
0
 10
4.617999999995391
 20
-0.0001000000000317
 30
0.0
 11
1.420999999998571
 21
4.736799999995242
 31
0.0
1001
ACAD
1000
ASC_BOUNDS
1002
{
1070
    19
1005
94112
1002
}
  0
LINE
  5
940DB
  8
0
 10
1.420999999998571
 20
8.763099999991255
 30
0.0
 11
1.420999999998571
 21
0.0
 31
0.0
1001
ACAD
1000
ASC_BOUNDS
1002
{
1070
    19
1005
94117
1002
}
  0
LINE
  5
940DC
  8
0
 10
0.0
 20
8.763099999991255
 30
0.0
 11
0.0
 21
0.0
 31
0.0
1001
ACAD
1000
ASC_BOUNDS
1002
{
1070
    19
1005
94117
1002
}
  0
LINE
  5
940DD
  8
0
 10
6.766999999993232
 20
-0.0001000000000317
 30
0.0
 11
7.826999999992154
 21
2.368399999997621
 31
0.0
1001
ACAD
1000
ASC_BOUNDS
1002
{
1070
    19
1005
94112
1002
}
  0
LINE
  5
940DE
  8
0
 10
0.0
 20
0.0
 30
0.0
 11
1.420999999998571
 21
0.0
 31
0.0
1001
ACAD
1000
ASC_BOUNDS
1002
{
1070
    19
1005
94117
1002
}
  0
LINE
  5
940DF
  8
0
 10
4.617999999995391
 20
0.0
 30
0.0
 11
6.766999999993232
 21
0.0
 31
0.0
1001
ACAD
1000
ASC_BOUNDS
1002
{
1070
    19
1005
94112
1002
}
  0
LINE
  5
940E0
  8
0
 10
11.70599999998831
 20
-0.0001000000000317
 30
0.0
 11
10.64699999998936
 21
2.368399999997621
 31
0.0
1001
ACAD
1000
ASC_BOUNDS
1002
{
1070
    19
1005
94112
1002
}
  0
LINE
  5
940E1
  8
0
 10
7.826999999992154
 20
2.368399999997621
 30
0.0
 11
10.64699999998936
 21
2.368399999997621
 31
0.0
1001
ACAD
1000
ASC_BOUNDS
1002
{
1070
    19
1005
94112
1002
}
  0
LINE
  5
940E2
  8
0
 10
11.70599999998831
 20
0.0
 30
0.0
 11
13.26299999998673
 21
0.0
 31
0.0
1001
ACAD
1000
ASC_BOUNDS
1002
{
1070
    19
1005
94112
1002
}
  0
LINE
  5
940E3
  8
0
 10
22.15599999997789
 20
2.368399999997621
 30
0.0
 11
24.97599999997499
 21
2.368399999997621
 31
0.0
1001
ACAD
1000
ASC_BOUNDS
1002
{
1070
    19
1005
94114
1002
}
  0
LINE
  5
940E4
  8
0
 10
19.53899999998043
 20
0.0
 30
0.0
 11
21.09599999997886
 21
0.0
 31
0.0
1001
ACAD
1000
ASC_BOUNDS
1002
{
1070
    19
1005
94114
1002
}
  0
LINE
  5
940E5
  8
0
 10
21.09599999997886
 20
-0.0001000000000317
 30
0.0
 11
22.15599999997789
 21
2.368399999997621
 31
0.0
1001
ACAD
1000
ASC_BOUNDS
1002
{
1070
    19
1005
94114
1002
}
  0
LINE
  5
940E6
  8
0
 10
26.02015566812236
 20
0.0330999999912365
 30
0.0
 11
24.97599999997499
 21
2.368399999997621
 31
0.0
1001
ACAD
1000
ASC_BOUNDS
1002
{
1070
    19
1005
94114
1002
}
  0
LINE
  5
940E7
  8
0
 10
14.32399999998563
 20
3.315799999996671
 30
0.0
 11
16.46099999998353
 21
8.999899999990987
 31
0.0
1001
ACAD
1000
ASC_BOUNDS
1002
{
1070
    19
1005
94113
1002
}
  0
LINE
  5
940E8
  8
0
 10
6.432999999993513
 20
8.763099999991255
 30
0.0
 11
3.181999999996833
 21
4.668599999995308
 31
0.0
1001
ACAD
1000
ASC_BOUNDS
1002
{
1070
    19
1005
94112
1002
}
  0
LINE
  5
940E9
  8
0
 10
4.617999999995391
 20
8.763099999991255
 30
0.0
 11
1.420999999998571
 21
4.736799999995242
 31
0.0
1001
ACAD
1000
ASC_BOUNDS
1002
{
1070
    19
1005
94112
1002
}
  0
LINE
  5
940EA
  8
0
 10
0.0
 20
8.763099999991255
 30
0.0
 11
1.420999999998571
 21
8.763099999991255
 31
0.0
1001
ACAD
1000
ASC_BOUNDS
1002
{
1070
    19
1005
94117
1002
}
  0
LINE
  5
940EB
  8
0
 10
4.617999999995391
 20
8.763099999991255
 30
0.0
 11
6.432999999993513
 21
8.763099999991255
 31
0.0
1001
ACAD
1000
ASC_BOUNDS
1002
{
1070
    19
1005
94112
1002
}
  0
LINE
  5
940EC
  8
0
 10
14.32399999998563
 20
3.315799999996671
 30
0.0
 11
12.02999999998792
 21
8.763099999991255
 31
0.0
1001
ACAD
1000
ASC_BOUNDS
1002
{
1070
    19
1005
94113
1002
}
  0
LINE
  5
940ED
  8
0
 10
10.06399999998996
 20
3.670999999996297
 30
0.0
 11
9.236999999990758
 21
5.5200999999945
 31
0.0
1001
ACAD
1000
ASC_BOUNDS
1002
{
1070
    19
1005
94112
1002
}
  0
LINE
  5
940EE
  8
0
 10
8.409999999991555
 20
3.670999999996297
 30
0.0
 11
9.236999999990758
 21
5.5200999999945
 31
0.0
1001
ACAD
1000
ASC_BOUNDS
1002
{
1070
    19
1005
94112
1002
}
  0
LINE
  5
940EF
  8
0
 10
8.409999999991555
 20
3.670999999996297
 30
0.0
 11
10.06399999998996
 21
3.670999999996297
 31
0.0
1001
ACAD
1000
ASC_BOUNDS
1002
{
1070
    19
1005
94112
1002
}
  0
LINE
  5
940F0
  8
0
 10
10.53899999998941
 20
8.763099999991255
 30
0.0
 11
12.02999999998792
 21
8.763099999991255
 31
0.0
1001
ACAD
1000
ASC_BOUNDS
1002
{
1070
    19
1005
94113
1002
}
  0
LINE
  5
940F1
  8
0
 10
22.7389999999773
 20
3.670999999996297
 30
0.0
 11
23.56599999997638
 21
5.5200999999945
 31
0.0
1001
ACAD
1000
ASC_BOUNDS
1002
{
1070
    19
1005
94114
1002
}
  0
LINE
  5
940F2
  8
0
 10
22.7389999999773
 20
3.670999999996297
 30
0.0
 11
24.39299999997559
 21
3.670999999996297
 31
0.0
1001
ACAD
1000
ASC_BOUNDS
1002
{
1070
    19
1005
94114
1002
}
  0
LINE
  5
940F3
  8
0
 10
18.59799999998143
 20
3.315799999996671
 30
0.0
 11
20.89099999997916
 21
8.763099999991255
 31
0.0
1001
ACAD
1000
ASC_BOUNDS
1002
{
1070
    19
1005
94113
1002
}
  0
LINE
  5
940F4
  8
0
 10
18.59799999998143
 20
3.315799999996671
 30
0.0
 11
16.46099999998353
 21
8.999899999990987
 31
0.0
1001
ACAD
1000
ASC_BOUNDS
1002
{
1070
    19
1005
94113
1002
}
  0
LINE
  5
940F5
  8
0
 10
20.89099999997916
 20
8.763099999991255
 30
0.0
 11
22.38199999997767
 21
8.763099999991255
 31
0.0
1001
ACAD
1000
ASC_BOUNDS
1002
{
1070
    19
1005
94113
1002
}
  0
LINE
  5
940F6
  8
0
 10
24.39299999997559
 20
3.670999999996297
 30
0.0
 11
23.56599999997638
 21
5.5200999999945
 31
0.0
1001
ACAD
1000
ASC_BOUNDS
1002
{
1070
    19
1005
94114
1002
}
  0
LINE
  5
940F7
  8
0
 10
44.99999999995498
 20
-0.2368999999997641
 30
0.0
 11
40.02599999995994
 21
5.341799999994635
 31
0.0
1001
ACAD
1000
ASC_BOUNDS
1002
{
1070
    19
1005
94116
1002
}
  0
LINE
  5
940F8
  8
0
 10
40.02599999995994
 20
5.341799999994635
 30
0.0
 11
40.02599999995994
 21
0.0
 31
0.0
1001
ACAD
1000
ASC_BOUNDS
1002
{
1070
    19
1005
94116
1002
}
  0
LINE
  5
940F9
  8
0
 10
38.60499999996136
 20
8.999999999991019
 30
0.0
 11
38.60499999996136
 21
0.0
 31
0.0
1001
ACAD
1000
ASC_BOUNDS
1002
{
1070
    19
1005
94116
1002
}
  0
LINE
  5
940FA
  8
0
 10
44.99999999995498
 20
8.763099999991255
 30
0.0
 11
44.99999999995498
 21
-0.2368999999997641
 31
0.0
1001
ACAD
1000
ASC_BOUNDS
1002
{
1070
    19
1005
94116
1002
}
  0
LINE
  5
940FB
  8
0
 10
38.60499999996136
 20
0.0
 30
0.0
 11
40.02599999995994
 21
0.0
 31
0.0
1001
ACAD
1000
ASC_BOUNDS
1002
{
1070
    19
1005
94116
1002
}
  0
LINE
  5
940FC
  8
0
 10
43.57899999995641
 20
3.421199999996588
 30
0.0
 11
38.60499999996136
 21
8.999899999990987
 31
0.0
1001
ACAD
1000
ASC_BOUNDS
1002
{
1070
    19
1005
94116
1002
}
  0
LINE
  5
940FD
  8
0
 10
43.57899999995641
 20
8.763099999991255
 30
0.0
 11
43.57899999995641
 21
3.421199999996588
 31
0.0
1001
ACAD
1000
ASC_BOUNDS
1002
{
1070
    19
1005
94116
1002
}
  0
LINE
  5
940FE
  8
0
 10
43.57899999995641
 20
8.763099999991255
 30
0.0
 11
44.99999999995498
 21
8.763099999991255
 31
0.0
1001
ACAD
1000
ASC_BOUNDS
1002
{
1070
    19
1005
94116
1002
}
  0
LINE
  5
940FF
  8
0
 10
37.67199999996831
 20
8.763099999991255
 30
0.0
 11
36.23199999996837
 21
8.763099999991255
 31
0.0
  0
LINE
  5
94100
  8
0
 10
31.64199999996833
 20
8.763099999991255
 30
0.0
 11
31.64199999996833
 21
2.481619422925121
 31
0.0
  0
LINE
  5
94101
  8
0
 10
37.67199999996831
 20
8.763099999991255
 30
0.0
 11
37.67199999996831
 21
2.481619422925121
 31
0.0
  0
LINE
  5
94102
  8
0
 10
36.23199999996837
 20
8.763099999991255
 30
0.0
 11
36.23199999996837
 21
2.481619422925064
 31
0.0
  0
LINE
  5
94103
  8
0
 10
33.08199999996839
 20
8.763099999991255
 30
0.0
 11
33.08199999996839
 21
2.481619422925121
 31
0.0
  0
ARC
  5
94104
  8
0
 10
34.65699999996832
 20
3.183099999991214
 30
0.0
 40
3.420000000000007
 50
240.0000000000255
 51
299.9999999999766
  0
ARC
  5
94105
  8
0
 10
34.65699999996832
 20
3.183099999991214
 30
0.0
 40
1.97999999999999
 50
240.000000000026
 51
299.9999999999703
  0
LINE
  5
94106
  8
0
 10
33.08199999996828
 20
8.763099999991255
 30
0.0
 11
31.64199999996833
 21
8.763099999991255
 31
0.0
  0
ARC
  5
94107
  8
0
 10
35.06199999996829
 20
2.481619422925064
 30
0.0
 40
1.17
 50
299.9999999999699
 51
0.0
  0
ARC
  5
94108
  8
0
 10
34.25199999996835
 20
2.481619422925121
 30
0.0
 40
1.17
 50
180.0
 51
240.0000000000238
  0
ARC
  5
94109
  8
0
 10
35.06199999996841
 20
2.481619422925121
 30
0.0
 40
2.61
 50
299.9999999999756
 51
0.0
  0
ARC
  5
9410A
  8
0
 10
34.25199999996835
 20
2.481619422925121
 30
0.0
 40
2.61
 50
180.0
 51
240.0000000000244
  0
LINE
  5
9410B
  8
0
 10
29.30199999996933
 20
8.763099999991255
 30
0.0
 11
30.74199999996927
 21
8.763099999991255
 31
0.0
1001
ACAD
1000
ASC_BOUNDS
1002
{
1070
    19
1005
94114
1002
}
  0
LINE
  5
9410C
  8
0
 10
30.74199999996927
 20
8.763099999991255
 30
0.0
 11
30.74199999996927
 21
2.373099999991211
 31
0.0
1001
ACAD
1000
ASC_BOUNDS
1002
{
1070
    19
1005
94114
1002
}
  0
LINE
  5
9410D
  8
0
 10
26.02015566812236
 20
0.0330999999912365
 30
0.0
 11
28.40199999996923
 21
0.0330999999912365
 31
0.0
1001
ACAD
1000
ASC_BOUNDS
1002
{
1070
    19
1005
94114
1002
}
  0
LINE
  5
9410E
  8
0
 10
29.30199999996933
 20
8.763099999991255
 30
0.0
 11
29.30199999996933
 21
2.283099999991236
 31
0.0
1001
ACAD
1000
ASC_BOUNDS
1002
{
1070
    19
1005
94114
1002
}
  0
LINE
  5
9410F
  8
0
 10
26.97358892824991
 20
1.383099999991202
 30
0.0
 11
28.40199999996923
 21
1.383099999991202
 31
0.0
1001
ACAD
1000
ASC_BOUNDS
1002
{
1070
    19
1005
94114
1002
}
  0
ARC
  5
94110
  8
0
 10
28.40199999996923
 20
2.283099999991236
 30
0.0
 40
0.9
 50
270.0
 51
0.0
1001
ACAD
1000
ASC_BOUNDS
1002
{
1070
    19
1005
94114
1002
}
  0
ARC
  5
94111
  8
0
 10
28.40199999996923
 20
2.373099999991211
 30
0.0
 40
2.34
 50
270.0
 51
0.0
1001
ACAD
1000
ASC_BOUNDS
1002
{
1070
    19
1005
94114
1002
}
  0
INSERT
  5
94112
  8
0
  2
*X1883
 10
0.0
 20
0.0
 30
0.0
1001
ACAD
1000
HATCH
1002
{
1070
    19
1000
ANSI37
1040
0.15
1040
0.0
1000
ASC_BOUNDS
1070
     2
1070
     2
1070
    12
1005
940D1
1005
940D2
1005
940D9
1005
940E8
1005
940EB
1005
940E9
1005
940DA
1005
940DF
1005
940DD
1005
940E1
1005
940E0
1005
940E2
1070
     2
1070
     3
1005
940ED
1005
940EF
1005
940EE
1000
ASC_SEEDPOINT
1011
3.614004224891801
1021
2.996669441146025
1031
0.0
1021
2.996669441146025
1031
0.0
1000
R14_HATCH_DATA
1000
94112
1011
1.0
1021
0.0
1031
0.0
1021
0.0
1031
0.0
1011
0.0
1021
1.0
1031
0.0
1021
1.0
1031
0.0
1011
0.0
1021
0.0
1031
1.0
1021
0.0
1031
1.0
1040
0.0
1010
0.0
1020
0.0
1030
1.0
1000
ANSI37
1070
     0
1070
     1
1071
        2
1071
        7
1070
     0
1070
     1
1071
       17
1040
13.26299999998673
1040
-0.0001000000000317
1040
9.236999999990758
1040
8.999899999990987
1040
9.236999999990758
1040
8.999999999991019
1040
5.657999999994331
1040
0.9999999999989768
1040
3.181999999996833
1040
4.668599999995308
1040
6.432999999993513
1040
8.763099999991255
1040
4.617999999995391
1040
8.763099999991255
1040
1.420999999998571
1040
4.736799999995242
1040
4.617999999995391
1040
-0.0001000000000317
1040
4.617999999995391
1040
0.0
1040
6.766999999993232
1040
0.0
1040
6.766999999993232
1040
-0.0001000000000317
1040
7.826999999992154
1040
2.368399999997621
1040
10.64699999998936
1040
2.368399999997621
1040
11.70599999998831
1040
-0.0001000000000317
1040
11.70599999998831
1040
0.0
1040
13.26299999998673
1040
0.0
1071
       12
1005
940D1
1005
940D2
1005
940D9
1005
940E8
1005
940EB
1005
940E9
1005
940DA
1005
940DF
1005
940DD
1005
940E1
1005
940E0
1005
940E2
1071
       22
1070
     0
1070
     1
1071
        3
1040
9.236999999990758
1040
5.5200999999945
1040
10.06399999998996
1040
3.670999999996297
1040
8.409999999991555
1040
3.670999999996297
1071
        3
1005
940ED
1005
940EF
1005
940EE
1070
     0
1070
     1
1040
0.0
1040
0.15
1070
     0
1070
     2
1040
0.7853981633974483
1040
49.29960901727088
1040
-10.17736998311392
1040
-0.3367596045400932
1040
0.3367596045400932
1070
     0
1040
2.356194490192345
1040
49.29960901727088
1040
-10.17736998311392
1040
-0.3367596045400932
1040
-0.3367596045400932
1070
     0
1040
0.0110235143455945
1071
        2
1040
3.614004224891801
1040
2.996669441146025
1040
0.0
1040
3.614004224891801
1040
2.996669441146025
1040
0.0
1002
}
  0
INSERT
  5
94113
  8
0
  2
*X1884
 10
0.0
 20
0.0
 30
0.0
1001
ACAD
1000
HATCH
1002
{
1070
    19
1000
ANSI37
1040
0.15
1040
0.0
1000
ASC_BOUNDS
1070
     1
1070
     2
1070
    10
1005
940D3
1005
940D4
1005
940F5
1005
940F3
1005
940F4
1005
940E7
1005
940EC
1005
940F0
1005
940D6
1005
940D5
1000
ASC_SEEDPOINT
1011
14.73245321214324
1021
2.798246178283421
1031
0.0
1021
2.798246178283421
1031
0.0
1000
R14_HATCH_DATA
1000
94113
1011
1.0
1021
0.0
1031
0.0
1021
0.0
1031
0.0
1011
0.0
1021
1.0
1031
0.0
1021
1.0
1031
0.0
1011
0.0
1021
0.0
1031
1.0
1021
0.0
1031
1.0
1040
0.0
1010
0.0
1020
0.0
1030
1.0
1000
ANSI37
1070
     0
1070
     1
1071
        1
1071
        7
1070
     0
1070
     1
1071
       10
1040
16.46099999998353
1040
5.432899999994561
1040
18.59199999998134
1040
-0.2368999999997641
1040
22.38199999997767
1040
8.763099999991255
1040
20.89099999997916
1040
8.763099999991255
1040
18.59799999998143
1040
3.315799999996671
1040
16.46099999998353
1040
8.999899999990987
1040
14.32399999998563
1040
3.315799999996671
1040
12.02999999998792
1040
8.763099999991255
1040
10.53899999998941
1040
8.763099999991255
1040
14.32899999998563
1040
-0.2368999999997641
1071
       10
1005
940D3
1005
940D4
1005
940F5
1005
940F3
1005
940F4
1005
940E7
1005
940EC
1005
940F0
1005
940D6
1005
940D5
1070
     0
1070
     1
1040
0.0
1040
0.15
1070
     0
1070
     2
1040
0.7853981633974483
1040
49.29960901727088
1040
-10.17736998311392
1040
-0.3367596045400932
1040
0.3367596045400932
1070
     0
1040
2.356194490192345
1040
49.29960901727088
1040
-10.17736998311392
1040
-0.3367596045400932
1040
-0.3367596045400932
1070
     0
1040
0.0110235143455945
1071
        1
1040
14.73245321214324
1040
2.798246178283421
1040
0.0
1002
}
  0
INSERT
  5
94114
  8
0
  2
*X1885
 10
0.0
 20
0.0
 30
0.0
1001
ACAD
1000
HATCH
1002
{
1070
    19
1000
ANSI37
1040
0.15
1040
0.0
1000
ASC_BOUNDS
1070
     2
1070
     2
1070
    13
1005
940D7
1005
940E4
1005
940E5
1005
940E3
1005
940E6
1005
9410D
1005
94111
1005
9410C
1005
9410B
1005
9410E
1005
94110
1005
9410F
1005
940D8
1070
     2
1070
     3
1005
940F1
1005
940F6
1005
940F2
1000
ASC_SEEDPOINT
1011
21.97929957367762
1021
3.294304244259308
1031
0.0
1021
3.294304244259308
1031
0.0
1000
R14_HATCH_DATA
1000
94114
1011
1.0
1021
0.0
1031
0.0
1021
0.0
1031
0.0
1011
0.0
1021
1.0
1031
0.0
1021
1.0
1031
0.0
1011
0.0
1021
0.0
1031
1.0
1021
0.0
1031
1.0
1040
0.0
1010
0.0
1020
0.0
1030
1.0
1000
ANSI37
1070
     0
1070
     1
1071
        2
1071
        7
1070
     1
1070
     1
1071
       15
1040
23.56599999997638
1040
8.999899999990987
1040
0.0
1040
19.53899999998043
1040
-0.0001000000000317
1040
0.0
1040
19.53899999998043
1040
0.0
1040
0.0
1040
21.09599999997886
1040
0.0
1040
0.0
1040
21.09599999997886
1040
-0.0001000000000317
1040
0.0
1040
22.15599999997789
1040
2.368399999997621
1040
0.0
1040
24.97599999997499
1040
2.368399999997621
1040
0.0
1040
26.02015566812236
1040
0.0330999999912365
1040
0.0
1040
28.40199999996923
1040
0.0330999999912365
1040
0.414213562373095
1040
30.74199999996923
1040
2.373099999991211
1040
0.0
1040
30.74199999996927
1040
8.763099999991255
1040
0.0
1040
29.30199999996933
1040
8.763099999991255
1040
0.0
1040
29.30199999996933
1040
2.283099999991236
1040
-0.414213562373095
1040
28.40199999996923
1040
1.383099999991237
1040
0.0
1040
26.97358892824991
1040
1.383099999991202
1040
0.0
1071
       13
1005
940D7
1005
940E4
1005
940E5
1005
940E3
1005
940E6
1005
9410D
1005
94111
1005
9410C
1005
9410B
1005
9410E
1005
94110
1005
9410F
1005
940D8
1071
       22
1070
     0
1070
     1
1071
        3
1040
22.7389999999773
1040
3.670999999996297
1040
23.56599999997638
1040
5.5200999999945
1040
24.39299999997559
1040
3.670999999996297
1071
        3
1005
940F1
1005
940F6
1005
940F2
1070
     0
1070
     1
1040
0.0
1040
0.15
1070
     0
1070
     2
1040
0.7853981633974483
1040
49.29960901727088
1040
-10.17736998311392
1040
-0.3367596045400932
1040
0.3367596045400932
1070
     0
1040
2.356194490192345
1040
49.29960901727088
1040
-10.17736998311392
1040
-0.3367596045400932
1040
-0.3367596045400932
1070
     0
1040
0.0110235143455945
1071
        2
1040
21.97929957367762
1040
3.294304244259308
1040
0.0
1040
21.97929957367762
1040
3.294304244259308
1040
0.0
1002
}
  0
INSERT
  5
94115
  8
0
  2
*X1886
 10
0.0
 20
0.0
 30
0.0
1001
ACAD
1000
HATCH
1002
{
1070
    19
1000
ANSI37
1040
0.15
1040
0.0
1000
R14_HATCH_DATA
1000
94115
1011
1.0
1021
0.0
1031
0.0
1021
0.0
1031
0.0
1011
0.0
1021
1.0
1031
0.0
1021
1.0
1031
0.0
1011
0.0
1021
0.0
1031
1.0
1021
0.0
1031
1.0
1040
0.0
1010
0.0
1020
0.0
1030
1.0
1000
ANSI37
1070
     0
1070
     1
1071
        1
1071
        7
1070
     1
1070
     1
1071
       12
1040
31.64199999996833
1040
2.481619422925121
1040
0.2679491924310942
1040
32.94699999997067
1040
0.2212931190493919
1040
0.2679491924301353
1040
36.36699999995983
1040
0.2212931190459813
1040
0.2679491924321411
1040
37.67199999996831
1040
2.481619422928361
1040
0.0
1040
37.67199999996831
1040
8.763099999991255
1040
0.0
1040
36.23199999996837
1040
8.763099999991255
1040
0.0
1040
36.23199999996837
1040
2.481619422925064
1040
-0.2679491924310291
1040
35.64699999996708
1040
1.468369700498386
1040
-0.267949192430519
1040
33.66699999997093
1040
1.468369700497703
1040
-0.267949192431809
1040
33.08199999996839
1040
2.481619422926997
1040
0.0
1040
33.08199999996839
1040
8.763099999991255
1040
0.0
1040
31.64199999996833
1040
8.763099999991255
1040
0.0
1071
        0
1070
     0
1070
     1
1040
0.0
1040
0.15
1070
     0
1070
     2
1040
0.7853981633974483
1040
49.29960901727088
1040
-10.17736998311392
1040
-0.3367596045400932
1040
0.3367596045400932
1070
     0
1040
2.356194490192345
1040
49.29960901727088
1040
-10.17736998311392
1040
-0.3367596045400932
1040
-0.3367596045400932
1070
     0
1040
0.0110235143455945
1071
        1
1040
32.30357378967278
1040
3.988785755459219
1040
0.0
1002
}
  0
INSERT
  5
94116
  8
0
  2
*X1887
 10
0.0
 20
0.0
 30
0.0
1001
ACAD
1000
HATCH
1002
{
1070
    19
1000
ANSI37
1040
0.15
1040
0.0
1000
ASC_BOUNDS
1070
     1
1070
     2
1070
     8
1005
940F7
1005
940FA
1005
940FE
1005
940FD
1005
940FC
1005
940F9
1005
940FB
1005
940F8
1000
ASC_SEEDPOINT
1011
39.74896370716704
1021
4.484843821435049
1031
0.0
1021
4.484843821435049
1031
0.0
1000
R14_HATCH_DATA
1000
94116
1011
1.0
1021
0.0
1031
0.0
1021
0.0
1031
0.0
1011
0.0
1021
1.0
1031
0.0
1021
1.0
1031
0.0
1011
0.0
1021
0.0
1031
1.0
1021
0.0
1031
1.0
1040
0.0
1010
0.0
1020
0.0
1030
1.0
1000
ANSI37
1070
     0
1070
     1
1071
        1
1071
        7
1070
     0
1070
     1
1071
        9
1040
40.02599999995994
1040
5.341799999994635
1040
44.99999999995498
1040
-0.2368999999997641
1040
44.99999999995498
1040
8.763099999991255
1040
43.57899999995641
1040
8.763099999991255
1040
43.57899999995641
1040
3.421199999996588
1040
38.60499999996136
1040
8.999899999990987
1040
38.60499999996136
1040
8.999999999991019
1040
38.60499999996136
1040
0.0
1040
40.02599999995994
1040
0.0
1071
        8
1005
940F7
1005
940FA
1005
940FE
1005
940FD
1005
940FC
1005
940F9
1005
940FB
1005
940F8
1070
     0
1070
     1
1040
0.0
1040
0.15
1070
     0
1070
     2
1040
0.7853981633974483
1040
49.29960901727088
1040
-10.17736998311392
1040
-0.3367596045400932
1040
0.3367596045400932
1070
     0
1040
2.356194490192345
1040
49.29960901727088
1040
-10.17736998311392
1040
-0.3367596045400932
1040
-0.3367596045400932
1070
     0
1040
0.0110235143455945
1071
        1
1040
39.74896370716704
1040
4.484843821435049
1040
0.0
1002
}
  0
INSERT
  5
94117
  8
0
  2
*X1888
 10
0.0
 20
0.0
 30
0.0
1001
ACAD
1000
HATCH
1002
{
1070
    19
1000
ANSI37
1040
0.15
1040
0.0
1000
ASC_BOUNDS
1070
     1
1070
     2
1070
     4
1005
940DB
1005
940EA
1005
940DC
1005
940DE
1000
ASC_SEEDPOINT
1011
1.079051535452663
1021
4.148538732891836
1031
0.0
1021
4.148538732891836
1031
0.0
1000
R14_HATCH_DATA
1000
94117
1011
1.0
1021
0.0
1031
0.0
1021
0.0
1031
0.0
1011
0.0
1021
1.0
1031
0.0
1021
1.0
1031
0.0
1011
0.0
1021
0.0
1031
1.0
1021
0.0
1031
1.0
1040
0.0
1010
0.0
1020
0.0
1030
1.0
1000
ANSI37
1070
     0
1070
     1
1071
        1
1071
        7
1070
     0
1070
     1
1071
        4
1040
1.420999999998571
1040
0.0
1040
1.420999999998571
1040
8.763099999991255
1040
0.0
1040
8.763099999991255
1040
0.0
1040
0.0
1071
        4
1005
940DB
1005
940EA
1005
940DC
1005
940DE
1070
     0
1070
     1
1040
0.0
1040
0.15
1070
     0
1070
     2
1040
0.7853981633974483
1040
49.29960901727088
1040
-10.17736998311392
1040
-0.3367596045400932
1040
0.3367596045400932
1070
     0
1040
2.356194490192345
1040
49.29960901727088
1040
-10.17736998311392
1040
-0.3367596045400932
1040
-0.3367596045400932
1070
     0
1040
0.0053004257112761
1071
        1
1040
1.079051535452663
1040
4.148538732891836
1040
0.0
1002
}
  0
ENDBLK
  5
94820
  8
0
  0
BLOCK
  8
0
  2
_TAGCIRCLE
 70
     2
 10
0.0
 20
0.0
 30
0.0
  3
_TAGCIRCLE
  1

  0
CIRCLE
  5
7E2F8
  8
0
  6
BYBLOCK
 62
     0
 10
0.0
 20
0.0
 30
0.0
 40
0.1052552224523172
  0
ATTDEF
  5
7E2F9
  8
0
 62
     0
 10
-0.2125
 20
-0.046875
 30
0.0
 40
0.09375
  1
タグ番号
 72
     1
 11
0.0
 21
-0.046875
 31
0.0
  3
タグ番号を入力
  2
タグ番号
 70
     0
  0
ENDBLK
  5
7E3D8
  8
0
  0
BLOCK
  8
0
  2
_TAGTRIANGLE
 70
     2
 10
0.0
 20
0.0
 30
0.0
  3
_TAGTRIANGLE
  1

  0
POLYLINE
  5
7E2FE
  8
0
  6
BYBLOCK
 62
     0
 66
     1
 10
0.0
 20
0.0
 30
0.0
 70
     1
  0
VERTEX
  5
DE4F1
  8
0
  6
BYBLOCK
 62
     0
 10
-0.2165063509461096
 20
-0.125
 30
0.0
  0
VERTEX
  5
DE4F2
  8
0
  6
BYBLOCK
 62
     0
 10
0.0
 20
0.25
 30
0.0
  0
VERTEX
  5
DE4F3
  8
0
  6
BYBLOCK
 62
     0
 10
0.2165063509461096
 20
-0.125
 30
0.0
  0
SEQEND
  5
DE501
  8
0
  6
BYBLOCK
 62
     0
  0
ATTDEF
  5
7E2FF
  8
1TEXT
 62
     0
 10
-0.3805175846051759
 20
-0.046875
 30
0.0
 40
0.14
  1
タグ番号
  7
MAKER
 72
     1
 11
0.0
 21
-0.046875
 31
0.0
  3
タグ番号を入力
  2
タグ番号
 70
     0
  0
ENDBLK
  5
7E3DA
  8
0
  0
BLOCK
  8
0
  2
WELD111
 70
     0
 10
0.0
 20
0.0
 30
0.0
  3
WELD111
  1

  0
CIRCLE
  5
7E306
  8
0
 62
     0
 10
6.0
 20
0.0000000000000142
 30
0.0
 40
2.990262378117563
  0
LINE
  5
7E307
  8
0
 62
     0
 10
0.0
 20
0.0
 30
0.0
 11
11.99999999999999
 21
0.0000000000000142
 31
0.0
  0
ENDBLK
  5
7E3DC
  8
0
  0
BLOCK
  8
0
  2
WELD112
 70
     0
 10
0.0
 20
0.0
 30
0.0
  3
WELD112
  1

  0
INSERT
  5
7E30E
  8
0
  6
BYBLOCK
 62
     0
  2
スポット溶接記号
 10
-6.0
 20
0.0
 30
0.0
  0
LINE
  5
7E31B
  8
0
  6
BYBLOCK
 62
     0
 10
-4.67642258006606
 20
-5.151751477760058
 30
0.0
 11
4.67642258006606
 21
-5.151751477760058
 31
0.0
  0
ENDBLK
  5
7E3DE
  8
0
  0
BLOCK
  8
0
  2
スポット溶接記号
 70
     0
 10
0.0
 20
0.0
 30
0.0
  3
スポット溶接記号
  1

  0
CIRCLE
  5
7E318
  8
0
 10
6.0
 20
0.0000000000000142
 30
0.0
 40
2.990262378117563
  0
LINE
  5
7E319
  8
0
 10
0.0
 20
0.0
 30
0.0
 11
11.99999999999999
 21
0.0000000000000142
 31
0.0
  0
ENDBLK
  5
7E3E0
  8
0
  0
BLOCK
  8
0
  2
WELD01
 70
     0
 10
0.0
 20
0.0
 30
0.0
  3
WELD01
  1

  0
LINE
  5
7E322
  8
0
  6
BYBLOCK
 62
     0
 10
0.0
 20
0.0
 30
0.0
 11
11.99999957320006
 21
0.0
 31
0.0
  0
LINE
  5
7E323
  8
0
  6
BYBLOCK
 62
     0
 10
3.591012473199953
 20
-5.462740899999972
 30
0.0
 11
3.591012473199953
 21
0.0
 31
0.0
  0
LINE
  5
7E324
  8
0
  6
BYBLOCK
 62
     0
 10
3.591012473199953
 20
-5.46274040000003
 30
0.0
 11
9.053753873200094
 21
0.0000002475924248
 31
0.0
  0
ENDBLK
  5
7E3E2
  8
0
  0
BLOCK
  8
0
  2
WELD05
 70
     0
 10
0.0
 20
0.0
 30
0.0
  3
WELD05
  1

  0
TEXT
  5
7E329
  8
0
 10
8.006110799999874
 20
-6.467742999999928
 30
0.0
 40
3.2
  1
Ｇ
 41
0.90047268
  0
LINE
  5
7E32A
  8
1HATCH
 10
0.0
 20
0.0
 30
0.0
 11
11.99999999999989
 21
0.0
 31
0.0
  0
LINE
  5
7E32B
  8
0
 10
3.591012500000033
 20
-5.462740899999972
 30
0.0
 11
3.591012500000033
 21
0.0
 31
0.0
  0
LINE
  5
7E32C
  8
0
 10
3.591012200000023
 20
-5.46274040000003
 30
0.0
 11
9.05375390000006
 21
0.0000002483500339
 31
0.0
  0
LINE
  5
7E32D
  8
0
 10
4.298119099999894
 20
-6.169846999999891
 30
0.0
 11
9.76086040000007
 21
-0.7071065899999667
 31
0.0
  0
ENDBLK
  5
7E3E4
  8
0
  0
BLOCK
  8
0
  2
WELD02
 70
     0
 10
0.0
 20
0.0
 30
0.0
  3
WELD02
  1

  0
LINE
  5
7E332
  8
1HATCH
 10
0.0
 20
0.0
 30
0.0
 11
11.99999957320006
 21
0.0
 31
0.0
  0
LINE
  5
7E333
  8
0
 10
3.591012473199953
 20
-5.462740899999972
 30
0.0
 11
3.591012473199953
 21
0.0
 31
0.0
  0
LINE
  5
7E334
  8
0
 10
3.591012473199953
 20
-5.46274040000003
 30
0.0
 11
9.053753873200094
 21
0.0000002475924248
 31
0.0
  0
LINE
  5
7E335
  8
0
 10
3.591012473199953
 20
5.46274040000003
 30
0.0
 11
9.053752873199755
 21
0.0000004267571967
 31
0.0
  0
LINE
  5
7E336
  8
0
 10
3.591012473199953
 20
5.462740899999972
 30
0.0
 11
3.591012473199953
 21
0.0
 31
0.0
  0
ENDBLK
  5
7E3E6
  8
0
  0
BLOCK
  8
0
  2
WELD09
 70
     0
 10
0.0
 20
0.0
 30
0.0
  3
WELD09
  1

  0
LINE
  5
7E33B
  8
1HATCH
 10
0.0
 20
0.0
 30
0.0
 11
12.0
 21
0.0
 31
0.0
  0
LINE
  5
7E33C
  8
0
 10
4.5
 20
0.0
 30
0.0
 11
4.5
 21
-6.0
 31
0.0
  0
LINE
  5
7E33D
  8
0
 10
7.499999499999831
 20
0.0
 30
0.0
 11
7.499999499999831
 21
-6.0
 31
0.0
  0
ENDBLK
  5
7E3E8
  8
0
  0
BLOCK
  8
0
  2
WELD14
 70
     0
 10
0.0
 20
0.0
 30
0.0
  3
WELD14
  1

  0
LINE
  5
7E342
  8
1HATCH
 10
0.0
 20
0.0
 30
0.0
 11
12.0
 21
0.0
 31
0.0
  0
LINE
  5
7E343
  8
0
 10
10.0
 20
0.0
 30
0.0
 11
10.0
 21
-5.0
 31
0.0
  0
LINE
  5
7E344
  8
0
 10
2.0
 20
0.0
 30
0.0
 11
2.0
 21
-5.0
 31
0.0
  0
LINE
  5
7E345
  8
0
 10
2.0
 20
-5.0
 30
0.0
 11
10.0
 21
-5.0
 31
0.0
  0
ENDBLK
  5
7E3EA
  8
0
  0
BLOCK
  8
0
  2
WELD07
 70
     0
 10
0.0
 20
0.0
 30
0.0
  3
WELD07
  1

  0
LINE
  5
7E34A
  8
1HATCH
 10
0.0
 20
0.0
 30
0.0
 11
9.905951749230908
 21
0.0000000000000003
 31
0.0
  0
ARC
  5
7E34B
  8
0
 10
9.062741300000084
 20
0.0
 30
0.0
 40
5.0
 50
90.0
 51
270.0
  0
LINE
  5
7E34C
  8
0
 10
2.599999900000057
 20
-5.0
 30
0.0
 11
2.599999900000057
 21
0.0
 31
0.0
  0
LINE
  5
7E34D
  8
0
 10
2.599999900000057
 20
5.0
 30
0.0
 11
2.599999900000057
 21
0.0
 31
0.0
  0
ENDBLK
  5
7E3EC
  8
0
  0
BLOCK
  8
0
  2
WELD11
 70
     0
 10
0.0
 20
0.0
 30
0.0
  3
WELD11
  1

  0
LINE
  5
7E352
  8
1HATCH
 10
0.0
 20
0.0
 30
0.0
 11
12.0
 21
0.0
 31
0.0
  0
ARC
  5
7E353
  8
0
 10
11.73137099999985
 20
0.0
 30
0.0
 40
5.0
 50
179.9999900000006
 51
270.0
  0
ARC
  5
7E354
  8
0
 10
0.2686290699998608
 20
0.0
 30
0.0
 40
5.0
 50
270.0
 51
0.0
  0
ENDBLK
  5
7E3EE
  8
0
  0
BLOCK
  8
0
  2
WELD08
 70
     0
 10
0.0
 20
0.0
 30
0.0
  3
WELD08
  1

  0
ARC
  5
7E359
  8
0
 10
0.25
 20
0.0
 30
0.0
 40
5.0
 50
270.0
 51
90.00000300000015
  0
ARC
  5
7E35A
  8
0
 10
11.71274200000005
 20
0.0
 30
0.0
 40
5.0
 50
90.0
 51
270.0
  0
LINE
  5
7E35B
  8
1HATCH
 10
0.0
 20
0.0
 30
0.0
 11
11.99999999999989
 21
0.0
 31
0.0
  0
ENDBLK
  5
7E3F0
  8
0
  0
BLOCK
  8
0
  2
WELD06
 70
     0
 10
0.0
 20
0.0
 30
0.0
  3
WELD06
  1

  0
LINE
  5
7E360
  8
1HATCH
 10
0.0
 20
0.0
 30
0.0
 11
9.822628962642085
 21
0.0000000000000003
 31
0.0
  0
ARC
  5
7E361
  8
0
 10
9.062741300000084
 20
0.0
 30
0.0
 40
5.0
 50
179.9999900000006
 51
270.0
  0
LINE
  5
7E362
  8
0
 10
2.599999900000057
 20
-5.0
 30
0.0
 11
2.599999900000057
 21
0.0
 31
0.0
  0
ENDBLK
  5
7E3F2
  8
0
  0
BLOCK
  8
0
  2
NOCIRCLE
 70
     2
 10
0.0
 20
0.0
 30
0.0
  3
NOCIRCLE
  1

  0
CIRCLE
  5
7F5FC
  8
0
  6
BYBLOCK
 62
     0
 10
0.0
 20
0.0
 30
0.0
 40
4.2
  0
ATTDEF
  5
7F5FD
  8
1TEXT
 10
-1.904761904761876
 20
-2.0
 30
0.0
 40
4.0
  1
0
 72
     4
 11
0.0
 21
0.0
 31
0.0
  3
NO.
  2
NO
 70
     0
  0
ENDBLK
  5
7F6CF
  8
0
  0
BLOCK
  8
0
  2
_OPEN
 70
     0
 10
0.0
 20
0.0
 30
0.0
  3
_OPEN
  1

  0
LINE
  5
7F604
  8
0
  6
BYBLOCK
 62
     0
 10
-1.0
 20
0.166667
 30
0.0
 11
0.0
 21
0.0
 31
0.0
  0
LINE
  5
7F605
  8
0
  6
BYBLOCK
 62
     0
 10
-1.0
 20
-0.166667
 30
0.0
 11
0.0
 21
0.0
 31
0.0
  0
LINE
  5
7F606
  8
0
  6
BYBLOCK
 62
     0
 10
0.0
 20
0.0
 30
0.0
 11
-1.0
 21
0.0
 31
0.0
  0
ENDBLK
  5
7F6D1
  8
0
  0
BLOCK
  8
0
  2
NO3CIRCLE
 70
     2
 10
0.0
 20
0.0
 30
0.0
  3
NO3CIRCLE
  1

  0
CIRCLE
  5
B10DC
  8
0
  6
BYBLOCK
 62
     0
 10
0.0
 20
0.0
 30
0.0
 40
4.2
  0
ATTDEF
  5
B10DD
  8
1TEXT
 10
-3.428571428571428
 20
-2.0
 30
0.0
 40
4.0
  1
000
 41
0.6
  7
STANDARD06
 72
     4
 11
0.0
 21
0.0
 31
0.0
  3
NO3
  2
NO3
 70
     0
  0
ENDBLK
  5
B122B
  8
0
  0
BLOCK
  8
0
  2
*X1883
 70
     1
 10
0.0
 20
0.0
 30
0.0
  3
*X1883
  1

  0
LINE
  5
DE365
  8
0
  6
CONTINUOUS
 10
3.418023043697893
 20
7.251849696850613
 30
0.0
 11
4.929273346838536
 21
8.763099999991255
 31
0.0
  0
LINE
  5
DE366
  8
0
  6
CONTINUOUS
 10
1.483656411257782
 20
4.643963855330318
 30
0.0
 11
5.60279255591872
 21
8.763099999991255
 31
0.0
  0
LINE
  5
DE367
  8
0
  6
CONTINUOUS
 10
1.755053947328235
 20
4.241842182320584
 30
0.0
 11
6.276311764998907
 21
8.763099999991255
 31
0.0
  0
LINE
  5
DE368
  8
0
  6
CONTINUOUS
 10
2.026451483398688
 20
3.839720509310849
 30
0.0
 11
4.441040904851878
 21
6.254309930764039
 31
0.0
  0
LINE
  5
DE369
  8
0
  6
CONTINUOUS
 10
2.297849019469139
 20
3.437598836301114
 30
0.0
 11
3.321765168359338
 21
4.461514985191313
 31
0.0
  0
LINE
  5
DE36A
  8
0
  6
CONTINUOUS
 10
2.569246555539591
 20
3.03547716329138
 30
0.0
 11
3.593163397972743
 21
4.059394005724531
 31
0.0
  0
LINE
  5
DE36B
  8
0
  6
CONTINUOUS
 10
2.840644091610043
 20
2.633355490281646
 30
0.0
 11
3.864561627586149
 21
3.657273026257751
 31
0.0
  0
LINE
  5
DE36C
  8
0
  6
CONTINUOUS
 10
3.112041627680496
 20
2.231233817271911
 30
0.0
 11
4.135959857199554
 21
3.25515204679097
 31
0.0
  0
LINE
  5
DE36D
  8
0
  6
CONTINUOUS
 10
3.383439163750948
 20
1.829112144262177
 30
0.0
 11
4.40735808681296
 21
2.853031067324189
 31
0.0
  0
LINE
  5
DE36E
  8
0
  6
CONTINUOUS
 10
3.654836699821399
 20
1.426990471252442
 30
0.0
 11
4.678756316426365
 21
2.450910087857407
 31
0.0
  0
LINE
  5
DE36F
  8
0
  6
CONTINUOUS
 10
3.926234235891853
 20
1.024868798242709
 30
0.0
 11
4.95015454603977
 21
2.048789108390626
 31
0.0
  0
LINE
  5
DE370
  8
0
  6
CONTINUOUS
 10
4.197631771962304
 20
0.6227471252329737
 30
0.0
 11
5.221552775653176
 21
1.646668128923846
 31
0.0
  0
LINE
  5
DE371
  8
0
  6
CONTINUOUS
 10
8.715877546767851
 20
7.835069736359266
 30
0.0
 11
9.435953450375058
 21
8.555145639966472
 31
0.0
  0
LINE
  5
DE372
  8
0
  6
CONTINUOUS
 10
8.170620868422267
 20
6.616293848933497
 30
0.0
 11
9.644120833743461
 21
8.08979381425469
 31
0.0
  0
LINE
  5
DE373
  8
0
  6
CONTINUOUS
 10
7.625364190076684
 20
5.397517961507727
 30
0.0
 11
9.852288217111864
 21
7.624441988542907
 31
0.0
  0
LINE
  5
DE374
  8
0
  6
CONTINUOUS
 10
7.080107511731101
 20
4.178742074081957
 30
0.0
 11
10.06045560048027
 21
7.159090162831124
 31
0.0
  0
LINE
  5
DE375
  8
0
  6
CONTINUOUS
 10
6.534850833385518
 20
2.959966186656187
 30
0.0
 11
10.26862298384867
 21
6.693738337119342
 31
0.0
  0
LINE
  5
DE376
  8
0
  6
CONTINUOUS
 10
4.469029308032756
 20
0.2206254522232385
 30
0.0
 11
5.492951005266582
 21
1.244547149457064
 31
0.0
  0
LINE
  5
DE377
  8
0
  6
CONTINUOUS
 10
5.989594155039935
 20
1.741190299230417
 30
0.0
 11
8.806950407233131
 21
4.558546551423613
 31
0.0
  0
LINE
  5
DE378
  8
0
  6
CONTINUOUS
 10
9.401251593263643
 20
5.152847737454126
 30
0.0
 11
10.47679036721708
 21
6.228386511407559
 31
0.0
  0
LINE
  5
DE379
  8
0
  6
CONTINUOUS
 10
4.921837203428691
 20
-0.0000858614610131
 30
0.0
 11
8.592923064886001
 21
3.670999999996297
 31
0.0
  0
LINE
  5
DE37A
  8
0
  6
CONTINUOUS
 10
9.609390446785305
 20
4.6874673818956
 30
0.0
 11
10.68495775058548
 21
5.763034685695775
 31
0.0
  0
LINE
  5
DE37B
  8
0
  6
CONTINUOUS
 10
5.595387755019432
 20
-0.0000545189504582
 30
0.0
 11
7.716137258923768
 21
2.120694984953879
 31
0.0
  0
LINE
  5
DE37C
  8
0
  6
CONTINUOUS
 10
6.268938306610172
 20
-0.000023176439905
 30
0.0
 11
7.170485805526503
 21
0.9015243224764267
 31
0.0
  0
LINE
  5
DE37D
  8
0
  6
CONTINUOUS
 10
7.963842273967511
 20
2.368399999997621
 30
0.0
 11
9.266442273966188
 21
3.670999999996297
 31
0.0
  0
LINE
  5
DE37E
  8
0
  6
CONTINUOUS
 10
8.637361483047696
 20
2.368399999997621
 30
0.0
 11
9.939961483046375
 21
3.670999999996297
 31
0.0
  0
LINE
  5
DE37F
  8
0
  6
CONTINUOUS
 10
9.817529300306965
 20
4.222087026337075
 30
0.0
 11
10.89312513395388
 21
5.297682859983993
 31
0.0
  0
LINE
  5
DE380
  8
0
  6
CONTINUOUS
 10
10.02566815382863
 20
3.756706670778549
 30
0.0
 11
11.10129251732229
 21
4.832331034272211
 31
0.0
  0
LINE
  5
DE381
  8
0
  6
CONTINUOUS
 10
9.310880692127883
 20
2.368399999997621
 30
0.0
 11
11.30945990069069
 21
4.366979208560428
 31
0.0
  0
LINE
  5
DE382
  8
0
  6
CONTINUOUS
 10
9.98439990120807
 20
2.36839999999762
 30
0.0
 11
11.5176272840591
 21
3.901627382848645
 31
0.0
  0
LINE
  5
DE383
  8
0
  6
CONTINUOUS
 10
10.65037369446246
 20
2.36085458417182
 30
0.0
 11
11.7257946674275
 21
3.436275557136862
 31
0.0
  0
LINE
  5
DE384
  8
0
  6
CONTINUOUS
 10
10.85847197087848
 20
1.895433651507656
 30
0.0
 11
11.9339620507959
 21
2.97092373142508
 31
0.0
  0
LINE
  5
DE385
  8
0
  6
CONTINUOUS
 10
11.0665702472945
 20
1.430012718843491
 30
0.0
 11
12.14212943416431
 21
2.505571905713296
 31
0.0
  0
LINE
  5
DE386
  8
0
  6
CONTINUOUS
 10
11.27466852371052
 20
0.9645917861793256
 30
0.0
 11
12.35029681753271
 21
2.040220080001513
 31
0.0
  0
LINE
  5
DE387
  8
0
  6
CONTINUOUS
 10
11.48276680012654
 20
0.4991708535151611
 30
0.0
 11
12.55846420090111
 21
1.57486825428973
 31
0.0
  0
LINE
  5
DE388
  8
0
  6
CONTINUOUS
 10
11.69086507654257
 20
0.0337499208509957
 30
0.0
 11
12.76663158426952
 21
1.109516428577947
 31
0.0
  0
LINE
  5
DE389
  8
0
  6
CONTINUOUS
 10
12.33057447873954
 20
-0.0000598860322123
 30
0.0
 11
12.97479896763792
 21
0.6441646028661663
 31
0.0
  0
LINE
  5
DE38A
  8
0
  6
CONTINUOUS
 10
13.00413694809395
 20
-0.0000166257579952
 30
0.0
 11
13.18296635100632
 21
0.1788127771543824
 31
0.0
  0
LINE
  5
DE38B
  8
0
  6
CONTINUOUS
 10
4.772852165289667
 20
-0.000092794222212
 30
0.0
 11
4.296495091028902
 21
0.4762642800385528
 31
0.0
  0
LINE
  5
DE38C
  8
0
  6
CONTINUOUS
 10
5.446340034776103
 20
-0.0000614546284616
 30
0.0
 11
2.898195908335625
 21
2.548082671812017
 31
0.0
  0
LINE
  5
DE38D
  8
0
  6
CONTINUOUS
 10
6.119827904262539
 20
-0.0000301150347113
 30
0.0
 11
1.499896725642348
 21
4.61990106358548
 31
0.0
  0
LINE
  5
DE38E
  8
0
  6
CONTINUOUS
 10
6.775136745476159
 20
0.0181802528318542
 30
0.0
 11
5.699826040202669
 21
1.093490958105344
 31
0.0
  0
LINE
  5
DE38F
  8
0
  6
CONTINUOUS
 10
6.983376846288489
 20
0.4834593610997118
 30
0.0
 11
5.908008617934405
 21
1.558827589453796
 31
0.0
  0
LINE
  5
DE390
  8
0
  6
CONTINUOUS
 10
5.377063484962296
 20
1.416253513345719
 30
0.0
 11
1.702276957014131
 21
5.091040041293883
 31
0.0
  0
LINE
  5
DE391
  8
0
  6
CONTINUOUS
 10
3.978745891735324
 20
3.488090315652877
 30
0.0
 11
2.000373521109399
 21
5.466462686278803
 31
0.0
  0
LINE
  5
DE392
  8
0
  6
CONTINUOUS
 10
7.191616947100819
 20
0.948738469367568
 30
0.0
 11
6.11619119566614
 21
2.024164220802247
 31
0.0
  0
LINE
  5
DE393
  8
0
  6
CONTINUOUS
 10
7.399857047913149
 20
1.414017577635424
 30
0.0
 11
6.324373773397875
 21
2.489500852150698
 31
0.0
  0
LINE
  5
DE394
  8
0
  6
CONTINUOUS
 10
7.608097148725479
 20
1.879296685903281
 30
0.0
 11
6.53255635112961
 21
2.95483748349915
 31
0.0
  0
LINE
  5
DE395
  8
0
  6
CONTINUOUS
 10
7.816337249537808
 20
2.344575794171138
 30
0.0
 11
6.740738928861345
 21
3.420174114847601
 31
0.0
  0
LINE
  5
DE396
  8
0
  6
CONTINUOUS
 10
3.310241080789734
 20
4.830114335678653
 30
0.0
 11
2.298470085204666
 21
5.84188533126372
 31
0.0
  0
LINE
  5
DE397
  8
0
  6
CONTINUOUS
 10
3.60832983563551
 20
5.205544789913063
 30
0.0
 11
2.596566649299935
 21
6.217307976248638
 31
0.0
  0
LINE
  5
DE398
  8
0
  6
CONTINUOUS
 10
3.906418590481286
 20
5.580975244147473
 30
0.0
 11
2.894663213395203
 21
6.592730621233557
 31
0.0
  0
LINE
  5
DE399
  8
0
  6
CONTINUOUS
 10
4.204507345327062
 20
5.956405698381884
 30
0.0
 11
3.192759777490472
 21
6.968153266218474
 31
0.0
  0
LINE
  5
DE39A
  8
0
  6
CONTINUOUS
 10
8.466032252791512
 20
2.368399999997621
 30
0.0
 11
6.948921506593081
 21
3.885510746196053
 31
0.0
  0
LINE
  5
DE39B
  8
0
  6
CONTINUOUS
 10
9.139551461871699
 20
2.36839999999762
 30
0.0
 11
7.157104084324816
 21
4.350847377544504
 31
0.0
  0
LINE
  5
DE39C
  8
0
  6
CONTINUOUS
 10
4.502596100172839
 20
6.331836152616295
 30
0.0
 11
3.49085634158574
 21
7.343575911203393
 31
0.0
  0
LINE
  5
DE39D
  8
0
  6
CONTINUOUS
 10
4.800684855018615
 20
6.707266606850705
 30
0.0
 11
3.788952905681008
 21
7.718998556188312
 31
0.0
  0
LINE
  5
DE39E
  8
0
  6
CONTINUOUS
 10
12.18154012887317
 20
-0.0000694579236642
 30
0.0
 11
11.32140332908496
 21
0.8600673418645499
 31
0.0
  0
LINE
  5
DE39F
  8
0
  6
CONTINUOUS
 10
12.85501608323566
 20
-0.0000262032059659
 30
0.0
 11
10.77672456435345
 21
2.078265315676246
 31
0.0
  0
LINE
  5
DE3A0
  8
0
  6
CONTINUOUS
 10
9.813070670951886
 20
2.36839999999762
 30
0.0
 11
8.51047067095321
 21
3.670999999996297
 31
0.0
  0
LINE
  5
DE3A1
  8
0
  6
CONTINUOUS
 10
10.48658988003207
 20
2.36839999999762
 30
0.0
 11
9.183989880033396
 21
3.670999999996297
 31
0.0
  0
LINE
  5
DE3A2
  8
0
  6
CONTINUOUS
 10
8.441048632286794
 20
3.740422038662712
 30
0.0
 11
7.365286662056551
 21
4.816184008892956
 31
0.0
  0
LINE
  5
DE3A3
  8
0
  6
CONTINUOUS
 10
8.649187485808454
 20
4.205802394221237
 30
0.0
 11
7.573469239788285
 21
5.281520640241407
 31
0.0
  0
LINE
  5
DE3A4
  8
0
  6
CONTINUOUS
 10
5.098773609864391
 20
7.082697061085115
 30
0.0
 11
4.087049469776277
 21
8.09442120117323
 31
0.0
  0
LINE
  5
DE3A5
  8
0
  6
CONTINUOUS
 10
5.396862364710167
 20
7.458127515319526
 30
0.0
 11
4.385146033871544
 21
8.469843846158149
 31
0.0
  0
LINE
  5
DE3A6
  8
0
  6
CONTINUOUS
 10
13.04801363231285
 20
0.4804954567970334
 30
0.0
 11
9.85750908911358
 21
3.670999999996297
 31
0.0
  0
LINE
  5
DE3A7
  8
0
  6
CONTINUOUS
 10
8.857326339330116
 20
4.671182749779763
 30
0.0
 11
7.781651817520021
 21
5.746857271589858
 31
0.0
  0
LINE
  5
DE3A8
  8
0
  6
CONTINUOUS
 10
5.694951119555943
 20
7.833557969553937
 30
0.0
 11
4.765409089118624
 21
8.763099999991255
 31
0.0
  0
LINE
  5
DE3A9
  8
0
  6
CONTINUOUS
 10
12.50286117236978
 20
1.699167125820288
 30
0.0
 11
9.68611877250287
 21
4.515909525687196
 31
0.0
  0
LINE
  5
DE3AA
  8
0
  6
CONTINUOUS
 10
9.065465192851777
 20
5.136563105338288
 30
0.0
 11
7.989834395251757
 21
6.21219390293831
 31
0.0
  0
LINE
  5
DE3AB
  8
0
  6
CONTINUOUS
 10
5.993039874401719
 20
8.208988423788346
 30
0.0
 11
5.43892829819881
 21
8.763099999991255
 31
0.0
  0
LINE
  5
DE3AC
  8
0
  6
CONTINUOUS
 10
11.95770871242671
 20
2.917838794843543
 30
0.0
 11
8.19801697298349
 21
6.677530534286761
 31
0.0
  0
LINE
  5
DE3AD
  8
0
  6
CONTINUOUS
 10
6.291128629247495
 20
8.584418878022756
 30
0.0
 11
6.112447507278997
 21
8.763099999991255
 31
0.0
  0
LINE
  5
DE3AE
  8
0
  6
CONTINUOUS
 10
11.41255625248364
 20
4.136510463866797
 30
0.0
 11
8.406199550715227
 21
7.142867165635211
 31
0.0
  0
LINE
  5
DE3AF
  8
0
  6
CONTINUOUS
 10
10.86740379254057
 20
5.355182132890051
 30
0.0
 11
8.614382128446962
 21
7.608203796983664
 31
0.0
  0
LINE
  5
DE3B0
  8
0
  6
CONTINUOUS
 10
10.3222513325975
 20
6.573853801913305
 30
0.0
 11
8.822564706178696
 21
8.073540428332114
 31
0.0
  0
LINE
  5
DE3B1
  8
0
  6
CONTINUOUS
 10
9.777098872654436
 20
7.792525470936562
 30
0.0
 11
9.030747283910433
 21
8.538877059680566
 31
0.0
  0
ENDBLK
  5
DE4F5
  8
0
  0
BLOCK
  8
0
  2
*X1884
 70
     1
 10
0.0
 20
0.0
 30
0.0
  3
*X1884
  1

  0
LINE
  5
DE3B3
  8
0
  6
CONTINUOUS
 10
10.67292308101235
 20
8.445076852443387
 30
0.0
 11
10.99094622856022
 21
8.763099999991255
 31
0.0
  0
LINE
  5
DE3B4
  8
0
  6
CONTINUOUS
 10
10.87250383178748
 20
7.971138394138331
 30
0.0
 11
11.6644654376404
 21
8.763099999991255
 31
0.0
  0
LINE
  5
DE3B5
  8
0
  6
CONTINUOUS
 10
11.07208458256261
 20
7.497199935833273
 30
0.0
 11
12.12126590876355
 21
8.546381262034211
 31
0.0
  0
LINE
  5
DE3B6
  8
0
  6
CONTINUOUS
 10
11.27166533333774
 20
7.023261477528216
 30
0.0
 11
12.32085164573666
 21
8.072447789927136
 31
0.0
  0
LINE
  5
DE3B7
  8
0
  6
CONTINUOUS
 10
11.47124608411287
 20
6.549323019223158
 30
0.0
 11
12.52043738270977
 21
7.59851431782006
 31
0.0
  0
LINE
  5
DE3B8
  8
0
  6
CONTINUOUS
 10
11.670826834888
 20
6.075384560918101
 30
0.0
 11
12.72002311968288
 21
7.124580845712984
 31
0.0
  0
LINE
  5
DE3B9
  8
0
  6
CONTINUOUS
 10
11.87040758566313
 20
5.601446102613043
 30
0.0
 11
12.91960885665599
 21
6.650647373605907
 31
0.0
  0
LINE
  5
DE3BA
  8
0
  6
CONTINUOUS
 10
12.06998833643825
 20
5.127507644307986
 30
0.0
 11
13.1191945936291
 21
6.176713901498832
 31
0.0
  0
LINE
  5
DE3BB
  8
0
  6
CONTINUOUS
 10
12.26956908721338
 20
4.65356918600293
 30
0.0
 11
13.31878033060221
 21
5.702780429391757
 31
0.0
  0
LINE
  5
DE3BC
  8
0
  6
CONTINUOUS
 10
12.46914983798851
 20
4.179630727697873
 30
0.0
 11
13.51836606757532
 21
5.228846957284683
 31
0.0
  0
LINE
  5
DE3BD
  8
0
  6
CONTINUOUS
 10
12.66873058876364
 20
3.705692269392816
 30
0.0
 11
13.71795180454843
 21
4.754913485177607
 31
0.0
  0
LINE
  5
DE3BE
  8
0
  6
CONTINUOUS
 10
12.86831133953877
 20
3.231753811087759
 30
0.0
 11
13.91753754152154
 21
4.280980013070531
 31
0.0
  0
LINE
  5
DE3BF
  8
0
  6
CONTINUOUS
 10
13.0678920903139
 20
2.757815352782702
 30
0.0
 11
14.11712327849465
 21
3.807046540963456
 31
0.0
  0
LINE
  5
DE3C0
  8
0
  6
CONTINUOUS
 10
13.26747284108903
 20
2.283876894477644
 30
0.0
 11
14.31670901546777
 21
3.333113068856379
 31
0.0
  0
LINE
  5
DE3C1
  8
0
  6
CONTINUOUS
 10
16.36767838827179
 20
8.751678487061342
 30
0.0
 11
16.50332410898388
 21
8.887324207773432
 31
0.0
  0
LINE
  5
DE3C2
  8
0
  6
CONTINUOUS
 10
15.96190732182191
 20
7.67238821153127
 30
0.0
 11
16.68735328004734
 21
8.397834169756699
 31
0.0
  0
LINE
  5
DE3C3
  8
0
  6
CONTINUOUS
 10
15.55613625537202
 20
6.593097936001196
 30
0.0
 11
16.87138245111079
 21
7.908344131739965
 31
0.0
  0
LINE
  5
DE3C4
  8
0
  6
CONTINUOUS
 10
15.15036518892213
 20
5.513807660471122
 30
0.0
 11
17.05541162217424
 21
7.418854093723231
 31
0.0
  0
LINE
  5
DE3C5
  8
0
  6
CONTINUOUS
 10
14.74459412247225
 20
4.434517384941048
 30
0.0
 11
17.2394407932377
 21
6.929364055706499
 31
0.0
  0
LINE
  5
DE3C6
  8
0
  6
CONTINUOUS
 10
14.33882305602236
 20
3.355227109410975
 30
0.0
 11
17.42346996430115
 21
6.439874017689766
 31
0.0
  0
LINE
  5
DE3C7
  8
0
  6
CONTINUOUS
 10
13.46705359186416
 20
1.809938436172586
 30
0.0
 11
16.0819338255367
 21
4.424818669845129
 31
0.0
  0
LINE
  5
DE3C8
  8
0
  6
CONTINUOUS
 10
16.63283254238972
 20
4.975717386698149
 30
0.0
 11
17.60749913536461
 21
5.950383979673033
 31
0.0
  0
LINE
  5
DE3C9
  8
0
  6
CONTINUOUS
 10
13.66663434263929
 20
1.335999977867529
 30
0.0
 11
15.67604797733754
 21
3.345413612565779
 31
0.0
  0
LINE
  5
DE3CA
  8
0
  6
CONTINUOUS
 10
13.86621509341442
 20
0.8620615195624723
 30
0.0
 11
15.27016212913838
 21
2.26600855528643
 31
0.0
  0
LINE
  5
DE3CB
  8
0
  6
CONTINUOUS
 10
16.81682257348267
 20
4.486188208710908
 30
0.0
 11
17.79152830642806
 21
5.460893941656299
 31
0.0
  0
LINE
  5
DE3CC
  8
0
  6
CONTINUOUS
 10
17.00081260457561
 20
3.996659030723667
 30
0.0
 11
17.97555747749151
 21
4.971403903639565
 31
0.0
  0
LINE
  5
DE3CD
  8
0
  6
CONTINUOUS
 10
20.74362343514722
 20
8.412989070375462
 30
0.0
 11
21.09373436476302
 21
8.763099999991256
 31
0.0
  0
LINE
  5
DE3CE
  8
0
  6
CONTINUOUS
 10
20.25401257174777
 20
7.249858997895826
 30
0.0
 11
21.7672535738432
 21
8.763099999991255
 31
0.0
  0
LINE
  5
DE3CF
  8
0
  6
CONTINUOUS
 10
14.06579584418955
 20
0.3881230612574149
 30
0.0
 11
14.86427628093921
 21
1.186603498007082
 31
0.0
  0
LINE
  5
DE3D0
  8
0
  6
CONTINUOUS
 10
14.26537659496467
 20
-0.0858153970476412
 30
0.0
 11
14.45839043274005
 21
0.1071984407277329
 31
0.0
  0
LINE
  5
DE3D1
  8
0
  6
CONTINUOUS
 10
17.18480263566856
 20
3.507129852736426
 30
0.0
 11
18.15958664855496
 21
4.481913865622833
 31
0.0
  0
LINE
  5
DE3D2
  8
0
  6
CONTINUOUS
 10
17.3687926667615
 20
3.017600674749186
 30
0.0
 11
18.34361581961842
 21
3.9924238276061
 31
0.0
  0
LINE
  5
DE3D3
  8
0
  6
CONTINUOUS
 10
19.76440170834832
 20
6.086728925416191
 30
0.0
 11
22.33924590259489
 21
8.661573119662755
 31
0.0
  0
LINE
  5
DE3D4
  8
0
  6
CONTINUOUS
 10
19.27479084494887
 20
4.923598852936555
 30
0.0
 11
21.84929622842713
 21
7.498104236414807
 31
0.0
  0
LINE
  5
DE3D5
  8
0
  6
CONTINUOUS
 10
17.55278269785445
 20
2.528071496761945
 30
0.0
 11
18.52764499068187
 21
3.502933789589366
 31
0.0
  0
LINE
  5
DE3D6
  8
0
  6
CONTINUOUS
 10
18.78517998154942
 20
3.760468780456919
 30
0.0
 11
21.35934655425936
 21
6.33463535316686
 31
0.0
  0
LINE
  5
DE3D7
  8
0
  6
CONTINUOUS
 10
17.73677272894739
 20
2.038542318774704
 30
0.0
 11
20.8693968800916
 21
5.171166469918914
 31
0.0
  0
LINE
  5
DE3D8
  8
0
  6
CONTINUOUS
 10
17.92076276004034
 20
1.549013140787464
 30
0.0
 11
20.37944720592384
 21
4.007697586670968
 31
0.0
  0
LINE
  5
DE3D9
  8
0
  6
CONTINUOUS
 10
18.10475279113329
 20
1.059483962800223
 30
0.0
 11
19.88949753175608
 21
2.84422870342302
 31
0.0
  0
LINE
  5
DE3DA
  8
0
  6
CONTINUOUS
 10
18.28874282222623
 20
0.5699547848129822
 30
0.0
 11
19.39954785758832
 21
1.680759820175074
 31
0.0
  0
LINE
  5
DE3DB
  8
0
  6
CONTINUOUS
 10
18.47273285331918
 20
0.0804256068257416
 30
0.0
 11
18.90959818342056
 21
0.517290936927127
 31
0.0
  0
LINE
  5
DE3DC
  8
0
  6
CONTINUOUS
 10
14.3590401358224
 20
-0.1570118376323384
 30
0.0
 11
14.24903296539946
 21
-0.0470046672093929
 31
0.0
  0
LINE
  5
DE3DD
  8
0
  6
CONTINUOUS
 10
14.54309291258661
 20
0.332454594683643
 30
0.0
 11
13.75908329123172
 21
1.116464216038529
 31
0.0
  0
LINE
  5
DE3DE
  8
0
  6
CONTINUOUS
 10
14.72714568935081
 20
0.8219210269996244
 30
0.0
 11
13.26913361706399
 21
2.27993309928645
 31
0.0
  0
LINE
  5
DE3DF
  8
0
  6
CONTINUOUS
 10
14.91119846611502
 20
1.311387459315606
 30
0.0
 11
12.77918394289625
 21
3.443401982534371
 31
0.0
  0
LINE
  5
DE3E0
  8
0
  6
CONTINUOUS
 10
15.09525124287922
 20
1.800853891631587
 30
0.0
 11
12.28923426872852
 21
4.606870865782293
 31
0.0
  0
LINE
  5
DE3E1
  8
0
  6
CONTINUOUS
 10
15.27930401964343
 20
2.290320323947569
 30
0.0
 11
11.79928459456078
 21
5.770339749030213
 31
0.0
  0
LINE
  5
DE3E2
  8
0
  6
CONTINUOUS
 10
15.46335679640763
 20
2.77978675626355
 30
0.0
 11
14.48885470994921
 21
3.754288842721972
 31
0.0
  0
LINE
  5
DE3E3
  8
0
  6
CONTINUOUS
 10
13.88507249233704
 20
4.358071060334137
 30
0.0
 11
11.30933492039305
 21
6.933808632278135
 31
0.0
  0
LINE
  5
DE3E4
  8
0
  6
CONTINUOUS
 10
18.75840522805855
 20
0.1582575336928151
 30
0.0
 11
18.25383727664818
 21
0.6628254851031863
 31
0.0
  0
LINE
  5
DE3E5
  8
0
  6
CONTINUOUS
 10
15.64740957317184
 20
3.269253188579531
 30
0.0
 11
14.67288388101266
 21
4.243778880738705
 31
0.0
  0
LINE
  5
DE3E6
  8
0
  6
CONTINUOUS
 10
13.39509276772158
 20
5.521569994029786
 30
0.0
 11
10.81938524622531
 21
8.097277515526056
 31
0.0
  0
LINE
  5
DE3E7
  8
0
  6
CONTINUOUS
 10
18.95798597883369
 20
0.6321959919978686
 30
0.0
 11
17.84825644852853
 21
1.741925522303024
 31
0.0
  0
LINE
  5
DE3E8
  8
0
  6
CONTINUOUS
 10
19.15756672960882
 20
1.106134450302922
 30
0.0
 11
17.44267562040888
 21
2.821025559502861
 31
0.0
  0
LINE
  5
DE3E9
  8
0
  6
CONTINUOUS
 10
15.83146234993604
 20
3.758719620895513
 30
0.0
 11
14.85691305207612
 21
4.733268918755439
 31
0.0
  0
LINE
  5
DE3EA
  8
0
  6
CONTINUOUS
 10
16.01551512670025
 20
4.248186053211494
 30
0.0
 11
15.04094222313957
 21
5.222758956772172
 31
0.0
  0
LINE
  5
DE3EB
  8
0
  6
CONTINUOUS
 10
12.90511304310612
 20
6.685068927725435
 30
0.0
 11
10.8270819708403
 21
8.763099999991255
 31
0.0
  0
LINE
  5
DE3EC
  8
0
  6
CONTINUOUS
 10
12.41513331849066
 20
7.848567861421083
 30
0.0
 11
11.50060117992049
 21
8.763099999991255
 31
0.0
  0
LINE
  5
DE3ED
  8
0
  6
CONTINUOUS
 10
19.35714748038395
 20
1.580072908607975
 30
0.0
 11
17.03709479228923
 21
3.900125596702697
 31
0.0
  0
LINE
  5
DE3EE
  8
0
  6
CONTINUOUS
 10
19.55672823115909
 20
2.054011366913028
 30
0.0
 11
16.63151396416958
 21
4.979225633902534
 31
0.0
  0
LINE
  5
DE3EF
  8
0
  6
CONTINUOUS
 10
16.19956790346445
 20
4.737652485527476
 30
0.0
 11
15.22497139420302
 21
5.712248994788904
 31
0.0
  0
LINE
  5
DE3F0
  8
0
  6
CONTINUOUS
 10
16.38362068022866
 20
5.227118917843457
 30
0.0
 11
15.40900056526648
 21
6.201739032805637
 31
0.0
  0
LINE
  5
DE3F1
  8
0
  6
CONTINUOUS
 10
19.75630898193422
 20
2.527949825218081
 30
0.0
 11
18.70774536448286
 21
3.576513442669441
 31
0.0
  0
LINE
  5
DE3F2
  8
0
  6
CONTINUOUS
 10
19.95588973270936
 20
3.001888283523134
 30
0.0
 11
18.90726987211446
 21
4.050508144118028
 31
0.0
  0
LINE
  5
DE3F3
  8
0
  6
CONTINUOUS
 10
20.15547048348449
 20
3.475826741828186
 30
0.0
 11
19.10679437974606
 21
4.524502845566614
 31
0.0
  0
LINE
  5
DE3F4
  8
0
  6
CONTINUOUS
 10
20.35505123425962
 20
3.94976520013324
 30
0.0
 11
19.30631888737766
 21
4.998497547015201
 31
0.0
  0
LINE
  5
DE3F5
  8
0
  6
CONTINUOUS
 10
20.55463198503475
 20
4.423703658438292
 30
0.0
 11
19.50584339500926
 21
5.472492248463787
 31
0.0
  0
LINE
  5
DE3F6
  8
0
  6
CONTINUOUS
 10
18.37481191085755
 20
3.909446896294752
 30
0.0
 11
15.59302973632993
 21
6.691229070822371
 31
0.0
  0
LINE
  5
DE3F7
  8
0
  6
CONTINUOUS
 10
17.96904084440766
 20
4.988737171824825
 30
0.0
 11
15.77705890739338
 21
7.180719108839104
 31
0.0
  0
LINE
  5
DE3F8
  8
0
  6
CONTINUOUS
 10
17.56326977795777
 20
6.068027447354899
 30
0.0
 11
15.96108807845684
 21
7.670209146855838
 31
0.0
  0
LINE
  5
DE3F9
  8
0
  6
CONTINUOUS
 10
17.15749871150789
 20
7.147317722884972
 30
0.0
 11
16.14511724952029
 21
8.15969918487257
 31
0.0
  0
LINE
  5
DE3FA
  8
0
  6
CONTINUOUS
 10
16.751727645058
 20
8.226607998415046
 30
0.0
 11
16.32914642058374
 21
8.649189222889303
 31
0.0
  0
LINE
  5
DE3FB
  8
0
  6
CONTINUOUS
 10
20.75421273580989
 20
4.897642116743345
 30
0.0
 11
19.70536790264086
 21
5.946486949912374
 31
0.0
  0
LINE
  5
DE3FC
  8
0
  6
CONTINUOUS
 10
20.95379348658502
 20
5.371580575048398
 30
0.0
 11
19.90489241027246
 21
6.42048165136096
 31
0.0
  0
LINE
  5
DE3FD
  8
0
  6
CONTINUOUS
 10
21.15337423736015
 20
5.845519033353452
 30
0.0
 11
20.10441691790406
 21
6.894476352809547
 31
0.0
  0
LINE
  5
DE3FE
  8
0
  6
CONTINUOUS
 10
21.35295498813529
 20
6.319457491658505
 30
0.0
 11
20.30394142553566
 21
7.368471054258134
 31
0.0
  0
LINE
  5
DE3FF
  8
0
  6
CONTINUOUS
 10
21.55253573891042
 20
6.793395949963558
 30
0.0
 11
20.50346593316726
 21
7.842465755706721
 31
0.0
  0
LINE
  5
DE400
  8
0
  6
CONTINUOUS
 10
21.75211648968556
 20
7.267334408268612
 30
0.0
 11
20.70299044079886
 21
8.316460457155308
 31
0.0
  0
LINE
  5
DE401
  8
0
  6
CONTINUOUS
 10
21.95169724046069
 20
7.741272866573663
 30
0.0
 11
20.9298701070431
 21
8.763099999991256
 31
0.0
  0
LINE
  5
DE402
  8
0
  6
CONTINUOUS
 10
22.15127799123582
 20
8.215211324878716
 30
0.0
 11
21.60338931612328
 21
8.763099999991256
 31
0.0
  0
LINE
  5
DE403
  8
0
  6
CONTINUOUS
 10
22.35085874201096
 20
8.689149783183769
 30
0.0
 11
22.27690852520347
 21
8.763099999991255
 31
0.0
  0
ENDBLK
  5
DE4F7
  8
0
  0
BLOCK
  8
0
  2
*X1885
 70
     1
 10
0.0
 20
0.0
 30
0.0
  3
*X1885
  1

  0
LINE
  5
DE405
  8
0
  6
CONTINUOUS
 10
23.19462913593892
 20
8.169917934846424
 30
0.0
 11
23.70775465517246
 21
8.683043454079957
 31
0.0
  0
LINE
  5
DE406
  8
0
  6
CONTINUOUS
 10
22.64923161835078
 20
6.951001208178088
 30
0.0
 11
23.9159364069932
 21
8.217705996820516
 31
0.0
  0
LINE
  5
DE407
  8
0
  6
CONTINUOUS
 10
22.10383410076263
 20
5.732084481509751
 30
0.0
 11
24.12411815881395
 21
7.752368539561078
 31
0.0
  0
LINE
  5
DE408
  8
0
  6
CONTINUOUS
 10
21.55843658317447
 20
4.513167754841414
 30
0.0
 11
24.3322999106347
 21
7.287031082301639
 31
0.0
  0
LINE
  5
DE409
  8
0
  6
CONTINUOUS
 10
21.01303906558632
 20
3.294251028173077
 30
0.0
 11
24.54048166245544
 21
6.821693625042199
 31
0.0
  0
LINE
  5
DE40A
  8
0
  6
CONTINUOUS
 10
20.46764154799817
 20
2.075334301504738
 30
0.0
 11
23.28571549467848
 21
4.89340824818505
 31
0.0
  0
LINE
  5
DE40B
  8
0
  6
CONTINUOUS
 10
19.92224403041002
 20
0.8564175748364002
 30
0.0
 11
22.74075865492779
 21
3.674932199354171
 31
0.0
  0
LINE
  5
DE40C
  8
0
  6
CONTINUOUS
 10
23.67305085490148
 20
5.280743608408048
 30
0.0
 11
24.74866341427619
 21
6.356356167782759
 31
0.0
  0
LINE
  5
DE40D
  8
0
  6
CONTINUOUS
 10
23.88118970842314
 20
4.815363252849522
 30
0.0
 11
24.95684516609694
 21
5.89101871052332
 31
0.0
  0
LINE
  5
DE40E
  8
0
  6
CONTINUOUS
 10
19.73925852647308
 20
-0.0000871381807288
 30
0.0
 11
23.4103456646501
 21
3.670999999996297
 31
0.0
  0
LINE
  5
DE40F
  8
0
  6
CONTINUOUS
 10
24.0893285619448
 20
4.349982897290997
 30
0.0
 11
25.16502691791769
 21
5.42568125326388
 31
0.0
  0
LINE
  5
DE410
  8
0
  6
CONTINUOUS
 10
20.41282099582748
 20
-0.0000438779065108
 30
0.0
 11
21.64944178675636
 21
1.236576913022366
 31
0.0
  0
LINE
  5
DE411
  8
0
  6
CONTINUOUS
 10
22.78126487373161
 20
2.36839999999762
 30
0.0
 11
24.08386487373029
 21
3.670999999996297
 31
0.0
  0
LINE
  5
DE412
  8
0
  6
CONTINUOUS
 10
24.29746741546646
 20
3.884602541732471
 30
0.0
 11
25.37320866973843
 21
4.960343796004441
 31
0.0
  0
LINE
  5
DE413
  8
0
  6
CONTINUOUS
 10
21.08638346518189
 20
-0.0000006176322938
 30
0.0
 11
21.10379033335899
 21
0.0174062505448083
 31
0.0
  0
LINE
  5
DE414
  8
0
  6
CONTINUOUS
 10
23.4547840828118
 20
2.36839999999762
 30
0.0
 11
25.58139042155918
 21
4.495006338745002
 31
0.0
  0
LINE
  5
DE415
  8
0
  6
CONTINUOUS
 10
29.30199999996933
 20
8.215615917155148
 30
0.0
 11
29.84948408280543
 21
8.763099999991255
 31
0.0
  0
LINE
  5
DE416
  8
0
  6
CONTINUOUS
 10
24.12830329189199
 20
2.36839999999762
 30
0.0
 11
25.78957217337993
 21
4.029668881485562
 31
0.0
  0
LINE
  5
DE417
  8
0
  6
CONTINUOUS
 10
29.30199999996933
 20
7.54209670807496
 30
0.0
 11
30.52300329188562
 21
8.763099999991255
 31
0.0
  0
LINE
  5
DE418
  8
0
  6
CONTINUOUS
 10
24.80182250097217
 20
2.36839999999762
 30
0.0
 11
25.99775392520067
 21
3.564331424226122
 31
0.0
  0
LINE
  5
DE419
  8
0
  6
CONTINUOUS
 10
29.30199999996933
 20
6.868577498994774
 30
0.0
 11
30.74199999996926
 21
8.308577498994712
 31
0.0
  0
LINE
  5
DE41A
  8
0
  6
CONTINUOUS
 10
25.13028238392013
 20
2.023340673865392
 30
0.0
 11
26.20593567702142
 21
3.098993966966683
 31
0.0
  0
LINE
  5
DE41B
  8
0
  6
CONTINUOUS
 10
25.33838066033617
 20
1.557919741201244
 30
0.0
 11
26.41411742884217
 21
2.633656509707244
 31
0.0
  0
LINE
  5
DE41C
  8
0
  6
CONTINUOUS
 10
25.54647893675221
 20
1.092498808537098
 30
0.0
 11
26.62229918066291
 21
2.168319052447804
 31
0.0
  0
LINE
  5
DE41D
  8
0
  6
CONTINUOUS
 10
25.75457721316825
 20
0.62707787587295
 30
0.0
 11
26.83048093248366
 21
1.702981595188365
 31
0.0
  0
LINE
  5
DE41E
  8
0
  6
CONTINUOUS
 10
29.30199999996933
 20
6.195058289914587
 30
0.0
 11
30.74199999996926
 21
7.635058289914522
 31
0.0
  0
LINE
  5
DE41F
  8
0
  6
CONTINUOUS
 10
29.30199999996933
 20
5.521539080834401
 30
0.0
 11
30.74199999996926
 21
6.961539080834331
 31
0.0
  0
LINE
  5
DE420
  8
0
  6
CONTINUOUS
 10
29.30199999996933
 20
4.848019871754214
 30
0.0
 11
30.74199999996925
 21
6.288019871754143
 31
0.0
  0
LINE
  5
DE421
  8
0
  6
CONTINUOUS
 10
29.30199999996933
 20
4.174500662674028
 30
0.0
 11
30.74199999996925
 21
5.614500662673953
 31
0.0
  0
LINE
  5
DE422
  8
0
  6
CONTINUOUS
 10
25.96267548958429
 20
0.1616569432088024
 30
0.0
 11
27.18411854636669
 21
1.383099999991207
 31
0.0
  0
LINE
  5
DE423
  8
0
  6
CONTINUOUS
 10
29.30199999996933
 20
3.500981453593841
 30
0.0
 11
30.74199999996925
 21
4.940981453593762
 31
0.0
  0
LINE
  5
DE424
  8
0
  6
CONTINUOUS
 10
26.50763775544691
 20
0.0330999999912356
 30
0.0
 11
27.85763775544689
 21
1.383099999991223
 31
0.0
  0
LINE
  5
DE425
  8
0
  6
CONTINUOUS
 10
29.30199999996933
 20
2.827462244513656
 30
0.0
 11
30.74199999996925
 21
4.267462244513574
 31
0.0
  0
LINE
  5
DE426
  8
0
  6
CONTINUOUS
 10
27.18115696452709
 20
0.0330999999912356
 30
0.0
 11
28.6224847300034
 21
1.474427765467545
 31
0.0
  0
LINE
  5
DE427
  8
0
  6
CONTINUOUS
 10
29.21067223449293
 20
2.062615269957069
 30
0.0
 11
30.74199999996924
 21
3.593943035433383
 31
0.0
  0
LINE
  5
DE428
  8
0
  6
CONTINUOUS
 10
27.85467617360728
 20
0.0330999999912356
 30
0.0
 11
30.74199999996924
 21
2.920423826353195
 31
0.0
  0
LINE
  5
DE429
  8
0
  6
CONTINUOUS
 10
28.61742899356196
 20
0.1223336108657271
 30
0.0
 11
30.65276638909473
 21
2.157671006398498
 31
0.0
  0
LINE
  5
DE42A
  8
0
  6
CONTINUOUS
 10
29.76719820264213
 20
0.5985836108657137
 30
0.0
 11
30.17651638909472
 21
1.0079017973183
 31
0.0
  0
LINE
  5
DE42B
  8
0
  6
CONTINUOUS
 10
19.59027867740337
 20
-0.0000967065718083
 30
0.0
 11
19.55485265190471
 21
0.035329318926844
 31
0.0
  0
LINE
  5
DE42C
  8
0
  6
CONTINUOUS
 10
20.26375463176586
 20
-0.0000534518541091
 30
0.0
 11
19.76305575737534
 21
0.5006454225364014
 31
0.0
  0
LINE
  5
DE42D
  8
0
  6
CONTINUOUS
 10
20.93723058612834
 20
-0.0000101971364099
 30
0.0
 11
19.97125886284597
 21
0.965961526145958
 31
0.0
  0
LINE
  5
DE42E
  8
0
  6
CONTINUOUS
 10
21.25514828313686
 20
0.355591314935257
 30
0.0
 11
20.1794619683166
 21
1.431277629755512
 31
0.0
  0
LINE
  5
DE42F
  8
0
  6
CONTINUOUS
 10
21.46338838394921
 20
0.8208704232030986
 30
0.0
 11
20.38766507378723
 21
1.896593733365069
 31
0.0
  0
LINE
  5
DE430
  8
0
  6
CONTINUOUS
 10
21.67162848476155
 20
1.28614953147094
 30
0.0
 11
20.59586817925786
 21
2.361909836974626
 31
0.0
  0
LINE
  5
DE431
  8
0
  6
CONTINUOUS
 10
21.8798685855739
 20
1.751428639738782
 30
0.0
 11
20.80407128472849
 21
2.827225940584183
 31
0.0
  0
LINE
  5
DE432
  8
0
  6
CONTINUOUS
 10
22.08810868638624
 20
2.216707748006623
 30
0.0
 11
21.01227439019912
 21
3.292542044193739
 31
0.0
  0
LINE
  5
DE433
  8
0
  6
CONTINUOUS
 10
22.60993564347543
 20
2.36839999999762
 30
0.0
 11
21.22047749566975
 21
3.757858147803296
 31
0.0
  0
LINE
  5
DE434
  8
0
  6
CONTINUOUS
 10
23.28345485255561
 20
2.36839999999762
 30
0.0
 11
21.42868060114038
 21
4.223174251412853
 31
0.0
  0
LINE
  5
DE435
  8
0
  6
CONTINUOUS
 10
26.29227406164219
 20
0.0330999999912356
 30
0.0
 11
25.80009199592872
 21
0.5252820657046957
 31
0.0
  0
LINE
  5
DE436
  8
0
  6
CONTINUOUS
 10
23.9569740616358
 20
2.36839999999762
 30
0.0
 11
21.63688370661101
 21
4.688490355022409
 31
0.0
  0
LINE
  5
DE437
  8
0
  6
CONTINUOUS
 10
26.96579327072237
 20
0.0330999999912356
 30
0.0
 11
25.2554132311971
 21
1.743480039516508
 31
0.0
  0
LINE
  5
DE438
  8
0
  6
CONTINUOUS
 10
24.63049327071599
 20
2.36839999999762
 30
0.0
 11
23.32789327071731
 21
3.670999999996297
 31
0.0
  0
LINE
  5
DE439
  8
0
  6
CONTINUOUS
 10
22.92098674744635
 20
4.077906523267254
 30
0.0
 11
21.84508681208164
 21
5.153806458631966
 31
0.0
  0
LINE
  5
DE43A
  8
0
  6
CONTINUOUS
 10
27.63931247980256
 20
0.0330999999912356
 30
0.0
 11
24.0014124797975
 21
3.670999999996297
 31
0.0
  0
LINE
  5
DE43B
  8
0
  6
CONTINUOUS
 10
23.129125600968
 20
4.5432868788258
 30
0.0
 11
22.05328991755227
 21
5.619122562241522
 31
0.0
  0
LINE
  5
DE43C
  8
0
  6
CONTINUOUS
 10
28.31283168888275
 20
0.0330999999912356
 30
0.0
 11
24.16488385994816
 21
4.181047828925828
 31
0.0
  0
LINE
  5
DE43D
  8
0
  6
CONTINUOUS
 10
23.33726445448964
 20
5.008667234384345
 30
0.0
 11
22.2614930230229
 21
6.084438665851079
 31
0.0
  0
LINE
  5
DE43E
  8
0
  6
CONTINUOUS
 10
28.81519848253303
 20
0.2042524154211396
 30
0.0
 11
27.63635089796295
 21
1.383099999991217
 31
0.0
  0
LINE
  5
DE43F
  8
0
  6
CONTINUOUS
 10
26.43704649509776
 20
2.582404402856405
 30
0.0
 11
23.61992702019732
 21
5.399523877756844
 31
0.0
  0
LINE
  5
DE440
  8
0
  6
CONTINUOUS
 10
23.54540330801128
 20
5.47404758994289
 30
0.0
 11
22.46969612849353
 21
6.549754769460635
 31
0.0
  0
LINE
  5
DE441
  8
0
  6
CONTINUOUS
 10
29.29144848253303
 20
0.4015216245013242
 30
0.0
 11
28.30987010704312
 21
1.383099999991234
 31
0.0
  0
LINE
  5
DE442
  8
0
  6
CONTINUOUS
 10
25.89179548232307
 20
3.801174624711282
 30
0.0
 11
22.67789923396416
 21
7.015070873070191
 31
0.0
  0
LINE
  5
DE443
  8
0
  6
CONTINUOUS
 10
29.76769848253303
 20
0.5987908335815084
 30
0.0
 11
28.81310432793121
 21
1.553384988183336
 31
0.0
  0
LINE
  5
DE444
  8
0
  6
CONTINUOUS
 10
25.34654446954838
 20
5.01994484656616
 30
0.0
 11
22.88610233943479
 21
7.480386976679748
 31
0.0
  0
LINE
  5
DE445
  8
0
  6
CONTINUOUS
 10
30.13421977859274
 20
0.9057887466019845
 30
0.0
 11
29.14234640337737
 21
1.897662121817355
 31
0.0
  0
LINE
  5
DE446
  8
0
  6
CONTINUOUS
 10
24.80129345677369
 20
6.238715068421037
 30
0.0
 11
23.09430544490542
 21
7.945703080289305
 31
0.0
  0
LINE
  5
DE447
  8
0
  6
CONTINUOUS
 10
30.33148898767293
 20
1.382038746601982
 30
0.0
 11
29.30199999996933
 21
2.411527734305588
 31
0.0
  0
LINE
  5
DE448
  8
0
  6
CONTINUOUS
 10
30.52875819675312
 20
1.85828874660198
 30
0.0
 11
29.30199999996933
 21
3.085046943385775
 31
0.0
  0
LINE
  5
DE449
  8
0
  6
CONTINUOUS
 10
24.256042443999
 20
7.457485290275915
 30
0.0
 11
23.30250855037605
 21
8.411019183898862
 31
0.0
  0
LINE
  5
DE44A
  8
0
  6
CONTINUOUS
 10
23.71079143122431
 20
8.676255512130794
 30
0.0
 11
23.51071165584668
 21
8.876335287508418
 31
0.0
  0
LINE
  5
DE44B
  8
0
  6
CONTINUOUS
 10
30.72602740583331
 20
2.334538746601978
 30
0.0
 11
29.30199999996933
 21
3.758566152465961
 31
0.0
  0
LINE
  5
DE44C
  8
0
  6
CONTINUOUS
 10
30.74199999996924
 20
2.992085361546236
 30
0.0
 11
29.30199999996933
 21
4.432085361546148
 31
0.0
  0
LINE
  5
DE44D
  8
0
  6
CONTINUOUS
 10
30.74199999996924
 20
3.665604570626419
 30
0.0
 11
29.30199999996933
 21
5.105604570626333
 31
0.0
  0
LINE
  5
DE44E
  8
0
  6
CONTINUOUS
 10
30.74199999996925
 20
4.339123779706602
 30
0.0
 11
29.30199999996933
 21
5.77912377970652
 31
0.0
  0
LINE
  5
DE44F
  8
0
  6
CONTINUOUS
 10
30.74199999996925
 20
5.012642988786785
 30
0.0
 11
29.30199999996933
 21
6.452642988786707
 31
0.0
  0
LINE
  5
DE450
  8
0
  6
CONTINUOUS
 10
30.74199999996925
 20
5.68616219786697
 30
0.0
 11
29.30199999996933
 21
7.126162197866894
 31
0.0
  0
LINE
  5
DE451
  8
0
  6
CONTINUOUS
 10
30.74199999996925
 20
6.359681406947153
 30
0.0
 11
29.30199999996933
 21
7.799681406947081
 31
0.0
  0
LINE
  5
DE452
  8
0
  6
CONTINUOUS
 10
30.74199999996926
 20
7.033200616027337
 30
0.0
 11
29.30199999996933
 21
8.473200616027269
 31
0.0
  0
LINE
  5
DE453
  8
0
  6
CONTINUOUS
 10
30.74199999996926
 20
7.706719825107518
 30
0.0
 11
29.68561982508552
 21
8.763099999991255
 31
0.0
  0
LINE
  5
DE454
  8
0
  6
CONTINUOUS
 10
30.74199999996926
 20
8.380239034187703
 30
0.0
 11
30.35913903416571
 21
8.763099999991255
 31
0.0
  0
ENDBLK
  5
DE4F9
  8
0
  0
BLOCK
  8
0
  2
*X1886
 70
     1
 10
0.0
 20
0.0
 30
0.0
  3
*X1886
  1

  0
LINE
  5
DE456
  8
0
  6
CONTINUOUS
 10
31.64199999996833
 20
8.535058289913598
 30
0.0
 11
31.87004171004599
 21
8.763099999991255
 31
0.0
  0
LINE
  5
DE457
  8
0
  6
CONTINUOUS
 10
31.64199999996833
 20
7.861539080833412
 30
0.0
 11
32.54356091912618
 21
8.763099999991255
 31
0.0
  0
LINE
  5
DE458
  8
0
  6
CONTINUOUS
 10
31.64199999996833
 20
7.188019871753226
 30
0.0
 11
33.08199999996839
 21
8.628019871753281
 31
0.0
  0
LINE
  5
DE459
  8
0
  6
CONTINUOUS
 10
31.64199999996833
 20
6.51450066267304
 30
0.0
 11
33.08199999996839
 21
7.954500662673095
 31
0.0
  0
LINE
  5
DE45A
  8
0
  6
CONTINUOUS
 10
31.64199999996833
 20
5.840981453592853
 30
0.0
 11
33.08199999996839
 21
7.280981453592908
 31
0.0
  0
LINE
  5
DE45B
  8
0
  6
CONTINUOUS
 10
31.64199999996833
 20
5.167462244512667
 30
0.0
 11
33.08199999996839
 21
6.607462244512721
 31
0.0
  0
LINE
  5
DE45C
  8
0
  6
CONTINUOUS
 10
31.64199999996833
 20
4.493943035432481
 30
0.0
 11
33.08199999996839
 21
5.933943035432535
 31
0.0
  0
LINE
  5
DE45D
  8
0
  6
CONTINUOUS
 10
31.64199999996833
 20
3.820423826352293
 30
0.0
 11
33.08199999996839
 21
5.260423826352348
 31
0.0
  0
LINE
  5
DE45E
  8
0
  6
CONTINUOUS
 10
31.64199999996833
 20
3.146904617272106
 30
0.0
 11
33.08199999996839
 21
4.586904617272161
 31
0.0
  0
LINE
  5
DE45F
  8
0
  6
CONTINUOUS
 10
36.23199999996837
 20
8.410423826352325
 30
0.0
 11
36.5846761736073
 21
8.763099999991255
 31
0.0
  0
LINE
  5
DE460
  8
0
  6
CONTINUOUS
 10
36.23199999996837
 20
7.73690461727214
 30
0.0
 11
37.25819538268748
 21
8.763099999991255
 31
0.0
  0
LINE
  5
DE461
  8
0
  6
CONTINUOUS
 10
31.64374005202358
 20
2.475125460247167
 30
0.0
 11
33.08199999996839
 21
3.913385408191974
 31
0.0
  0
LINE
  5
DE462
  8
0
  6
CONTINUOUS
 10
31.78607140823076
 20
1.943937607374161
 30
0.0
 11
33.08199999996839
 21
3.239866199111788
 31
0.0
  0
LINE
  5
DE463
  8
0
  6
CONTINUOUS
 10
31.92840276443794
 20
1.412749754501155
 30
0.0
 11
33.08199999996839
 21
2.566346990031601
 31
0.0
  0
LINE
  5
DE464
  8
0
  6
CONTINUOUS
 10
36.23199999996837
 20
7.063385408191953
 30
0.0
 11
37.67199999996831
 21
8.503385408191894
 31
0.0
  0
LINE
  5
DE465
  8
0
  6
CONTINUOUS
 10
36.23199999996837
 20
6.389866199111767
 30
0.0
 11
37.67199999996831
 21
7.829866199111708
 31
0.0
  0
LINE
  5
DE466
  8
0
  6
CONTINUOUS
 10
36.23199999996837
 20
5.71634699003158
 30
0.0
 11
37.67199999996831
 21
7.156346990031521
 31
0.0
  0
LINE
  5
DE467
  8
0
  6
CONTINUOUS
 10
32.1787326690177
 20
0.9895604500007256
 30
0.0
 11
33.20642631446081
 21
2.017254095443837
 31
0.0
  0
LINE
  5
DE468
  8
0
  6
CONTINUOUS
 10
36.23199999996837
 20
5.042827780951393
 30
0.0
 11
37.67199999996831
 21
6.482827780951334
 31
0.0
  0
LINE
  5
DE469
  8
0
  6
CONTINUOUS
 10
32.51549227355815
 20
0.652800845460991
 30
0.0
 11
33.49903056428258
 21
1.636339136185419
 31
0.0
  0
LINE
  5
DE46A
  8
0
  6
CONTINUOUS
 10
36.23199999996837
 20
4.369308571871207
 30
0.0
 11
37.67199999996831
 21
5.809308571871147
 31
0.0
  0
LINE
  5
DE46B
  8
0
  6
CONTINUOUS
 10
32.8522518780986
 20
0.3160412409212565
 30
0.0
 11
33.93324121824649
 21
1.397030581069147
 31
0.0
  0
LINE
  5
DE46C
  8
0
  6
CONTINUOUS
 10
36.23199999996837
 20
3.69578936279102
 30
0.0
 11
37.67199999996831
 21
5.135789362790962
 31
0.0
  0
LINE
  5
DE46D
  8
0
  6
CONTINUOUS
 10
33.32873687730419
 20
0.1190070310466638
 30
0.0
 11
34.46442907112041
 21
1.254699224862875
 31
0.0
  0
LINE
  5
DE46E
  8
0
  6
CONTINUOUS
 10
36.23199999996837
 20
3.022270153710834
 30
0.0
 11
37.67199999996831
 21
4.462270153710775
 31
0.0
  0
LINE
  5
DE46F
  8
0
  6
CONTINUOUS
 10
33.85992473017767
 20
-0.0233243251600488
 30
0.0
 11
35.24350171668284
 21
1.360252661345124
 31
0.0
  0
LINE
  5
DE470
  8
0
  6
CONTINUOUS
 10
36.18336676155003
 20
2.300117706212307
 30
0.0
 11
37.67199999996831
 21
3.788750944630588
 31
0.0
  0
LINE
  5
DE471
  8
0
  6
CONTINUOUS
 10
34.39111258305115
 20
-0.1656556813667613
 30
0.0
 11
37.67199999996831
 21
3.115231735550401
 31
0.0
  0
LINE
  5
DE472
  8
0
  6
CONTINUOUS
 10
35.11651383431612
 20
-0.1137736391819715
 30
0.0
 11
37.65739306207836
 21
2.427105588580266
 31
0.0
  0
LINE
  5
DE473
  8
0
  6
CONTINUOUS
 10
36.03655818385387
 20
0.1327515012755951
 30
0.0
 11
37.41086792161699
 21
1.507061239038712
 31
0.0
  0
LINE
  5
DE474
  8
0
  6
CONTINUOUS
 10
33.71988657648365
 20
0.0141987850318213
 30
0.0
 11
31.78457936207464
 21
1.949505999440826
 31
0.0
  0
LINE
  5
DE475
  8
0
  6
CONTINUOUS
 10
34.63993092602409
 20
-0.2323263554284312
 30
0.0
 11
31.64199999996833
 21
2.765604570627321
 31
0.0
  0
LINE
  5
DE476
  8
0
  6
CONTINUOUS
 10
35.17833301840466
 20
-0.0972092387288228
 30
0.0
 11
31.64199999996833
 21
3.439123779707508
 31
0.0
  0
LINE
  5
DE477
  8
0
  6
CONTINUOUS
 10
35.70952087127903
 20
0.0451221174769945
 30
0.0
 11
34.51294304365551
 21
1.241699945100516
 31
0.0
  0
LINE
  5
DE478
  8
0
  6
CONTINUOUS
 10
33.08199999996839
 20
2.67264298878764
 30
0.0
 11
31.64199999996833
 21
4.112642988787695
 31
0.0
  0
LINE
  5
DE479
  8
0
  6
CONTINUOUS
 10
36.2407087241534
 20
0.1874534736828117
 30
0.0
 11
35.10501653033629
 21
1.323145667499924
 31
0.0
  0
LINE
  5
DE47A
  8
0
  6
CONTINUOUS
 10
33.08199999996839
 20
3.346162197867826
 30
0.0
 11
31.64199999996833
 21
4.786162197867881
 31
0.0
  0
LINE
  5
DE47B
  8
0
  6
CONTINUOUS
 10
36.62369414391585
 20
0.4779872630005553
 30
0.0
 11
35.63620438320989
 21
1.465477023706505
 31
0.0
  0
LINE
  5
DE47C
  8
0
  6
CONTINUOUS
 10
33.08199999996839
 20
4.019681406948012
 30
0.0
 11
31.64199999996833
 21
5.459681406948068
 31
0.0
  0
LINE
  5
DE47D
  8
0
  6
CONTINUOUS
 10
36.96045374845689
 20
0.8147468675397027
 30
0.0
 11
35.97691545773309
 21
1.798285158263504
 31
0.0
  0
LINE
  5
DE47E
  8
0
  6
CONTINUOUS
 10
33.08199999996839
 20
4.693200616028199
 30
0.0
 11
31.64199999996833
 21
6.133200616028255
 31
0.0
  0
LINE
  5
DE47F
  8
0
  6
CONTINUOUS
 10
37.29721335299792
 20
1.151506472078851
 30
0.0
 11
36.17602012811361
 21
2.272699696963168
 31
0.0
  0
LINE
  5
DE480
  8
0
  6
CONTINUOUS
 10
33.08199999996839
 20
5.366719825108386
 30
0.0
 11
31.64199999996833
 21
6.80671982510844
 31
0.0
  0
LINE
  5
DE481
  8
0
  6
CONTINUOUS
 10
37.45404367813572
 20
1.668195356021243
 30
0.0
 11
36.23199999996837
 21
2.890239034188594
 31
0.0
  0
LINE
  5
DE482
  8
0
  6
CONTINUOUS
 10
37.5963750343428
 20
2.199383208894345
 30
0.0
 11
36.23199999996837
 21
3.56375824326878
 31
0.0
  0
LINE
  5
DE483
  8
0
  6
CONTINUOUS
 10
33.08199999996839
 20
6.040239034188573
 30
0.0
 11
31.64199999996833
 21
7.480239034188627
 31
0.0
  0
LINE
  5
DE484
  8
0
  6
CONTINUOUS
 10
33.08199999996839
 20
6.713758243268758
 30
0.0
 11
31.64199999996833
 21
8.153758243268815
 31
0.0
  0
LINE
  5
DE485
  8
0
  6
CONTINUOUS
 10
37.67199999996831
 20
2.797277452349026
 30
0.0
 11
36.23199999996837
 21
4.237277452348967
 31
0.0
  0
LINE
  5
DE486
  8
0
  6
CONTINUOUS
 10
37.67199999996831
 20
3.470796661429213
 30
0.0
 11
36.23199999996837
 21
4.910796661429154
 31
0.0
  0
LINE
  5
DE487
  8
0
  6
CONTINUOUS
 10
37.67199999996831
 20
4.144315870509399
 30
0.0
 11
36.23199999996837
 21
5.58431587050934
 31
0.0
  0
LINE
  5
DE488
  8
0
  6
CONTINUOUS
 10
33.08199999996839
 20
7.387277452348945
 30
0.0
 11
31.70617745232608
 21
8.763099999991255
 31
0.0
  0
LINE
  5
DE489
  8
0
  6
CONTINUOUS
 10
33.08199999996839
 20
8.060796661429132
 30
0.0
 11
32.37969666140626
 21
8.763099999991255
 31
0.0
  0
LINE
  5
DE48A
  8
0
  6
CONTINUOUS
 10
33.08199999996839
 20
8.734315870509318
 30
0.0
 11
33.05321587048645
 21
8.763099999991255
 31
0.0
  0
LINE
  5
DE48B
  8
0
  6
CONTINUOUS
 10
37.67199999996831
 20
4.817835079589585
 30
0.0
 11
36.23199999996837
 21
6.257835079589526
 31
0.0
  0
LINE
  5
DE48C
  8
0
  6
CONTINUOUS
 10
37.67199999996831
 20
5.491354288669771
 30
0.0
 11
36.23199999996837
 21
6.931354288669713
 31
0.0
  0
LINE
  5
DE48D
  8
0
  6
CONTINUOUS
 10
37.67199999996831
 20
6.164873497749958
 30
0.0
 11
36.23199999996837
 21
7.6048734977499
 31
0.0
  0
LINE
  5
DE48E
  8
0
  6
CONTINUOUS
 10
37.67199999996831
 20
6.838392706830144
 30
0.0
 11
36.23199999996837
 21
8.278392706830086
 31
0.0
  0
LINE
  5
DE48F
  8
0
  6
CONTINUOUS
 10
37.67199999996831
 20
7.511911915910332
 30
0.0
 11
36.42081191588738
 21
8.763099999991255
 31
0.0
  0
LINE
  5
DE490
  8
0
  6
CONTINUOUS
 10
37.67199999996831
 20
8.185431124990519
 30
0.0
 11
37.09433112496757
 21
8.763099999991255
 31
0.0
  0
ENDBLK
  5
DE4FB
  8
0
  0
BLOCK
  8
0
  2
*X1887
 70
     1
 10
0.0
 20
0.0
 30
0.0
  3
*X1887
  1

  0
LINE
  5
DE492
  8
0
  6
CONTINUOUS
 10
38.60499999996136
 20
8.762866199104765
 30
0.0
 11
38.71672554182345
 21
8.874591740966855
 31
0.0
  0
LINE
  5
DE493
  8
0
  6
CONTINUOUS
 10
38.60499999996136
 20
8.089346990024577
 30
0.0
 11
39.03418785440363
 21
8.518534844466847
 31
0.0
  0
LINE
  5
DE494
  8
0
  6
CONTINUOUS
 10
38.60499999996136
 20
7.41582778094439
 30
0.0
 11
39.35165016698382
 21
8.16247794796684
 31
0.0
  0
LINE
  5
DE495
  8
0
  6
CONTINUOUS
 10
38.60499999996136
 20
6.742308571864204
 30
0.0
 11
39.66911247956399
 21
7.806421051466834
 31
0.0
  0
LINE
  5
DE496
  8
0
  6
CONTINUOUS
 10
38.60499999996136
 20
6.068789362784018
 30
0.0
 11
39.98657479214418
 21
7.450364154966827
 31
0.0
  0
LINE
  5
DE497
  8
0
  6
CONTINUOUS
 10
38.60499999996136
 20
5.395270153703832
 30
0.0
 11
40.30403710472435
 21
7.09430725846682
 31
0.0
  0
LINE
  5
DE498
  8
0
  6
CONTINUOUS
 10
38.60499999996136
 20
4.721750944623645
 30
0.0
 11
40.62149941730453
 21
6.738250361966813
 31
0.0
  0
LINE
  5
DE499
  8
0
  6
CONTINUOUS
 10
38.60499999996136
 20
4.048231735543458
 30
0.0
 11
40.93896172988471
 21
6.382193465466806
 31
0.0
  0
LINE
  5
DE49A
  8
0
  6
CONTINUOUS
 10
38.60499999996136
 20
3.374712526463272
 30
0.0
 11
40.02599999995994
 21
4.795712526461843
 31
0.0
  0
LINE
  5
DE49B
  8
0
  6
CONTINUOUS
 10
38.60499999996136
 20
2.701193317383085
 30
0.0
 11
40.02599999995994
 21
4.122193317381657
 31
0.0
  0
LINE
  5
DE49C
  8
0
  6
CONTINUOUS
 10
40.28339754687704
 20
5.053110073378947
 30
0.0
 11
41.25642404246489
 21
6.026136568966799
 31
0.0
  0
LINE
  5
DE49D
  8
0
  6
CONTINUOUS
 10
40.60085985945722
 20
4.697053176878939
 30
0.0
 11
41.57388635504507
 21
5.670079672466793
 31
0.0
  0
LINE
  5
DE49E
  8
0
  6
CONTINUOUS
 10
43.57899999995641
 20
8.348712526458318
 30
0.0
 11
43.99338747348935
 21
8.763099999991255
 31
0.0
  0
LINE
  5
DE49F
  8
0
  6
CONTINUOUS
 10
43.57899999995641
 20
7.675193317378131
 30
0.0
 11
44.66690668256953
 21
8.763099999991255
 31
0.0
  0
LINE
  5
DE4A0
  8
0
  6
CONTINUOUS
 10
38.60499999996136
 20
2.027674108302898
 30
0.0
 11
40.02599999995994
 21
3.44867410830147
 31
0.0
  0
LINE
  5
DE4A1
  8
0
  6
CONTINUOUS
 10
38.60499999996136
 20
1.354154899222712
 30
0.0
 11
40.02599999995994
 21
2.775154899221284
 31
0.0
  0
LINE
  5
DE4A2
  8
0
  6
CONTINUOUS
 10
38.60499999996136
 20
0.6806356901425255
 30
0.0
 11
40.02599999995994
 21
2.101635690141098
 31
0.0
  0
LINE
  5
DE4A3
  8
0
  6
CONTINUOUS
 10
38.60499999996136
 20
0.0071164810623383
 30
0.0
 11
40.02599999995994
 21
1.428116481060911
 31
0.0
  0
LINE
  5
DE4A4
  8
0
  6
CONTINUOUS
 10
40.9183221720374
 20
4.340996280378933
 30
0.0
 11
41.89134866762525
 21
5.314022775966786
 31
0.0
  0
LINE
  5
DE4A5
  8
0
  6
CONTINUOUS
 10
41.23578448461758
 20
3.984939383878926
 30
0.0
 11
42.20881098020543
 21
4.957965879466778
 31
0.0
  0
LINE
  5
DE4A6
  8
0
  6
CONTINUOUS
 10
41.55324679719776
 20
3.628882487378919
 30
0.0
 11
42.52627329278561
 21
4.601908982966772
 31
0.0
  0
LINE
  5
DE4A7
  8
0
  6
CONTINUOUS
 10
41.87070910977793
 20
3.272825590878912
 30
0.0
 11
42.84373560536579
 21
4.245852086466765
 31
0.0
  0
LINE
  5
DE4A8
  8
0
  6
CONTINUOUS
 10
43.57899999995641
 20
7.001674108297943
 30
0.0
 11
44.99999999995498
 21
8.422674108296516
 31
0.0
  0
LINE
  5
DE4A9
  8
0
  6
CONTINUOUS
 10
43.57899999995641
 20
6.328154899217758
 30
0.0
 11
44.99999999995498
 21
7.749154899216329
 31
0.0
  0
LINE
  5
DE4AA
  8
0
  6
CONTINUOUS
 10
43.57899999995641
 20
5.654635690137571
 30
0.0
 11
44.99999999995498
 21
7.075635690136142
 31
0.0
  0
LINE
  5
DE4AB
  8
0
  6
CONTINUOUS
 10
43.57899999995641
 20
4.981116481057384
 30
0.0
 11
44.99999999995498
 21
6.402116481055955
 31
0.0
  0
LINE
  5
DE4AC
  8
0
  6
CONTINUOUS
 10
39.27140272797921
 20
-0.0000000000000009
 30
0.0
 11
40.02599999995994
 21
0.7545972719807246
 31
0.0
  0
LINE
  5
DE4AD
  8
0
  6
CONTINUOUS
 10
39.9449219370594
 20
-0.0000000000000009
 30
0.0
 11
40.02599999995994
 21
0.0810780629005379
 31
0.0
  0
LINE
  5
DE4AE
  8
0
  6
CONTINUOUS
 10
42.18817142235812
 20
2.916768694378905
 30
0.0
 11
43.16119791794597
 21
3.889795189966758
 31
0.0
  0
LINE
  5
DE4AF
  8
0
  6
CONTINUOUS
 10
42.50563373493829
 20
2.560711797878898
 30
0.0
 11
43.47866023052615
 21
3.533738293466751
 31
0.0
  0
LINE
  5
DE4B0
  8
0
  6
CONTINUOUS
 10
43.57899999995641
 20
4.307597271977198
 30
0.0
 11
44.99999999995498
 21
5.728597271975769
 31
0.0
  0
LINE
  5
DE4B1
  8
0
  6
CONTINUOUS
 10
43.57899999995641
 20
3.634078062897011
 30
0.0
 11
44.99999999995498
 21
5.055078062895582
 31
0.0
  0
LINE
  5
DE4B2
  8
0
  6
CONTINUOUS
 10
42.82309604751848
 20
2.204654901378891
 30
0.0
 11
44.99999999995498
 21
4.381558853815395
 31
0.0
  0
LINE
  5
DE4B3
  8
0
  6
CONTINUOUS
 10
43.14055836009865
 20
1.848598004878885
 30
0.0
 11
44.99999999995498
 21
3.70803964473521
 31
0.0
  0
LINE
  5
DE4B4
  8
0
  6
CONTINUOUS
 10
43.45802067267883
 20
1.492541108378878
 30
0.0
 11
44.99999999995498
 21
3.034520435655023
 31
0.0
  0
LINE
  5
DE4B5
  8
0
  6
CONTINUOUS
 10
43.77548298525902
 20
1.136484211878871
 30
0.0
 11
44.99999999995498
 21
2.361001226574837
 31
0.0
  0
LINE
  5
DE4B6
  8
0
  6
CONTINUOUS
 10
44.09294529783919
 20
0.7804273153788639
 30
0.0
 11
44.99999999995498
 21
1.687482017494649
 31
0.0
  0
LINE
  5
DE4B7
  8
0
  6
CONTINUOUS
 10
44.41040761041938
 20
0.4243704188788566
 30
0.0
 11
44.99999999995498
 21
1.013962808414463
 31
0.0
  0
LINE
  5
DE4B8
  8
0
  6
CONTINUOUS
 10
44.72786992299955
 20
0.0683135223788494
 30
0.0
 11
44.99999999995498
 21
0.340443599334276
 31
0.0
  0
LINE
  5
DE4B9
  8
0
  6
CONTINUOUS
 10
39.12223903415696
 20
-0.0000000000000009
 30
0.0
 11
38.60499999996136
 21
0.5172390341955961
 31
0.0
  0
LINE
  5
DE4BA
  8
0
  6
CONTINUOUS
 10
39.79575824323715
 20
-0.0000000000000009
 30
0.0
 11
38.60499999996136
 21
1.190758243275783
 31
0.0
  0
LINE
  5
DE4BB
  8
0
  6
CONTINUOUS
 10
40.02599999995994
 20
0.443277452357397
 30
0.0
 11
38.60499999996136
 21
1.864277452355969
 31
0.0
  0
LINE
  5
DE4BC
  8
0
  6
CONTINUOUS
 10
40.02599999995994
 20
1.116796661437583
 30
0.0
 11
38.60499999996136
 21
2.537796661436155
 31
0.0
  0
LINE
  5
DE4BD
  8
0
  6
CONTINUOUS
 10
40.02599999995994
 20
1.79031587051777
 30
0.0
 11
38.60499999996136
 21
3.211315870516341
 31
0.0
  0
LINE
  5
DE4BE
  8
0
  6
CONTINUOUS
 10
40.02599999995994
 20
2.463835079597956
 30
0.0
 11
38.60499999996136
 21
3.884835079596527
 31
0.0
  0
LINE
  5
DE4BF
  8
0
  6
CONTINUOUS
 10
40.02599999995994
 20
3.137354288678143
 30
0.0
 11
38.60499999996136
 21
4.558354288676714
 31
0.0
  0
LINE
  5
DE4C0
  8
0
  6
CONTINUOUS
 10
40.02599999995994
 20
3.810873497758329
 30
0.0
 11
38.60499999996136
 21
5.2318734977569
 31
0.0
  0
LINE
  5
DE4C1
  8
0
  6
CONTINUOUS
 10
40.02599999995994
 20
4.484392706838515
 30
0.0
 11
38.60499999996136
 21
5.905392706837086
 31
0.0
  0
LINE
  5
DE4C2
  8
0
  6
CONTINUOUS
 10
44.99999999995498
 20
0.183911915923658
 30
0.0
 11
41.53858364506288
 21
3.64532827081576
 31
0.0
  0
LINE
  5
DE4C3
  8
0
  6
CONTINUOUS
 10
40.02599999995994
 20
5.157911915918703
 30
0.0
 11
38.60499999996136
 21
6.578911915917274
 31
0.0
  0
LINE
  5
DE4C4
  8
0
  6
CONTINUOUS
 10
44.99999999995498
 20
0.8574311250038447
 30
0.0
 11
38.60499999996136
 21
7.25243112499746
 31
0.0
  0
LINE
  5
DE4C5
  8
0
  6
CONTINUOUS
 10
44.99999999995498
 20
1.530950334084031
 30
0.0
 11
38.60499999996136
 21
7.925950334077647
 31
0.0
  0
LINE
  5
DE4C6
  8
0
  6
CONTINUOUS
 10
44.99999999995498
 20
2.204469543164218
 30
0.0
 11
43.57899999995641
 21
3.625469543162789
 31
0.0
  0
LINE
  5
DE4C7
  8
0
  6
CONTINUOUS
 10
41.89876730984767
 20
5.305702233271528
 30
0.0
 11
38.60499999996136
 21
8.599469543157834
 31
0.0
  0
LINE
  5
DE4C8
  8
0
  6
CONTINUOUS
 10
44.99999999995498
 20
2.877988752244405
 30
0.0
 11
43.57899999995641
 21
4.298988752242975
 31
0.0
  0
LINE
  5
DE4C9
  8
0
  6
CONTINUOUS
 10
44.99999999995498
 20
3.551507961324591
 30
0.0
 11
43.57899999995641
 21
4.972507961323163
 31
0.0
  0
LINE
  5
DE4CA
  8
0
  6
CONTINUOUS
 10
44.99999999995498
 20
4.225027170404777
 30
0.0
 11
43.57899999995641
 21
5.646027170403348
 31
0.0
  0
LINE
  5
DE4CB
  8
0
  6
CONTINUOUS
 10
44.99999999995498
 20
4.898546379484964
 30
0.0
 11
43.57899999995641
 21
6.319546379483535
 31
0.0
  0
LINE
  5
DE4CC
  8
0
  6
CONTINUOUS
 10
44.99999999995498
 20
5.572065588565151
 30
0.0
 11
43.57899999995641
 21
6.993065588563722
 31
0.0
  0
LINE
  5
DE4CD
  8
0
  6
CONTINUOUS
 10
44.99999999995498
 20
6.245584797645336
 30
0.0
 11
43.57899999995641
 21
7.666584797643908
 31
0.0
  0
LINE
  5
DE4CE
  8
0
  6
CONTINUOUS
 10
44.99999999995498
 20
6.919104006725522
 30
0.0
 11
43.57899999995641
 21
8.340104006724093
 31
0.0
  0
LINE
  5
DE4CF
  8
0
  6
CONTINUOUS
 10
44.99999999995498
 20
7.592623215805709
 30
0.0
 11
43.82952321576943
 21
8.763099999991255
 31
0.0
  0
LINE
  5
DE4D0
  8
0
  6
CONTINUOUS
 10
44.99999999995498
 20
8.266142424885896
 30
0.0
 11
44.50304242484962
 21
8.763099999991255
 31
0.0
  0
ENDBLK
  5
DE4FD
  8
0
  0
BLOCK
  8
0
  2
*X1888
 70
     1
 10
0.0
 20
0.0
 30
0.0
  3
*X1888
  1

  0
LINE
  5
DE4D2
  8
0
  6
CONTINUOUS
 10
0.0
 20
8.548461116714023
 30
0.0
 11
0.2146388832772324
 21
8.763099999991255
 31
0.0
  0
LINE
  5
DE4D3
  8
0
  6
CONTINUOUS
 10
-0.0000000000000002
 20
7.874941907633837
 30
0.0
 11
0.8881580923574184
 21
8.763099999991255
 31
0.0
  0
LINE
  5
DE4D4
  8
0
  6
CONTINUOUS
 10
0.0
 20
7.20142269855365
 30
0.0
 11
1.420999999998572
 21
8.622422698552223
 31
0.0
  0
LINE
  5
DE4D5
  8
0
  6
CONTINUOUS
 10
-0.0000000000000001
 20
6.527903489473465
 30
0.0
 11
1.420999999998571
 21
7.948903489472036
 31
0.0
  0
LINE
  5
DE4D6
  8
0
  6
CONTINUOUS
 10
-0.0000000000000002
 20
5.854384280393278
 30
0.0
 11
1.420999999998571
 21
7.275384280391849
 31
0.0
  0
LINE
  5
DE4D7
  8
0
  6
CONTINUOUS
 10
-0.0000000000000002
 20
5.180865071313091
 30
0.0
 11
1.420999999998571
 21
6.601865071311663
 31
0.0
  0
LINE
  5
DE4D8
  8
0
  6
CONTINUOUS
 10
0.0
 20
4.507345862232905
 30
0.0
 11
1.420999999998571
 21
5.928345862231477
 31
0.0
  0
LINE
  5
DE4D9
  8
0
  6
CONTINUOUS
 10
-0.0000000000000003
 20
3.833826653152718
 30
0.0
 11
1.420999999998571
 21
5.25482665315129
 31
0.0
  0
LINE
  5
DE4DA
  8
0
  6
CONTINUOUS
 10
-0.0000000000000002
 20
3.160307444072532
 30
0.0
 11
1.420999999998571
 21
4.581307444071103
 31
0.0
  0
LINE
  5
DE4DB
  8
0
  6
CONTINUOUS
 10
-0.0000000000000001
 20
2.486788234992345
 30
0.0
 11
1.420999999998571
 21
3.907788234990917
 31
0.0
  0
LINE
  5
DE4DC
  8
0
  6
CONTINUOUS
 10
-0.0000000000000006
 20
1.813269025912159
 30
0.0
 11
1.420999999998571
 21
3.234269025910731
 31
0.0
  0
LINE
  5
DE4DD
  8
0
  6
CONTINUOUS
 10
0.0
 20
1.139749816831973
 30
0.0
 11
1.420999999998571
 21
2.560749816830544
 31
0.0
  0
LINE
  5
DE4DE
  8
0
  6
CONTINUOUS
 10
0.0000000000000002
 20
0.466230607751787
 30
0.0
 11
1.420999999998571
 21
1.887230607750358
 31
0.0
  0
LINE
  5
DE4DF
  8
0
  6
CONTINUOUS
 10
0.2072886013284003
 20
-0.0000000000000009
 30
0.0
 11
1.420999999998571
 21
1.213711398670171
 31
0.0
  0
LINE
  5
DE4E0
  8
0
  6
CONTINUOUS
 10
0.8808078104085864
 20
-0.0000000000000009
 30
0.0
 11
1.420999999998571
 21
0.5401921895899839
 31
0.0
  0
LINE
  5
DE4E1
  8
0
  6
CONTINUOUS
 10
0.0581249075061505
 20
-0.0000000000000009
 30
0.0
 11
-0.0000000000000002
 21
0.0581249075061496
 31
0.0
  0
LINE
  5
DE4E2
  8
0
  6
CONTINUOUS
 10
0.7316441165863372
 20
-0.0000000000000009
 30
0.0
 11
-0.0000000000000002
 21
0.7316441165863363
 31
0.0
  0
LINE
  5
DE4E3
  8
0
  6
CONTINUOUS
 10
1.405163325666523
 20
-0.0000000000000009
 30
0.0
 11
-0.0000000000000002
 21
1.405163325666523
 31
0.0
  0
LINE
  5
DE4E4
  8
0
  6
CONTINUOUS
 10
1.420999999998572
 20
0.6576825347481381
 30
0.0
 11
-0.0000000000000001
 21
2.07868253474671
 31
0.0
  0
LINE
  5
DE4E5
  8
0
  6
CONTINUOUS
 10
1.420999999998571
 20
1.331201743828324
 30
0.0
 11
-0.0000000000000001
 21
2.752201743826896
 31
0.0
  0
LINE
  5
DE4E6
  8
0
  6
CONTINUOUS
 10
1.420999999998571
 20
2.004720952908511
 30
0.0
 11
-0.0000000000000002
 21
3.425720952907082
 31
0.0
  0
LINE
  5
DE4E7
  8
0
  6
CONTINUOUS
 10
1.420999999998571
 20
2.678240161988697
 30
0.0
 11
-0.0000000000000001
 21
4.099240161987269
 31
0.0
  0
LINE
  5
DE4E8
  8
0
  6
CONTINUOUS
 10
1.420999999998572
 20
3.351759371068884
 30
0.0
 11
0.0
 21
4.772759371067455
 31
0.0
  0
LINE
  5
DE4E9
  8
0
  6
CONTINUOUS
 10
1.420999999998571
 20
4.02527858014907
 30
0.0
 11
-0.0000000000000003
 21
5.446278580147642
 31
0.0
  0
LINE
  5
DE4EA
  8
0
  6
CONTINUOUS
 10
1.420999999998571
 20
4.698797789229257
 30
0.0
 11
0.0
 21
6.119797789227828
 31
0.0
  0
LINE
  5
DE4EB
  8
0
  6
CONTINUOUS
 10
1.420999999998571
 20
5.372316998309444
 30
0.0
 11
-0.0000000000000001
 21
6.793316998308015
 31
0.0
  0
LINE
  5
DE4EC
  8
0
  6
CONTINUOUS
 10
1.420999999998572
 20
6.045836207389629
 30
0.0
 11
-0.0000000000000004
 21
7.466836207388202
 31
0.0
  0
LINE
  5
DE4ED
  8
0
  6
CONTINUOUS
 10
1.420999999998571
 20
6.719355416469816
 30
0.0
 11
0.0
 21
8.140355416468388
 31
0.0
  0
LINE
  5
DE4EE
  8
0
  6
CONTINUOUS
 10
1.420999999998571
 20
7.392874625550003
 30
0.0
 11
0.0507746255573185
 21
8.763099999991255
 31
0.0
  0
LINE
  5
DE4EF
  8
0
  6
CONTINUOUS
 10
1.420999999998571
 20
8.06639383463019
 30
0.0
 11
0.7242938346375052
 21
8.763099999991255
 31
0.0
  0
LINE
  5
DE4F0
  8
0
  6
CONTINUOUS
 10
1.420999999998571
 20
8.739913043710375
 30
0.0
 11
1.397813043717691
 21
8.763099999991255
 31
0.0
  0
ENDBLK
  5
DE4FF
  8
0
  0
ENDSEC
  0
SECTION
  2
ENTITIES
  0
POLYLINE
  5
DDCE1
  8
01
  6
CONTINUOUS
 66
     1
 10
0.0
 20
0.0
 30
0.0
  0
VERTEX
  5
DE28B
  8
01
  6
CONTINUOUS
 10
-1452.912361596139
 20
5851.900097675407
 30
0.0
  0
VERTEX
  5
DE28C
  8
01
  6
CONTINUOUS
 10
-1452.912540444122
 20
5851.900141075096
 30
0.0
  0
VERTEX
  5
DE28D
  8
01
  6
CONTINUOUS
 10
-1452.913076087299
 20
5851.900270830548
 30
0.0
  0
VERTEX
  5
DE28E
  8
01
  6
CONTINUOUS
 10
-1452.913967174516
 20
5851.900486276334
 30
0.0
  0
VERTEX
  5
DE28F
  8
01
  6
CONTINUOUS
 10
-1452.915212354618
 20
5851.900786747026
 30
0.0
  0
VERTEX
  5
DE290
  8
01
  6
CONTINUOUS
 10
-1452.91681027645
 20
5851.901171577199
 30
0.0
  0
VERTEX
  5
DE291
  8
01
  6
CONTINUOUS
 10
-1452.918759588858
 20
5851.901640101425
 30
0.0
  0
VERTEX
  5
DE292
  8
01
  6
CONTINUOUS
 10
-1452.921058940686
 20
5851.902191654275
 30
0.0
  0
VERTEX
  5
DE293
  8
01
  6
CONTINUOUS
 10
-1452.923706980781
 20
5851.902825570324
 30
0.0
  0
VERTEX
  5
DE294
  8
01
  6
CONTINUOUS
 10
-1452.926702357986
 20
5851.903541184142
 30
0.0
  0
VERTEX
  5
DE295
  8
01
  6
CONTINUOUS
 10
-1452.930043721147
 20
5851.904337830304
 30
0.0
  0
VERTEX
  5
DE296
  8
01
  6
CONTINUOUS
 10
-1452.933729719109
 20
5851.905214843383
 30
0.0
  0
VERTEX
  5
DE297
  8
01
  6
CONTINUOUS
 10
-1452.937759000718
 20
5851.90617155795
 30
0.0
  0
VERTEX
  5
DE298
  8
01
  6
CONTINUOUS
 10
-1452.942130214818
 20
5851.907207308579
 30
0.0
  0
VERTEX
  5
DE299
  8
01
  6
CONTINUOUS
 10
-1452.946841267528
 20
5851.908321242694
 30
0.0
  0
VERTEX
  5
DE29A
  8
01
  6
CONTINUOUS
 10
-1452.951886959052
 20
5851.909511478104
 30
0.0
  0
VERTEX
  5
DE29B
  8
01
  6
CONTINUOUS
 10
-1452.957266748576
 20
5851.910776922307
 30
0.0
  0
VERTEX
  5
DE29C
  8
01
  6
CONTINUOUS
 10
-1452.96298090554
 20
5851.912116659524
 30
0.0
  0
VERTEX
  5
DE29D
  8
01
  6
CONTINUOUS
 10
-1452.96902969938
 20
5851.91352977397
 30
0.0
  0
VERTEX
  5
DE29E
  8
01
  6
CONTINUOUS
 10
-1452.975413399535
 20
5851.915015349861
 30
0.0
  0
VERTEX
  5
DE29F
  8
01
  6
CONTINUOUS
 10
-1452.982132275444
 20
5851.916572471416
 30
0.0
  0
VERTEX
  5
DE2A0
  8
01
  6
CONTINUOUS
 10
-1452.989186596546
 20
5851.91820022285
 30
0.0
  0
VERTEX
  5
DE2A1
  8
01
  6
CONTINUOUS
 10
-1452.996576632277
 20
5851.919897688382
 30
0.0
  0
VERTEX
  5
DE2A2
  8
01
  6
CONTINUOUS
 10
-1453.004302652078
 20
5851.921663952226
 30
0.0
  0
VERTEX
  5
DE2A3
  8
01
  6
CONTINUOUS
 10
-1453.012364925385
 20
5851.923498098602
 30
0.0
  0
VERTEX
  5
DE2A4
  8
01
  6
CONTINUOUS
 10
-1453.020763721637
 20
5851.925399211726
 30
0.0
  0
VERTEX
  5
DE2A5
  8
01
  6
CONTINUOUS
 10
-1453.029499310273
 20
5851.927366375815
 30
0.0
  0
VERTEX
  5
DE2A6
  8
01
  6
CONTINUOUS
 10
-1453.038571960731
 20
5851.929398675085
 30
0.0
  0
VERTEX
  5
DE2A7
  8
01
  6
CONTINUOUS
 10
-1453.047970642616
 20
5851.931492949167
 30
0.0
  0
VERTEX
  5
DE2A8
  8
01
  6
CONTINUOUS
 10
-1453.057682759972
 20
5851.933645276032
 30
0.0
  0
VERTEX
  5
DE2A9
  8
01
  6
CONTINUOUS
 10
-1453.067706233898
 20
5851.935853597417
 30
0.0
  0
VERTEX
  5
DE2AA
  8
01
  6
CONTINUOUS
 10
-1453.07803898549
 20
5851.938115855056
 30
0.0
  0
VERTEX
  5
DE2AB
  8
01
  6
CONTINUOUS
 10
-1453.088678935848
 20
5851.940429990683
 30
0.0
  0
VERTEX
  5
DE2AC
  8
01
  6
CONTINUOUS
 10
-1453.099624006069
 20
5851.942793946035
 30
0.0
  0
VERTEX
  5
DE2AD
  8
01
  6
CONTINUOUS
 10
-1453.110872117251
 20
5851.945205662846
 30
0.0
  0
VERTEX
  5
DE2AE
  8
01
  6
CONTINUOUS
 10
-1453.122421190492
 20
5851.947663082849
 30
0.0
  0
VERTEX
  5
DE2AF
  8
01
  6
CONTINUOUS
 10
-1453.134269146889
 20
5851.950164147783
 30
0.0
  0
VERTEX
  5
DE2B0
  8
01
  6
CONTINUOUS
 10
-1453.146413907542
 20
5851.952706799379
 30
0.0
  0
VERTEX
  5
DE2B1
  8
01
  6
CONTINUOUS
 10
-1453.158853393546
 20
5851.955288979374
 30
0.0
  0
VERTEX
  5
DE2B2
  8
01
  6
CONTINUOUS
 10
-1453.171585526001
 20
5851.957908629502
 30
0.0
  0
VERTEX
  5
DE2B3
  8
01
  6
CONTINUOUS
 10
-1453.184608226004
 20
5851.960563691499
 30
0.0
  0
VERTEX
  5
DE2B4
  8
01
  6
CONTINUOUS
 10
-1453.197919414654
 20
5851.963252107098
 30
0.0
  0
VERTEX
  5
DE2B5
  8
01
  6
CONTINUOUS
 10
-1453.211517013048
 20
5851.965971818036
 30
0.0
  0
VERTEX
  5
DE2B6
  8
01
  6
CONTINUOUS
 10
-1453.225398942283
 20
5851.968720766046
 30
0.0
  0
VERTEX
  5
DE2B7
  8
01
  6
CONTINUOUS
 10
-1453.239563123459
 20
5851.971496892864
 30
0.0
  0
VERTEX
  5
DE2B8
  8
01
  6
CONTINUOUS
 10
-1453.254007477672
 20
5851.974298140225
 30
0.0
  0
VERTEX
  5
DE2B9
  8
01
  6
CONTINUOUS
 10
-1453.268729926021
 20
5851.977122449863
 30
0.0
  0
VERTEX
  5
DE2BA
  8
01
  6
CONTINUOUS
 10
-1453.283728389603
 20
5851.979967763513
 30
0.0
  0
VERTEX
  5
DE2BB
  8
01
  6
CONTINUOUS
 10
-1453.299000789517
 20
5851.982832022911
 30
0.0
  0
VERTEX
  5
DE2BC
  8
01
  6
CONTINUOUS
 10
-1453.314545046861
 20
5851.985713169791
 30
0.0
  0
VERTEX
  5
DE2BD
  8
01
  6
CONTINUOUS
 10
-1453.330359082731
 20
5851.988609145887
 30
0.0
  0
VERTEX
  5
DE2BE
  8
01
  6
CONTINUOUS
 10
-1453.346440818227
 20
5851.991517892937
 30
0.0
  0
VERTEX
  5
DE2BF
  8
01
  6
CONTINUOUS
 10
-1453.362788174445
 20
5851.994437352673
 30
0.0
  0
VERTEX
  5
DE2C0
  8
01
  6
CONTINUOUS
 10
-1453.379399072485
 20
5851.997365466831
 30
0.0
  0
VERTEX
  5
DE2C1
  8
01
  6
CONTINUOUS
 10
-1453.396271433444
 20
5852.000300177145
 30
0.0
  0
VERTEX
  5
DE2C2
  8
01
  6
CONTINUOUS
 10
-1453.413378859968
 20
5852.003234733927
 30
0.0
  0
VERTEX
  5
DE2C3
  8
01
  6
CONTINUOUS
 10
-1453.430696210489
 20
5852.006162582681
 30
0.0
  0
VERTEX
  5
DE2C4
  8
01
  6
CONTINUOUS
 10
-1453.448223289785
 20
5852.00908195793
 30
0.0
  0
VERTEX
  5
DE2C5
  8
01
  6
CONTINUOUS
 10
-1453.46595990263
 20
5852.011991094198
 30
0.0
  0
VERTEX
  5
DE2C6
  8
01
  6
CONTINUOUS
 10
-1453.4839058538
 20
5852.014888226005
 30
0.0
  0
VERTEX
  5
DE2C7
  8
01
  6
CONTINUOUS
 10
-1453.502060948072
 20
5852.017771587878
 30
0.0
  0
VERTEX
  5
DE2C8
  8
01
  6
CONTINUOUS
 10
-1453.520424990221
 20
5852.020639414338
 30
0.0
  0
VERTEX
  5
DE2C9
  8
01
  6
CONTINUOUS
 10
-1453.538997785022
 20
5852.023489939908
 30
0.0
  0
VERTEX
  5
DE2CA
  8
01
  6
CONTINUOUS
 10
-1453.557779137253
 20
5852.026321399114
 30
0.0
  0
VERTEX
  5
DE2CB
  8
01
  6
CONTINUOUS
 10
-1453.576768851688
 20
5852.029132026475
 30
0.0
  0
VERTEX
  5
DE2CC
  8
01
  6
CONTINUOUS
 10
-1453.595966733104
 20
5852.031920056518
 30
0.0
  0
VERTEX
  5
DE2CD
  8
01
  6
CONTINUOUS
 10
-1453.615372586276
 20
5852.034683723764
 30
0.0
  0
VERTEX
  5
DE2CE
  8
01
  6
CONTINUOUS
 10
-1453.634986215981
 20
5852.037421262737
 30
0.0
  0
VERTEX
  5
DE2CF
  8
01
  6
CONTINUOUS
 10
-1453.654811951355
 20
5852.040131271175
 30
0.0
  0
VERTEX
  5
DE2D0
  8
01
  6
CONTINUOUS
 10
-1453.674872696596
 20
5852.042813720717
 30
0.0
  0
VERTEX
  5
DE2D1
  8
01
  6
CONTINUOUS
 10
-1453.695162439159
 20
5852.045466079088
 30
0.0
  0
VERTEX
  5
DE2D2
  8
01
  6
CONTINUOUS
 10
-1453.7156701925
 20
5852.048085401665
 30
0.0
  0
VERTEX
  5
DE2D3
  8
01
  6
CONTINUOUS
 10
-1453.736384970074
 20
5852.050668743826
 30
0.0
  0
VERTEX
  5
DE2D4
  8
01
  6
CONTINUOUS
 10
-1453.757295785338
 20
5852.053213160946
 30
0.0
  0
VERTEX
  5
DE2D5
  8
01
  6
CONTINUOUS
 10
-1453.778391651747
 20
5852.055715708405
 30
0.0
  0
VERTEX
  5
DE2D6
  8
01
  6
CONTINUOUS
 10
-1453.799661582758
 20
5852.058173441579
 30
0.0
  0
VERTEX
  5
DE2D7
  8
01
  6
CONTINUOUS
 10
-1453.821094591825
 20
5852.060583415846
 30
0.0
  0
VERTEX
  5
DE2D8
  8
01
  6
CONTINUOUS
 10
-1453.842679692406
 20
5852.062942686583
 30
0.0
  0
VERTEX
  5
DE2D9
  8
01
  6
CONTINUOUS
 10
-1453.864405897955
 20
5852.065248309167
 30
0.0
  0
VERTEX
  5
DE2DA
  8
01
  6
CONTINUOUS
 10
-1453.886262221929
 20
5852.067497338976
 30
0.0
  0
VERTEX
  5
DE2DB
  8
01
  6
CONTINUOUS
 10
-1453.908237677784
 20
5852.069686831387
 30
0.0
  0
VERTEX
  5
DE2DC
  8
01
  6
CONTINUOUS
 10
-1453.930321278975
 20
5852.071813841777
 30
0.0
  0
VERTEX
  5
DE2DD
  8
01
  6
CONTINUOUS
 10
-1453.952509012725
 20
5852.073877218728
 30
0.0
  0
VERTEX
  5
DE2DE
  8
01
  6
CONTINUOUS
 10
-1453.974804309157
 20
5852.075877003125
 30
0.0
  0
VERTEX
  5
DE2DF
  8
01
  6
CONTINUOUS
 10
-1453.997207346075
 20
5852.077812038802
 30
0.0
  0
VERTEX
  5
DE2E0
  8
01
  6
CONTINUOUS
 10
-1454.019718301284
 20
5852.079681169593
 30
0.0
  0
VERTEX
  5
DE2E1
  8
01
  6
CONTINUOUS
 10
-1454.042337352589
 20
5852.081483239331
 30
0.0
  0
VERTEX
  5
DE2E2
  8
01
  6
CONTINUOUS
 10
-1454.065064677794
 20
5852.08321709185
 30
0.0
  0
VERTEX
  5
DE2E3
  8
01
  6
CONTINUOUS
 10
-1454.087900454703
 20
5852.084881570984
 30
0.0
  0
VERTEX
  5
DE2E4
  8
01
  6
CONTINUOUS
 10
-1454.110844861121
 20
5852.086475520567
 30
0.0
  0
VERTEX
  5
DE2E5
  8
01
  6
CONTINUOUS
 10
-1454.133898074852
 20
5852.087997784431
 30
0.0
  0
VERTEX
  5
DE2E6
  8
01
  6
CONTINUOUS
 10
-1454.157060273702
 20
5852.089447206411
 30
0.0
  0
VERTEX
  5
DE2E7
  8
01
  6
CONTINUOUS
 10
-1454.180331635475
 20
5852.090822630341
 30
0.0
  0
VERTEX
  5
DE2E8
  8
01
  6
CONTINUOUS
 10
-1454.203712337975
 20
5852.092122900054
 30
0.0
  0
VERTEX
  5
DE2E9
  8
01
  6
CONTINUOUS
 10
-1454.227202559006
 20
5852.093346859386
 30
0.0
  0
VERTEX
  5
DE2EA
  8
01
  6
CONTINUOUS
 10
-1454.250802219687
 20
5852.094493016609
 30
0.0
  0
VERTEX
  5
DE2EB
  8
01
  6
CONTINUOUS
 10
-1454.274505347993
 20
5852.095558403533
 30
0.0
  0
VERTEX
  5
DE2EC
  8
01
  6
CONTINUOUS
 10
-1454.298300084686
 20
5852.096542042917
 30
0.0
  0
VERTEX
  5
DE2ED
  8
01
  6
CONTINUOUS
 10
-1454.322174315027
 20
5852.097443315445
 30
0.0
  0
VERTEX
  5
DE2EE
  8
01
  6
CONTINUOUS
 10
-1454.346115924276
 20
5852.098261601808
 30
0.0
  0
VERTEX
  5
DE2EF
  8
01
  6
CONTINUOUS
 10
-1454.370112797695
 20
5852.098996282691
 30
0.0
  0
VERTEX
  5
DE2F0
  8
01
  6
CONTINUOUS
 10
-1454.394152820543
 20
5852.099646738778
 30
0.0
  0
VERTEX
  5
DE2F1
  8
01
  6
CONTINUOUS
 10
-1454.418223878081
 20
5852.100212350758
 30
0.0
  0
VERTEX
  5
DE2F2
  8
01
  6
CONTINUOUS
 10
-1454.442313855571
 20
5852.100692499315
 30
0.0
  0
VERTEX
  5
DE2F3
  8
01
  6
CONTINUOUS
 10
-1454.466410638272
 20
5852.101086565139
 30
0.0
  0
VERTEX
  5
DE2F4
  8
01
  6
CONTINUOUS
 10
-1454.490502111445
 20
5852.101393928913
 30
0.0
  0
VERTEX
  5
DE2F5
  8
01
  6
CONTINUOUS
 10
-1454.51457616035
 20
5852.101613971325
 30
0.0
  0
VERTEX
  5
DE2F6
  8
01
  6
CONTINUOUS
 10
-1454.538620670249
 20
5852.101746073062
 30
0.0
  0
VERTEX
  5
DE2F7
  8
01
  6
CONTINUOUS
 10
-1454.562623526401
 20
5852.101789614809
 30
0.0
  0
VERTEX
  5
DE2F8
  8
01
  6
CONTINUOUS
 10
-1454.58660891169
 20
5852.101742794694
 30
0.0
  0
VERTEX
  5
DE2F9
  8
01
  6
CONTINUOUS
 10
-1454.610604772285
 20
5852.101604949271
 30
0.0
  0
VERTEX
  5
DE2FA
  8
01
  6
CONTINUOUS
 10
-1454.63460463838
 20
5852.101377166875
 30
0.0
  0
VERTEX
  5
DE2FB
  8
01
  6
CONTINUOUS
 10
-1454.658602040169
 20
5852.101060535833
 30
0.0
  0
VERTEX
  5
DE2FC
  8
01
  6
CONTINUOUS
 10
-1454.682590507845
 20
5852.100656144478
 30
0.0
  0
VERTEX
  5
DE2FD
  8
01
  6
CONTINUOUS
 10
-1454.706563571602
 20
5852.100165081141
 30
0.0
  0
VERTEX
  5
DE2FE
  8
01
  6
CONTINUOUS
 10
-1454.730514761634
 20
5852.099588434151
 30
0.0
  0
VERTEX
  5
DE2FF
  8
01
  6
CONTINUOUS
 10
-1454.754437608133
 20
5852.098927291839
 30
0.0
  0
VERTEX
  5
DE300
  8
01
  6
CONTINUOUS
 10
-1454.778325641294
 20
5852.098182742537
 30
0.0
  0
VERTEX
  5
DE301
  8
01
  6
CONTINUOUS
 10
-1454.80217239131
 20
5852.097355874575
 30
0.0
  0
VERTEX
  5
DE302
  8
01
  6
CONTINUOUS
 10
-1454.825971388375
 20
5852.096447776284
 30
0.0
  0
VERTEX
  5
DE303
  8
01
  6
CONTINUOUS
 10
-1454.849716162682
 20
5852.095459535994
 30
0.0
  0
VERTEX
  5
DE304
  8
01
  6
CONTINUOUS
 10
-1454.873400244425
 20
5852.094392242035
 30
0.0
  0
VERTEX
  5
DE305
  8
01
  6
CONTINUOUS
 10
-1454.897017163797
 20
5852.09324698274
 30
0.0
  0
VERTEX
  5
DE306
  8
01
  6
CONTINUOUS
 10
-1454.920560450993
 20
5852.092024846439
 30
0.0
  0
VERTEX
  5
DE307
  8
01
  6
CONTINUOUS
 10
-1454.944023636205
 20
5852.090726921463
 30
0.0
  0
VERTEX
  5
DE308
  8
01
  6
CONTINUOUS
 10
-1454.967400249626
 20
5852.089354296141
 30
0.0
  0
VERTEX
  5
DE309
  8
01
  6
CONTINUOUS
 10
-1454.990683821452
 20
5852.087908058806
 30
0.0
  0
VERTEX
  5
DE30A
  8
01
  6
CONTINUOUS
 10
-1455.013867881875
 20
5852.086389297787
 30
0.0
  0
VERTEX
  5
DE30B
  8
01
  6
CONTINUOUS
 10
-1455.036945961088
 20
5852.084799101416
 30
0.0
  0
VERTEX
  5
DE30C
  8
01
  6
CONTINUOUS
 10
-1455.059911589286
 20
5852.083138558022
 30
0.0
  0
VERTEX
  5
DE30D
  8
01
  6
CONTINUOUS
 10
-1455.082758296661
 20
5852.081408755938
 30
0.0
  0
VERTEX
  5
DE30E
  8
01
  6
CONTINUOUS
 10
-1455.105479613408
 20
5852.079610783493
 30
0.0
  0
VERTEX
  5
DE30F
  8
01
  6
CONTINUOUS
 10
-1455.128069069721
 20
5852.077745729019
 30
0.0
  0
VERTEX
  5
DE310
  8
01
  6
CONTINUOUS
 10
-1455.150520195791
 20
5852.075814680846
 30
0.0
  0
VERTEX
  5
DE311
  8
01
  6
CONTINUOUS
 10
-1455.172826521814
 20
5852.073818727305
 30
0.0
  0
VERTEX
  5
DE312
  8
01
  6
CONTINUOUS
 10
-1455.194981577983
 20
5852.071758956726
 30
0.0
  0
VERTEX
  5
DE313
  8
01
  6
CONTINUOUS
 10
-1455.21700983007
 20
5852.069635558047
 30
0.0
  0
VERTEX
  5
DE314
  8
01
  6
CONTINUOUS
 10
-1455.238933503781
 20
5852.067449805094
 30
0.0
  0
VERTEX
  5
DE315
  8
01
  6
CONTINUOUS
 10
-1455.260742769204
 20
5852.06520441354
 30
0.0
  0
VERTEX
  5
DE316
  8
01
  6
CONTINUOUS
 10
-1455.282427796427
 20
5852.062902099055
 30
0.0
  0
VERTEX
  5
DE317
  8
01
  6
CONTINUOUS
 10
-1455.30397875554
 20
5852.060545577312
 30
0.0
  0
VERTEX
  5
DE318
  8
01
  6
CONTINUOUS
 10
-1455.325385816632
 20
5852.058137563979
 30
0.0
  0
VERTEX
  5
DE319
  8
01
  6
CONTINUOUS
 10
-1455.346639149791
 20
5852.055680774726
 30
0.0
  0
VERTEX
  5
DE31A
  8
01
  6
CONTINUOUS
 10
-1455.367728925106
 20
5852.053177925226
 30
0.0
  0
VERTEX
  5
DE31B
  8
01
  6
CONTINUOUS
 10
-1455.388645312666
 20
5852.050631731148
 30
0.0
  0
VERTEX
  5
DE31C
  8
01
  6
CONTINUOUS
 10
-1455.40937848256
 20
5852.048044908164
 30
0.0
  0
VERTEX
  5
DE31D
  8
01
  6
CONTINUOUS
 10
-1455.429918604877
 20
5852.045420171943
 30
0.0
  0
VERTEX
  5
DE31E
  8
01
  6
CONTINUOUS
 10
-1455.450255849706
 20
5852.042760238158
 30
0.0
  0
VERTEX
  5
DE31F
  8
01
  6
CONTINUOUS
 10
-1455.470380387135
 20
5852.040067822477
 30
0.0
  0
VERTEX
  5
DE320
  8
01
  6
CONTINUOUS
 10
-1455.490283095591
 20
5852.037345806595
 30
0.0
  0
VERTEX
  5
DE321
  8
01
  6
CONTINUOUS
 10
-1455.509962177757
 20
5852.034597558073
 30
0.0
  0
VERTEX
  5
DE322
  8
01
  6
CONTINUOUS
 10
-1455.529418178642
 20
5852.03182507886
 30
0.0
  0
VERTEX
  5
DE323
  8
01
  6
CONTINUOUS
 10
-1455.548651355208
 20
5852.029030166629
 30
0.0
  0
VERTEX
  5
DE324
  8
01
  6
CONTINUOUS
 10
-1455.567661964413
 20
5852.026214619058
 30
0.0
  0
VERTEX
  5
DE325
  8
01
  6
CONTINUOUS
 10
-1455.586450263216
 20
5852.023380233824
 30
0.0
  0
VERTEX
  5
DE326
  8
01
  6
CONTINUOUS
 10
-1455.605016508578
 20
5852.020528808601
 30
0.0
  0
VERTEX
  5
DE327
  8
01
  6
CONTINUOUS
 10
-1455.623360957457
 20
5852.017662141066
 30
0.0
  0
VERTEX
  5
DE328
  8
01
  6
CONTINUOUS
 10
-1455.641483866814
 20
5852.014782028895
 30
0.0
  0
VERTEX
  5
DE329
  8
01
  6
CONTINUOUS
 10
-1455.659385493609
 20
5852.011890269762
 30
0.0
  0
VERTEX
  5
DE32A
  8
01
  6
CONTINUOUS
 10
-1455.6770660948
 20
5852.008988661346
 30
0.0
  0
VERTEX
  5
DE32B
  8
01
  6
CONTINUOUS
 10
-1455.694525927347
 20
5852.006079001319
 30
0.0
  0
VERTEX
  5
DE32C
  8
01
  6
CONTINUOUS
 10
-1455.71176524821
 20
5852.003163087362
 30
0.0
  0
VERTEX
  5
DE32D
  8
01
  6
CONTINUOUS
 10
-1455.728784314348
 20
5852.000242717147
 30
0.0
  0
VERTEX
  5
DE32E
  8
01
  6
CONTINUOUS
 10
-1455.745581314283
 20
5851.997319608009
 30
0.0
  0
VERTEX
  5
DE32F
  8
01
  6
CONTINUOUS
 10
-1455.762149405966
 20
5851.994396390134
 30
0.0
  0
VERTEX
  5
DE330
  8
01
  6
CONTINUOUS
 10
-1455.778481300495
 20
5851.991476230473
 30
0.0
  0
VERTEX
  5
DE331
  8
01
  6
CONTINUOUS
 10
-1455.794569708971
 20
5851.988562295975
 30
0.0
  0
VERTEX
  5
DE332
  8
01
  6
CONTINUOUS
 10
-1455.810407342494
 20
5851.98565775359
 30
0.0
  0
VERTEX
  5
DE333
  8
01
  6
CONTINUOUS
 10
-1455.825986912163
 20
5851.982765770271
 30
0.0
  0
VERTEX
  5
DE334
  8
01
  6
CONTINUOUS
 10
-1455.84130112908
 20
5851.979889512966
 30
0.0
  0
VERTEX
  5
DE335
  8
01
  6
CONTINUOUS
 10
-1455.856342704344
 20
5851.977032148627
 30
0.0
  0
VERTEX
  5
DE336
  8
01
  6
CONTINUOUS
 10
-1455.871104349056
 20
5851.974196844203
 30
0.0
  0
VERTEX
  5
DE337
  8
01
  6
CONTINUOUS
 10
-1455.885578774314
 20
5851.971386766645
 30
0.0
  0
VERTEX
  5
DE338
  8
01
  6
CONTINUOUS
 10
-1455.89975869122
 20
5851.968605082905
 30
0.0
  0
VERTEX
  5
DE339
  8
01
  6
CONTINUOUS
 10
-1455.913636810873
 20
5851.965854959932
 30
0.0
  0
VERTEX
  5
DE33A
  8
01
  6
CONTINUOUS
 10
-1455.927205844373
 20
5851.963139564675
 30
0.0
  0
VERTEX
  5
DE33B
  8
01
  6
CONTINUOUS
 10
-1455.940462370629
 20
5851.960461387659
 30
0.0
  0
VERTEX
  5
DE33C
  8
01
  6
CONTINUOUS
 10
-1455.953424753394
 20
5851.957818943332
 30
0.0
  0
VERTEX
  5
DE33D
  8
01
  6
CONTINUOUS
 10
-1455.966095821976
 20
5851.955213204403
 30
0.0
  0
VERTEX
  5
DE33E
  8
01
  6
CONTINUOUS
 10
-1455.978474809636
 20
5851.952645754012
 30
0.0
  0
VERTEX
  5
DE33F
  8
01
  6
CONTINUOUS
 10
-1455.99056094963
 20
5851.950118175304
 30
0.0
  0
VERTEX
  5
DE340
  8
01
  6
CONTINUOUS
 10
-1456.002353475217
 20
5851.947632051421
 30
0.0
  0
VERTEX
  5
DE341
  8
01
  6
CONTINUOUS
 10
-1456.013851619655
 20
5851.945188965507
 30
0.0
  0
VERTEX
  5
DE342
  8
01
  6
CONTINUOUS
 10
-1456.025054616202
 20
5851.942790500705
 30
0.0
  0
VERTEX
  5
DE343
  8
01
  6
CONTINUOUS
 10
-1456.035961698116
 20
5851.940438240157
 30
0.0
  0
VERTEX
  5
DE344
  8
01
  6
CONTINUOUS
 10
-1456.046572098656
 20
5851.938133767007
 30
0.0
  0
VERTEX
  5
DE345
  8
01
  6
CONTINUOUS
 10
-1456.056885051079
 20
5851.935878664397
 30
0.0
  0
VERTEX
  5
DE346
  8
01
  6
CONTINUOUS
 10
-1456.066899788645
 20
5851.933674515471
 30
0.0
  0
VERTEX
  5
DE347
  8
01
  6
CONTINUOUS
 10
-1456.076615544611
 20
5851.931522903374
 30
0.0
  0
VERTEX
  5
DE348
  8
01
  6
CONTINUOUS
 10
-1456.086031552234
 20
5851.929425411245
 30
0.0
  0
VERTEX
  5
DE349
  8
01
  6
CONTINUOUS
 10
-1456.095130819439
 20
5851.92738828343
 30
0.0
  0
VERTEX
  5
DE34A
  8
01
  6
CONTINUOUS
 10
-1456.10389636104
 20
5851.925417271372
 30
0.0
  0
VERTEX
  5
DE34B
  8
01
  6
CONTINUOUS
 10
-1456.112327420631
 20
5851.923513218859
 30
0.0
  0
VERTEX
  5
DE34C
  8
01
  6
CONTINUOUS
 10
-1456.120423241808
 20
5851.92167696968
 30
0.0
  0
VERTEX
  5
DE34D
  8
01
  6
CONTINUOUS
 10
-1456.128183068167
 20
5851.919909367627
 30
0.0
  0
VERTEX
  5
DE34E
  8
01
  6
CONTINUOUS
 10
-1456.135606143304
 20
5851.918211256489
 30
0.0
  0
VERTEX
  5
DE34F
  8
01
  6
CONTINUOUS
 10
-1456.142691710812
 20
5851.916583480054
 30
0.0
  0
VERTEX
  5
DE350
  8
01
  6
CONTINUOUS
 10
-1456.149439014289
 20
5851.915026882115
 30
0.0
  0
VERTEX
  5
DE351
  8
01
  6
CONTINUOUS
 10
-1456.155847297329
 20
5851.913542306459
 30
0.0
  0
VERTEX
  5
DE352
  8
01
  6
CONTINUOUS
 10
-1456.161915803527
 20
5851.912130596876
 30
0.0
  0
VERTEX
  5
DE353
  8
01
  6
CONTINUOUS
 10
-1456.16764377648
 20
5851.910792597155
 30
0.0
  0
VERTEX
  5
DE354
  8
01
  6
CONTINUOUS
 10
-1456.173030459782
 20
5851.909529151088
 30
0.0
  0
VERTEX
  5
DE355
  8
01
  6
CONTINUOUS
 10
-1456.178075097029
 20
5851.908341102464
 30
0.0
  0
VERTEX
  5
DE356
  8
01
  6
CONTINUOUS
 10
-1456.182776931817
 20
5851.907229295071
 30
0.0
  0
VERTEX
  5
DE357
  8
01
  6
CONTINUOUS
 10
-1456.187135207741
 20
5851.906194572701
 30
0.0
  0
VERTEX
  5
DE358
  8
01
  6
CONTINUOUS
 10
-1456.191149168395
 20
5851.905237779141
 30
0.0
  0
VERTEX
  5
DE359
  8
01
  6
CONTINUOUS
 10
-1456.194818057376
 20
5851.904359758184
 30
0.0
  0
VERTEX
  5
DE35A
  8
01
  6
CONTINUOUS
 10
-1456.198141118279
 20
5851.903561353617
 30
0.0
  0
VERTEX
  5
DE35B
  8
01
  6
CONTINUOUS
 10
-1456.2011175947
 20
5851.902843409231
 30
0.0
  0
VERTEX
  5
DE35C
  8
01
  6
CONTINUOUS
 10
-1456.203746730233
 20
5851.902206768816
 30
0.0
  0
VERTEX
  5
DE35D
  8
01
  6
CONTINUOUS
 10
-1456.206027768475
 20
5851.901652276159
 30
0.0
  0
VERTEX
  5
DE35E
  8
01
  6
CONTINUOUS
 10
-1456.20795995302
 20
5851.901180775053
 30
0.0
  0
VERTEX
  5
DE35F
  8
01
  6
CONTINUOUS
 10
-1456.209542527464
 20
5851.900793109286
 30
0.0
  0
VERTEX
  5
DE360
  8
01
  6
CONTINUOUS
 10
-1456.210774735403
 20
5851.900490122648
 30
0.0
  0
VERTEX
  5
DE361
  8
01
  6
CONTINUOUS
 10
-1456.211655820431
 20
5851.90027265893
 30
0.0
  0
VERTEX
  5
DE362
  8
01
  6
CONTINUOUS
 10
-1456.212185026145
 20
5851.90014156192
 30
0.0
  0
VERTEX
  5
DE363
  8
01
  6
CONTINUOUS
 10
-1456.21236159614
 20
5851.900097675407
 30
0.0
  0
SEQEND
  5
DE500
  8
01
  6
CONTINUOUS
  0
LINE
  5
DDCE2
  8
01
  6
CONTINUOUS
 10
-1452.062361596139
 20
5851.900097675407
 30
0.0
 11
-1452.912361596139
 21
5851.900097675407
 31
0.0
  0
LINE
  5
DDCE3
  8
01
  6
CONTINUOUS
 10
-1456.212361596141
 20
5851.900097675407
 30
0.0
 11
-1458.062361596139
 21
5851.900097675407
 31
0.0
  0
LINE
  5
DDCE4
  8
01
  6
CONTINUOUS
 10
-1458.062361596139
 20
5865.600097675407
 30
0.0
 11
-1452.062361596139
 21
5865.600097675407
 31
0.0
  0
LINE
  5
DDCE5
  8
01
  6
CONTINUOUS
 10
-1458.062361596139
 20
5865.600097675407
 30
0.0
 11
-1458.062361596139
 21
5851.900097675407
 31
0.0
  0
LINE
  5
DDCE6
  8
01
  6
CONTINUOUS
 10
-1435.062361596139
 20
5844.250097675406
 30
0.0
 11
-1435.062361596139
 21
5873.250097675406
 31
0.0
  0
LINE
  5
DDCE7
  8
01
  6
CONTINUOUS
 10
-1435.562361596139
 20
5873.750097675406
 30
0.0
 11
-1452.062361596139
 21
5873.750097675406
 31
0.0
  0
ARC
  5
DDCE8
  8
01
  6
CONTINUOUS
 10
-1435.562361596139
 20
5873.250097675406
 30
0.0
 40
0.5
 50
0.0
 51
90.0
  0
LINE
  5
DDCE9
  8
01
  6
CONTINUOUS
 10
-1452.062361596139
 20
5873.750097675406
 30
0.0
 11
-1452.062361596139
 21
5843.750097675406
 31
0.0
  0
LINE
  5
DDCEA
  8
01
  6
CONTINUOUS
 10
-1452.062361596139
 20
5843.750097675406
 30
0.0
 11
-1435.562361596139
 21
5843.750097675406
 31
0.0
  0
ARC
  5
DDCEB
  8
01
  6
CONTINUOUS
 10
-1435.562361596139
 20
5844.250097675406
 30
0.0
 40
0.5
 50
270.0
 51
0.0
  0
ARC
  5
DDCEC
  8
01
 10
-1534.515576594106
 20
5858.750097675407
 30
0.0
 40
8.5
 50
306.0318790724661
 51
233.9681209275339
  0
CIRCLE
  5
DDCED
  8
01
 10
-1534.515576594106
 20
5858.750097675407
 30
0.0
 40
7.2
  0
LINE
  5
DDCEE
  8
01
  6
BYBLOCK
 10
-1529.515576594107
 20
5839.350097675408
 30
0.0
 11
-1529.515576594107
 21
5851.876234132973
 31
0.0
  0
LINE
  5
DDCEF
  8
01
  6
BYBLOCK
 10
-1539.515576594106
 20
5839.350097675408
 30
0.0
 11
-1539.515576594107
 21
5851.876234132973
 31
0.0
  0
ARC
  5
DDCF0
  8
01
  6
BYBLOCK
 10
-1534.515576594106
 20
5839.350097675408
 30
0.0
 40
5.00000000000005
 50
180.0
 51
0.0
  0
ARC
  5
DDCF1
  8
01
 10
-1534.515576594106
 20
5858.750097675407
 30
0.0
 40
14.90000000000009
 50
290.8872169350564
 51
309.1127830649428
  0
ARC
  5
DDCF2
  8
01
 10
-1525.746776428369
 20
5847.96500872569
 30
0.0
 40
1.0
 50
309.1127830649588
 51
36.51886155781348
  0
ARC
  5
DDCF3
  8
01
 10
-1529.559815664444
 20
5845.763549496311
 30
0.0
 40
1.0
 50
272.5355395277809
 51
290.8872169350697
  0
LINE
  5
DDCF4
  8
01
 10
-1528.241880352596
 20
5853.015053170849
 30
0.0
 11
-1524.943115424757
 21
5848.560096106899
 31
0.0
  0
LINE
  5
DDCF5
  8
01
 10
-1527.405458171091
 20
5851.885471346302
 30
0.0
 11
-1529.515576594107
 21
5850.667193906752
 31
0.0
  0
LINE
  5
DDCF6
  8
01
 10
-1500.762361596139
 20
5867.250097675407
 30
0.0
 11
-1500.762361596139
 21
5834.350097675408
 31
0.0
  0
LINE
  5
DDCF7
  8
01
 10
-1501.562361596139
 20
5865.150097675407
 30
0.0
 11
-1501.562361596139
 21
5852.350097675408
 31
0.0
  0
LINE
  5
DDCF8
  8
01
 10
-1495.86236159614
 20
5867.250097675407
 30
0.0
 11
-1495.86236159614
 21
5843.650097675407
 31
0.0
  0
LINE
  5
DDCF9
  8
01
 10
-1485.86236159614
 20
5867.250097675407
 30
0.0
 11
-1485.86236159614
 21
5843.650097675407
 31
0.0
  0
LINE
  5
DDCFA
  8
01
 10
-1458.262361596139
 20
5867.250097675407
 30
0.0
 11
-1458.262361596139
 21
5834.350097675408
 31
0.0
  0
LINE
  5
DDCFB
  8
01
 10
-1458.062361596139
 20
5865.750097675406
 30
0.0
 11
-1458.062361596139
 21
5851.750097675406
 31
0.0
  0
LINE
  5
DDCFC
  8
01
 10
-1500.762361596139
 20
5834.350097675408
 30
0.0
 11
-1458.262361596139
 21
5834.350097675408
 31
0.0
  0
LINE
  5
DDCFD
  8
01
 10
-1495.86236159614
 20
5843.650097675407
 30
0.0
 11
-1485.86236159614
 21
5843.650097675407
 31
0.0
  0
LINE
  5
DDCFE
  8
01
 10
-1500.762361596139
 20
5867.250097675407
 30
0.0
 11
-1495.862361596139
 21
5867.250097675407
 31
0.0
  0
LINE
  5
DDCFF
  8
01
 10
-1485.86236159614
 20
5867.250097675407
 30
0.0
 11
-1458.262361596139
 21
5867.250097675407
 31
0.0
  0
LINE
  5
DDD00
  8
01
 10
-1500.762361596139
 20
5865.950097675407
 30
0.0
 11
-1501.562361596139
 21
5865.150097675407
 31
0.0
  0
LINE
  5
DDD01
  8
01
 10
-1500.762361596139
 20
5851.550097675407
 30
0.0
 11
-1501.562361596139
 21
5852.350097675408
 31
0.0
  0
LINE
  5
DDD02
  8
01
 10
-1500.762361596139
 20
5851.550097675407
 30
0.0
 11
-1495.86236159614
 21
5851.550097675407
 31
0.0
  0
LINE
  5
DDD03
  8
01
 10
-1485.86236159614
 20
5851.550097675407
 30
0.0
 11
-1458.262361596139
 21
5851.550097675407
 31
0.0
  0
LINE
  5
DDD04
  8
01
  6
BYBLOCK
 10
-1486.86236159614
 20
5844.76452852323
 30
0.0
 11
-1486.86236159614
 21
5866.950097675406
 31
0.0
  0
LINE
  5
DDD05
  8
01
  6
BYBLOCK
 10
-1494.662361596139
 20
5844.76452852323
 30
0.0
 11
-1494.66236159614
 21
5866.950097675406
 31
0.0
  0
LINE
  5
DDD06
  8
01
  6
BYBLOCK
 10
-1458.262361596139
 20
5851.750097675406
 30
0.0
 11
-1458.062361596139
 21
5851.750097675406
 31
0.0
  0
LINE
  5
DDD07
  8
01
  6
BYBLOCK
 10
-1458.262361596139
 20
5865.750097675406
 30
0.0
 11
-1458.062361596139
 21
5865.750097675406
 31
0.0
  0
LINE
  5
DDD08
  8
01
  6
BYBLOCK
 10
-1494.662361596139
 20
5866.950097675406
 30
0.0
 11
-1486.86236159614
 21
5866.950097675406
 31
0.0
  0
LINE
  5
DDD09
  8
01
  6
BYBLOCK
 10
-1494.662361596139
 20
5850.550097675407
 30
0.0
 11
-1486.86236159614
 21
5850.550097675407
 31
0.0
  0
ARC
  5
DDD11
  8
01
 10
-1404.175832305521
 20
5858.750097675407
 30
0.0
 40
8.5
 50
322.8568760263728
 51
37.14312397362139
  0
ARC
  5
DDD12
  8
01
 10
-1404.175832305521
 20
5858.750097675407
 30
0.0
 40
8.5
 50
142.8568760263786
 51
217.1431239736272
  0
LINE
  5
DDD13
  8
01
  6
BYBLOCK
 10
-1399.175832305521
 20
5839.350097675408
 30
0.0
 11
-1399.175832305521
 21
5847.820003119991
 31
0.0
  0
LINE
  5
DDD14
  8
01
  6
BYBLOCK
 10
-1409.175832305521
 20
5839.350097675408
 30
0.0
 11
-1409.175832305521
 21
5847.820003119992
 31
0.0
  0
ARC
  5
DDD15
  8
01
  6
BYBLOCK
 10
-1404.175832305521
 20
5839.350097675408
 30
0.0
 40
5.00000000000005
 50
180.0
 51
0.0
  0
ARC
  5
DDD16
  8
01
 10
-1404.175832301295
 20
5858.750097675407
 30
0.0
 40
14.90000000000009
 50
230.8872169350572
 51
249.1127830649436
  0
ARC
  5
DDD17
  8
01
 10
-1412.944632467033
 20
5847.96500872569
 30
0.0
 40
1.0
 50
143.4811384421865
 51
230.8872169350412
  0
LINE
  5
DDD18
  8
01
 10
-1410.745508123012
 20
5852.615334988295
 30
0.0
 11
-1413.748293470644
 21
5848.560096106899
 31
0.0
  0
LINE
  5
DDD19
  8
01
 10
-1411.28595072431
 20
5851.885471346302
 30
0.0
 11
-1410.443680114535
 21
5851.399186183018
 31
0.0
  0
LINE
  5
DDD1A
  8
01
 10
-1486.86236159614
 20
5844.76452852323
 30
0.0
 11
-1494.662361596139
 21
5844.76452852323
 31
0.0
  0
ARC
  5
DDD1B
  8
01
 10
-1424.925832305521
 20
5858.750097675407
 30
0.0
 40
28.0
 50
338.8499641622583
 51
21.15003583774145
  0
ARC
  5
DDD1C
  8
01
 10
-1383.425832305521
 20
5858.750097675407
 30
0.0
 40
28.0
 50
158.8499641622584
 51
201.1500358377416
  0
ARC
  5
DDD1D
  8
01
 10
-1404.175832305521
 20
5869.750097675407
 30
0.0
 40
4.0
 50
48.66832116708194
 51
131.3316788329156
  0
ARC
  5
DDD1E
  8
01
 10
-1404.175832305521
 20
5847.750097675407
 30
0.0
 40
4.0
 50
228.6683211670819
 51
311.331678832918
  0
ARC
  5
DDD1F
  8
01
 10
-1400.213330659811
 20
5865.244703052542
 30
0.0
 40
10.0
 50
131.3316788329193
 51
158.8499641622626
  0
ARC
  5
DDD20
  8
01
 10
-1408.138333951231
 20
5865.244703052542
 30
0.0
 40
10.0
 50
21.15003583773787
 51
48.66832116708071
  0
ARC
  5
DDD21
  8
01
 10
-1400.213330659811
 20
5852.255492298273
 30
0.0
 40
10.0
 50
201.1500358377374
 51
228.6683211670797
  0
ARC
  5
DDD22
  8
01
 10
-1408.138333951231
 20
5852.255492298273
 30
0.0
 40
10.0
 50
311.3316788329183
 51
338.8499641622621
  0
ARC
  5
DDD23
  8
01
 10
-1555.265576594106
 20
5858.750097675407
 30
0.0
 40
28.0
 50
347.3439010883324
 51
349.4380296326275
  0
ARC
  5
DDD24
  8
01
 10
-1555.265576594106
 20
5858.750097675407
 30
0.0
 40
28.0
 50
10.56197036737054
 51
21.15003583774162
  0
ARC
  5
DDD25
  8
01
 10
-1513.765576594106
 20
5858.750097675407
 30
0.0
 40
28.0
 50
158.8499641622584
 51
169.4380296326295
  0
ARC
  5
DDD26
  8
01
 10
-1513.765576594106
 20
5858.750097675407
 30
0.0
 40
28.0
 50
190.5619703673725
 51
201.1500358377416
  0
ARC
  5
DDD27
  8
01
 10
-1534.515576594106
 20
5869.750097675407
 30
0.0
 40
4.0
 50
48.66832116708194
 51
131.3316788329181
  0
ARC
  5
DDD28
  8
01
 10
-1530.553074948396
 20
5865.244703052542
 30
0.0
 40
10.0
 50
131.3316788329203
 51
158.8499641622626
  0
ARC
  5
DDD29
  8
01
 10
-1538.478078239816
 20
5865.244703052542
 30
0.0
 40
10.0
 50
21.1500358377374
 51
48.66832116707973
  0
ARC
  5
DDD2A
  8
01
 10
-1530.553074948396
 20
5852.255492298273
 30
0.0
 40
10.0
 50
201.1500358377374
 51
206.3305362656297
  0
LINE
  5
DDD37
  8
01
 10
-1403.649526749965
 20
5843.154542119856
 30
0.0
 11
-1403.649526749965
 21
5843.784873537708
 31
0.0
  0
LINE
  5
DDD38
  8
01
 10
-1402.991610083299
 20
5842.427597675412
 30
0.0
 11
-1405.491610083297
 21
5843.546208786523
 31
0.0
  0
LINE
  5
DDD39
  8
01
 10
-1404.011360083298
 20
5843.3164865643
 30
0.0
 11
-1404.524998972187
 21
5843.546208786523
 31
0.0
  0
LINE
  5
DDD3A
  8
01
 10
-1404.011360083298
 20
5843.3164865643
 30
0.0
 11
-1404.011360083298
 21
5843.753480494826
 31
0.0
  0
LINE
  5
DDD3B
  8
01
 10
-1402.991610083299
 20
5838.879819897638
 30
0.0
 11
-1403.649526749965
 21
5839.174264342082
 31
0.0
  0
LINE
  5
DDD3C
  8
01
 10
-1403.269415638854
 20
5838.571764342083
 30
0.0
 11
-1405.491637861074
 21
5839.565931008749
 31
0.0
  0
LINE
  5
DDD3D
  8
01
 10
-1405.425832305519
 20
5837.000097675417
 30
0.0
 11
-1402.991637861077
 21
5837.000097675417
 31
0.0
  0
LINE
  5
DDD3E
  8
01
 10
-1405.425832305519
 20
5837.39481989764
 30
0.0
 11
-1402.991637861077
 21
5837.39481989764
 31
0.0
  0
LINE
  5
DDD3F
  8
01
 10
-1402.991610083299
 20
5838.282875453194
 30
0.0
 11
-1404.307415638854
 21
5837.39481989764
 31
0.0
  0
LINE
  5
DDD40
  8
01
 10
-1403.269415638854
 20
5838.571764342083
 30
0.0
 11
-1404.288471194409
 21
5837.883986564306
 31
0.0
  0
LINE
  5
DDD41
  8
01
 10
-1402.991637861077
 20
5837.000097675417
 30
0.0
 11
-1402.991637861077
 21
5837.39481989764
 31
0.0
  0
LINE
  5
DDD42
  8
01
 10
-1402.991637861077
 20
5838.282875453194
 30
0.0
 11
-1402.991637861077
 21
5838.879819897638
 31
0.0
  0
LINE
  5
DDD43
  8
01
 10
-1405.425832305519
 20
5838.282875453194
 30
0.0
 11
-1404.307415638854
 21
5837.39481989764
 31
0.0
  0
LINE
  5
DDD44
  8
01
 10
-1405.425832305519
 20
5838.78704211986
 30
0.0
 11
-1404.288471194409
 21
5837.883986564306
 31
0.0
  0
LINE
  5
DDD45
  8
01
 10
-1405.425832305519
 20
5837.000097675417
 30
0.0
 11
-1405.425832305519
 21
5837.39481989764
 31
0.0
  0
LINE
  5
DDD46
  8
01
 10
-1405.425832305519
 20
5838.282875453194
 30
0.0
 11
-1405.425832305519
 21
5838.78704211986
 31
0.0
  0
LINE
  5
DDD47
  8
01
 10
-1403.912693416632
 20
5842.166208786523
 30
0.0
 11
-1405.491610083297
 21
5841.572597675413
 31
0.0
  0
LINE
  5
DDD48
  8
01
 10
-1403.912693416632
 20
5842.166208786523
 30
0.0
 11
-1405.425832305519
 21
5842.803153230967
 31
0.0
  0
LINE
  5
DDD49
  8
01
 10
-1404.011360083298
 20
5839.336208786526
 30
0.0
 11
-1404.524998972187
 21
5839.565931008749
 31
0.0
  0
LINE
  5
DDD4A
  8
01
 10
-1404.011360083298
 20
5839.795653230971
 30
0.0
 11
-1404.524998972187
 21
5839.565931008749
 31
0.0
  0
LINE
  5
DDD4B
  8
01
 10
-1403.912693416632
 20
5840.978986564302
 30
0.0
 11
-1405.425832305519
 21
5840.341764342081
 31
0.0
  0
LINE
  5
DDD4C
  8
01
 10
-1403.912693416632
 20
5840.978986564302
 30
0.0
 11
-1405.491610083297
 21
5841.572597675413
 31
0.0
  0
LINE
  5
DDD4D
  8
01
 10
-1402.925832305522
 20
5840.980375453191
 30
0.0
 11
-1405.425832305519
 21
5839.927597675414
 31
0.0
  0
LINE
  5
DDD4E
  8
01
 10
-1402.925832305522
 20
5840.980375453191
 30
0.0
 11
-1404.500776749964
 21
5841.572597675413
 31
0.0
  0
LINE
  5
DDD4F
  8
01
 10
-1402.925832305522
 20
5842.164542119857
 30
0.0
 11
-1405.425832305519
 21
5843.217319897633
 31
0.0
  0
LINE
  5
DDD50
  8
01
 10
-1402.925832305522
 20
5842.164542119857
 30
0.0
 11
-1404.500776749964
 21
5841.572597675413
 31
0.0
  0
LINE
  5
DDD51
  8
01
 10
-1402.991610083299
 20
5840.68426434208
 30
0.0
 11
-1405.491610083297
 21
5839.565931008749
 31
0.0
  0
LINE
  5
DDD52
  8
01
 10
-1402.991610083299
 20
5840.251764342082
 30
0.0
 11
-1403.649526749965
 21
5839.957597675415
 31
0.0
  0
LINE
  5
DDD53
  8
01
 10
-1402.991637861077
 20
5840.251764342082
 30
0.0
 11
-1402.991637861077
 21
5840.68426434208
 31
0.0
  0
LINE
  5
DDD54
  8
01
 10
-1404.011360083298
 20
5839.336208786526
 30
0.0
 11
-1404.011360083298
 21
5839.795653230971
 31
0.0
  0
LINE
  5
DDD55
  8
01
 10
-1403.649526749965
 20
5839.174264342082
 30
0.0
 11
-1403.649526749965
 21
5839.957597675415
 31
0.0
  0
LINE
  5
DDD56
  8
01
 10
-1402.991610083299
 20
5842.860097675411
 30
0.0
 11
-1403.649526749965
 21
5843.154542119856
 31
0.0
  0
LINE
  5
DDD57
  8
01
 10
-1402.991637861077
 20
5842.427597675412
 30
0.0
 11
-1402.991637861077
 21
5842.860097675411
 31
0.0
  0
LINE
  5
DDD58
  8
01
 10
-1405.425832305519
 20
5839.927597675414
 30
0.0
 11
-1405.425832305519
 21
5840.341764342081
 31
0.0
  0
LINE
  5
DDD59
  8
01
 10
-1405.425832305519
 20
5842.803153230967
 30
0.0
 11
-1405.425832305519
 21
5843.217319897633
 31
0.0
  0
LINE
  5
DDD5A
  8
01
 10
-1404.06573257214
 20
5843.751613206423
 30
0.0
 11
-1404.524998972187
 21
5843.546208786523
 31
0.0
  0
LINE
  5
DDD5B
  8
01
 10
-1404.891569788816
 20
5843.814653627399
 30
0.0
 11
-1405.491610083297
 21
5843.546208786523
 31
0.0
  0
LINE
  5
DDD5C
  8
1CENTER
 10
-1548.515576594107
 20
5858.750097675406
 30
0.0
 11
-1520.515576594107
 21
5858.750097675406
 31
0.0
  0
CIRCLE
  5
DDD5D
  8
1DIM
 10
-1423.701154293675
 20
5784.138808161029
 30
0.0
 40
5.0
  0
TEXT
  5
DDD5E
  8
1TEXT
 10
-1425.034487625372
 20
5782.138808158171
 30
0.0
 40
4.0
  1
3
 72
     4
 11
-1423.701154292039
 21
5784.138808158171
 31
0.0
  0
LINE
  5
DDD6C
  8
1DIM
 10
-1400.668687806717
 20
5842.953709859556
 30
0.0
 11
-1400.668687806717
 21
5839.768421841004
 31
0.0
  0
LINE
  5
DDD6D
  8
1DIM
 10
-1401.658932786578
 20
5841.872692423208
 30
0.0
 11
-1401.658932786578
 21
5838.291306412712
 31
0.0
  0
LINE
  5
DDD74
  8
01
  6
BYBLOCK
 10
-1426.428172740487
 20
5803.571484933331
 30
0.0
 11
-1437.078172740487
 21
5803.571484933331
 31
0.0
  0
LINE
  5
DDD75
  8
01
  6
BYBLOCK
 10
-1426.428172740487
 20
5799.271484933332
 30
0.0
 11
-1437.078172740487
 21
5799.271484933331
 31
0.0
  0
LINE
  5
DDD76
  8
01
  6
BYBLOCK
 10
-1424.078172740487
 20
5797.421484933331
 30
0.0
 11
-1424.578172740487
 21
5797.421484933331
 31
0.0
  0
LINE
  5
DDD77
  8
01
  6
BYBLOCK
 10
-1424.078172740487
 20
5805.421484933331
 30
0.0
 11
-1424.578172740487
 21
5805.421484933331
 31
0.0
  0
LINE
  5
DDD78
  8
01
  6
BYBLOCK
 10
-1437.078172740487
 20
5798.921484933331
 30
0.0
 11
-1493.678172740487
 21
5798.921484933331
 31
0.0
  0
LINE
  5
DDD79
  8
1HATCH
 10
-1437.078172740487
 20
5799.321484933331
 30
0.0
 11
-1494.078172740487
 21
5799.321484933331
 31
0.0
  0
LINE
  5
DDD7A
  8
01
  6
BYBLOCK
 10
-1437.078172740487
 20
5803.921484933331
 30
0.0
 11
-1493.678172740487
 21
5803.921484933331
 31
0.0
  0
LINE
  5
DDD7B
  8
1HATCH
 10
-1437.078172740487
 20
5803.521484933332
 30
0.0
 11
-1494.078172740487
 21
5803.521484933332
 31
0.0
  0
LINE
  5
DDD7C
  8
01
  6
BYBLOCK
 10
-1494.078172740487
 20
5803.521484933332
 30
0.0
 11
-1494.078172740487
 21
5799.321484933331
 31
0.0
  0
LINE
  5
DDD7D
  8
01
  6
BYBLOCK
 10
-1437.078172740487
 20
5803.921484933331
 30
0.0
 11
-1437.078172740487
 21
5798.921484933331
 31
0.0
  0
LINE
  5
DDD7E
  8
01
  6
BYBLOCK
 10
-1424.078172740487
 20
5805.421484933331
 30
0.0
 11
-1424.078172740487
 21
5797.421484933331
 31
0.0
  0
LINE
  5
DDD7F
  8
01
  6
BYBLOCK
 10
-1424.578172740487
 20
5805.421484933331
 30
0.0
 11
-1424.578172740487
 21
5797.421484933331
 31
0.0
  0
LINE
  5
DDD80
  8
01
  6
BYBLOCK
 10
-1424.578172740487
 20
5805.421484933331
 30
0.0
 11
-1426.428172740487
 21
5803.571484933331
 31
0.0
  0
LINE
  5
DDD81
  8
01
  6
BYBLOCK
 10
-1424.578172740487
 20
5797.421484933331
 30
0.0
 11
-1426.428172740487
 21
5799.271484933332
 31
0.0
  0
LINE
  5
DDD82
  8
01
 10
-1426.428172740487
 20
5803.571484933331
 30
0.0
 11
-1426.428172740487
 21
5799.271484933331
 31
0.0
  0
LINE
  5
DDD83
  8
01
  6
BYBLOCK
 10
-1494.078172740487
 20
5803.521484933332
 30
0.0
 11
-1493.678172740487
 21
5803.921484933331
 31
0.0
  0
LINE
  5
DDD84
  8
01
  6
BYBLOCK
 10
-1494.078172740487
 20
5799.321484933331
 30
0.0
 11
-1493.678172740487
 21
5798.921484933331
 31
0.0
  0
LINE
  5
DDD85
  8
01
  6
BYBLOCK
 10
-1493.678172740487
 20
5803.921484933331
 30
0.0
 11
-1493.678172740487
 21
5798.921484933331
 31
0.0
  0
CIRCLE
  5
DDD86
  8
01
 10
-1408.636807875125
 20
5801.421484933331
 30
0.0
 40
4.0
  0
LINE
  5
DDD88
  8
1HATCH
 10
-1405.880815846406
 20
5801.421484933331
 30
0.0
 11
-1407.749864753319
 21
5801.421484933331
 31
0.0
  0
LINE
  5
DDD89
  8
1HATCH
 10
-1409.523719581499
 20
5801.421484933331
 30
0.0
 11
-1411.392799903844
 21
5801.421484933331
 31
0.0
  0
LINE
  5
DDD8A
  8
1HATCH
 10
-1408.636807875125
 20
5804.17747696205
 30
0.0
 11
-1408.636807875125
 21
5802.308390658422
 31
0.0
  0
LINE
  5
DDD8B
  8
1HATCH
 10
-1408.636807875125
 20
5800.53452942903
 30
0.0
 11
-1408.636807875125
 21
5798.665492904612
 31
0.0
  0
CIRCLE
  5
DE1DB
  8
01
 10
-1490.762361596139
 20
5839.650097675407
 30
0.0
 40
2.100000000000023
  0
CIRCLE
  5
DE1DC
  8
1HATCH
 10
-1490.762361596139
 20
5839.650097675407
 30
0.0
 40
2.5
  0
CIRCLE
  5
DE1DD
  8
01
 10
-1490.762361596139
 20
5839.650097675407
 30
0.0
 40
2.75
  0
LINE
  5
DE1DE
  8
1CENTER
 10
-1486.762361596139
 20
5839.650097675407
 30
0.0
 11
-1494.762361596139
 21
5839.650097675407
 31
0.0
  0
LINE
  5
DE1DF
  8
1CENTER
 10
-1490.762361596139
 20
5843.650097675407
 30
0.0
 11
-1490.762361596139
 21
5835.650097675407
 31
0.0
  0
LINE
  5
DE1E0
  8
1DIM
 10
-1406.689918257518
 20
5800.361473860549
 30
0.0
 11
-1407.749889642576
 21
5801.421460043726
 31
0.0
  0
LINE
  5
DE1E1
  8
1DIM
 10
-1406.689924448249
 20
5802.481440036086
 30
0.0
 11
-1407.576799792964
 21
5803.36832776235
 31
0.0
  0
LINE
  5
DE1E2
  8
1DIM
 10
-1406.689924448249
 20
5802.481440036086
 30
0.0
 11
-1407.749889642576
 21
5801.421460043726
 31
0.0
  0
LINE
  5
DE1E3
  8
1DIM
 10
-1407.576805983781
 20
5799.474598515835
 30
0.0
 11
-1406.689918257518
 21
5800.361473860549
 31
0.0
  0
LINE
  5
DE1E4
  8
1DIM
 10
-1407.576805983781
 20
5799.474598515835
 30
0.0
 11
-1408.63677978522
 21
5800.534557519328
 31
0.0
  0
LINE
  5
DE1E5
  8
1DIM
 10
-1408.63677978522
 20
5800.534557519328
 30
0.0
 11
-1409.696751170468
 21
5799.474571335961
 31
0.0
  0
LINE
  5
DE1E6
  8
1DIM
 10
-1409.523694691547
 20
5801.421460043726
 30
0.0
 11
-1410.583674683907
 21
5802.481425238054
 31
0.0
  0
LINE
  5
DE1E7
  8
1DIM
 10
-1409.523694691547
 20
5801.421460043726
 30
0.0
 11
-1410.583668492797
 21
5800.361501040424
 31
0.0
  0
LINE
  5
DE1E8
  8
1DIM
 10
-1410.583668492797
 20
5800.361501040424
 30
0.0
 11
-1409.696751170468
 21
5799.474571335961
 31
0.0
  0
LINE
  5
DE1E9
  8
1DIM
 10
-1408.63677978522
 20
5802.308362568126
 30
0.0
 11
-1409.696744979444
 21
5803.368342560382
 31
0.0
  0
LINE
  5
DE1EA
  8
1DIM
 10
-1409.696744979444
 20
5803.368342560382
 30
0.0
 11
-1410.583674683907
 21
5802.481425238054
 31
0.0
  0
LINE
  5
DE1EB
  8
1DIM
 10
-1407.576799792964
 20
5803.36832776235
 30
0.0
 11
-1408.63677978522
 21
5802.308362568126
 31
0.0
  0
LINE
  5
DE1EC
  8
1DIM
 10
-1490.762361596139
 20
5835.650097675407
 30
0.0
 11
-1490.762361596139
 21
5821.185141152414
 31
0.0
  0
LINE
  5
DE1ED
  8
1DIM
 10
-1500.762361596139
 20
5834.350097675408
 30
0.0
 11
-1500.762361596139
 21
5821.185141152414
 31
0.0
  0
LINE
  5
DE1EE
  8
1DIM
 10
-1492.762361596139
 20
5822.185141152414
 30
0.0
 11
-1498.762361596139
 21
5822.185141152414
 31
0.0
  0
LINE
  5
DE1F2
  8
1DIM
 10
-1490.762361596139
 20
5835.650097675407
 30
0.0
 11
-1490.762361596139
 21
5821.185141152414
 31
0.0
  0
LINE
  5
DE1F3
  8
1DIM
 10
-1458.262361596139
 20
5834.350097675408
 30
0.0
 11
-1458.262361596139
 21
5821.185141152414
 31
0.0
  0
LINE
  5
DE1F4
  8
1DIM
 10
-1488.762361596139
 20
5822.185141152414
 30
0.0
 11
-1460.262361596139
 21
5822.185141152414
 31
0.0
  0
LINE
  5
DE1F8
  8
1DIM
 10
-1501.562361596139
 20
5865.150097675407
 30
0.0
 11
-1501.562361596139
 21
5886.757701790668
 31
0.0
  0
LINE
  5
DE1F9
  8
1DIM
 10
-1435.062361596139
 20
5873.250097675406
 30
0.0
 11
-1435.062361596139
 21
5886.757701790668
 31
0.0
  0
LINE
  5
DE1FA
  8
1DIM
 10
-1499.562361596139
 20
5885.757701790668
 30
0.0
 11
-1437.062361596139
 21
5885.757701790668
 31
0.0
  0
LINE
  5
DE1FE
  8
1DIM
 10
-1435.562361596139
 20
5873.750097675406
 30
0.0
 11
-1422.874672318804
 21
5873.750097675406
 31
0.0
  0
LINE
  5
DE1FF
  8
1DIM
 10
-1435.562361596139
 20
5843.750097675406
 30
0.0
 11
-1422.874672318804
 21
5843.750097675406
 31
0.0
  0
LINE
  5
DE200
  8
1DIM
 10
-1423.874672318804
 20
5871.750097675406
 30
0.0
 11
-1423.874672318804
 21
5845.750097675406
 31
0.0
  0
LINE
  5
DE204
  8
1DIM
 10
-1452.062361596139
 20
5873.750097675406
 30
0.0
 11
-1452.062361596139
 21
5879.591666132387
 31
0.0
  0
LINE
  5
DE205
  8
1DIM
 10
-1435.062361596139
 20
5873.250097675406
 30
0.0
 11
-1435.062361596139
 21
5879.591666132387
 31
0.0
  0
LINE
  5
DE206
  8
1DIM
 10
-1450.062361596139
 20
5878.591666132387
 30
0.0
 11
-1437.062361596139
 21
5878.591666132387
 31
0.0
  0
LINE
  5
DE20A
  8
1DIM
 10
-1411.425832305521
 20
5858.750097675407
 30
0.0
 11
-1411.425832305521
 21
5883.950642575206
 31
0.0
  0
LINE
  5
DE20B
  8
1DIM
 10
-1396.925832305521
 20
5858.750097675407
 30
0.0
 11
-1396.925832305521
 21
5883.950642575206
 31
0.0
  0
LINE
  5
DE20C
  8
1DIM
 10
-1409.425832305521
 20
5882.950642575206
 30
0.0
 11
-1398.925832305521
 21
5882.950642575206
 31
0.0
  0
LINE
  5
DE210
  8
1DIM
 10
-1543.015576594106
 20
5858.750097675406
 30
0.0
 11
-1543.015576594106
 21
5884.234460112495
 31
0.0
  0
LINE
  5
DE211
  8
1DIM
 10
-1526.015576594106
 20
5858.750097675406
 30
0.0
 11
-1526.015576594106
 21
5884.234460112495
 31
0.0
  0
LINE
  5
DE212
  8
1DIM
 10
-1541.015576594106
 20
5883.234460112495
 30
0.0
 11
-1528.015576594106
 21
5883.234460112495
 31
0.0
  0
LINE
  5
DE216
  8
1DIM
 10
-1534.515576594106
 20
5867.250097675407
 30
0.0
 11
-1510.208561171644
 21
5867.250097675407
 31
0.0
  0
LINE
  5
DE217
  8
1DIM
 10
-1534.515576594106
 20
5834.350097675408
 30
0.0
 11
-1510.208561171644
 21
5834.350097675408
 31
0.0
  0
LINE
  5
DE218
  8
1DIM
 10
-1511.208561171644
 20
5865.250097675407
 30
0.0
 11
-1511.208561171644
 21
5836.350097675408
 31
0.0
  0
LINE
  5
DE21D
  8
1DIM
 10
-1430.71636712178
 20
5797.561211823849
 30
0.0
 11
-1425.424733044396
 21
5788.832343746285
 31
0.0
  0
LINE
  5
DE21E
  8
1DIM
 10
-1494.078172740487
 20
5803.521484933332
 30
0.0
 11
-1494.078172740487
 21
5813.470753294197
 31
0.0
1001
ACAD
1000
DSTYLE
1002
{
1070
     3
1000
(<>)
1002
}
  0
LINE
  5
DE21F
  8
1DIM
 10
-1424.078172740487
 20
5805.421484933331
 30
0.0
 11
-1424.078172740487
 21
5813.470753294197
 31
0.0
1001
ACAD
1000
DSTYLE
1002
{
1070
     3
1000
(<>)
1002
}
  0
LINE
  5
DE220
  8
1DIM
 10
-1492.078172740487
 20
5812.470753294197
 30
0.0
 11
-1426.078172740487
 21
5812.470753294197
 31
0.0
1001
ACAD
1000
DSTYLE
1002
{
1070
     3
1000
(<>)
1002
}
  0
LINE
  5
DE224
  8
1DIM
 10
-1398.609996907019
 20
5819.034004332544
 30
0.0
 11
-1405.668344101672
 21
5806.635717650203
 31
0.0
1001
ACAD_DSTYLE_DIMRADIAL_EXTE
1070
   387
1070
     1
1070
   388
1040
0.0
1070
   390
1040
0.0
1001
ACAD
1000
DSTYLE
1002
{
1070
     3
1000
(\U+0192\U+00D3<>)
1002
}
  0
LINE
  5
DE225
  8
1DIM
 10
-1411.605271648577
 20
5796.207252216459
 30
0.0
 11
-1412.594759573062
 21
5794.469174644169
 31
0.0
1001
ACAD_DSTYLE_DIMRADIAL_EXTE
1070
   387
1070
     1
1070
   388
1040
0.0
1070
   390
1040
0.0
1001
ACAD
1000
DSTYLE
1002
{
1070
     3
1000
(\U+0192\U+00D3<>)
1002
}
  0
LINE
  5
DE227
  8
1DIM
 10
-1410.615783724093
 20
5797.945329788749
 30
0.0
 11
-1406.657832026156
 21
5804.897640077913
 31
0.0
1001
ACAD_DSTYLE_DIMRADIAL_EXTE
1070
   387
1070
     1
1070
   388
1040
0.0
1070
   390
1040
0.0
1001
ACAD
1000
DSTYLE
1002
{
1070
     3
1000
(\U+0192\U+00D3<>)
1002
}
  0
TEXT
  5
DE22A
  8
1DIM
  6
CONTINUOUS
 10
-1463.098071837735
 20
5792.723076591315
 30
0.0
 40
3.5
  1
M5
  0
LINE
  5
DE22C
  8
1DIM
 10
-1467.390314761123
 20
5799.8662535733
 30
0.0
 11
-1463.798071837735
 21
5792.023076591316
 31
0.0
  0
LINE
  5
DE22D
  8
1DIM
 10
-1437.078172740487
 20
5798.921484933331
 30
0.0
 11
-1437.078172740487
 21
5781.051139585957
 31
0.0
1001
ACAD
1000
DSTYLE
1002
{
1070
     3
1000
(<>)
1002
}
  0
LINE
  5
DE22E
  8
1DIM
 10
-1494.078172740487
 20
5799.321484933331
 30
0.0
 11
-1494.078172740487
 21
5781.051139585957
 31
0.0
1001
ACAD
1000
DSTYLE
1002
{
1070
     3
1000
(<>)
1002
}
  0
LINE
  5
DE22F
  8
1DIM
 10
-1439.078172740487
 20
5782.051139585957
 30
0.0
 11
-1492.078172740487
 21
5782.051139585957
 31
0.0
1001
ACAD
1000
DSTYLE
1002
{
1070
     3
1000
(<>)
1002
}
  0
LINE
  5
DE233
  8
0
  6
BYBLOCK
 10
-1492.762361596139
 20
5822.721039152414
 30
0.0
 11
-1490.762361596139
 21
5822.185141152414
 31
0.0
  0
LINE
  5
DE234
  8
0
  6
BYBLOCK
 10
-1490.762361596139
 20
5822.185141152414
 30
0.0
 11
-1492.762361596139
 21
5821.649243152414
 31
0.0
  0
LINE
  5
DE235
  8
0
  6
BYBLOCK
 10
-1490.762361596139
 20
5822.185141152414
 30
0.0
 11
-1492.762361596139
 21
5822.185141152414
 31
0.0
  0
LINE
  5
DE236
  8
0
  6
BYBLOCK
 10
-1498.762361596139
 20
5821.649243152414
 30
0.0
 11
-1500.762361596139
 21
5822.185141152414
 31
0.0
  0
LINE
  5
DE237
  8
0
  6
BYBLOCK
 10
-1500.762361596139
 20
5822.185141152414
 30
0.0
 11
-1498.762361596139
 21
5822.721039152414
 31
0.0
  0
LINE
  5
DE238
  8
0
  6
BYBLOCK
 10
-1500.762361596139
 20
5822.185141152414
 30
0.0
 11
-1498.762361596139
 21
5822.185141152414
 31
0.0
  0
TEXT
  5
DE239
  8
1DIM
  6
CONTINUOUS
 10
-1497.876944929473
 20
5822.885141152414
 30
0.0
 40
3.5
  1
10
  0
LINE
  5
DE23A
  8
0
  6
BYBLOCK
 10
-1488.762361596139
 20
5821.649243152414
 30
0.0
 11
-1490.762361596139
 21
5822.185141152414
 31
0.0
  0
LINE
  5
DE23B
  8
0
  6
BYBLOCK
 10
-1490.762361596139
 20
5822.185141152414
 30
0.0
 11
-1488.762361596139
 21
5822.721039152414
 31
0.0
  0
LINE
  5
DE23C
  8
0
  6
BYBLOCK
 10
-1490.762361596139
 20
5822.185141152414
 30
0.0
 11
-1488.762361596139
 21
5822.185141152414
 31
0.0
  0
LINE
  5
DE23D
  8
0
  6
BYBLOCK
 10
-1460.262361596139
 20
5822.721039152414
 30
0.0
 11
-1458.262361596139
 21
5822.185141152414
 31
0.0
  0
LINE
  5
DE23E
  8
0
  6
BYBLOCK
 10
-1458.262361596139
 20
5822.185141152414
 30
0.0
 11
-1460.262361596139
 21
5821.649243152414
 31
0.0
  0
LINE
  5
DE23F
  8
0
  6
BYBLOCK
 10
-1458.262361596139
 20
5822.185141152414
 30
0.0
 11
-1460.262361596139
 21
5822.185141152414
 31
0.0
  0
TEXT
  5
DE240
  8
1DIM
  6
CONTINUOUS
 10
-1475.679028262806
 20
5822.885141152414
 30
0.0
 40
3.5
  1
A
  0
LINE
  5
DE241
  8
0
  6
BYBLOCK
 10
-1499.562361596139
 20
5885.221803790668
 30
0.0
 11
-1501.562361596139
 21
5885.757701790668
 31
0.0
  0
LINE
  5
DE242
  8
0
  6
BYBLOCK
 10
-1501.562361596139
 20
5885.757701790668
 30
0.0
 11
-1499.562361596139
 21
5886.293599790668
 31
0.0
  0
LINE
  5
DE243
  8
0
  6
BYBLOCK
 10
-1501.562361596139
 20
5885.757701790668
 30
0.0
 11
-1499.562361596139
 21
5885.757701790668
 31
0.0
  0
LINE
  5
DE244
  8
0
  6
BYBLOCK
 10
-1437.062361596139
 20
5886.293599790668
 30
0.0
 11
-1435.062361596139
 21
5885.757701790668
 31
0.0
  0
LINE
  5
DE245
  8
0
  6
BYBLOCK
 10
-1435.062361596139
 20
5885.757701790668
 30
0.0
 11
-1437.062361596139
 21
5885.221803790668
 31
0.0
  0
LINE
  5
DE246
  8
0
  6
BYBLOCK
 10
-1435.062361596139
 20
5885.757701790668
 30
0.0
 11
-1437.062361596139
 21
5885.757701790668
 31
0.0
  0
TEXT
  5
DE247
  8
1DIM
  6
CONTINUOUS
 10
-1474.729028262806
 20
5886.457701790668
 30
0.0
 40
3.5
  1
A+34
  0
LINE
  5
DE248
  8
0
  6
BYBLOCK
 10
-1424.410570318804
 20
5871.750097675406
 30
0.0
 11
-1423.874672318804
 21
5873.750097675406
 31
0.0
  0
LINE
  5
DE249
  8
0
  6
BYBLOCK
 10
-1423.874672318804
 20
5873.750097675406
 30
0.0
 11
-1423.338774318804
 21
5871.750097675406
 31
0.0
  0
LINE
  5
DE24A
  8
0
  6
BYBLOCK
 10
-1423.874672318804
 20
5873.750097675406
 30
0.0
 11
-1423.874672318804
 21
5871.750097675406
 31
0.0
  0
LINE
  5
DE24B
  8
0
  6
BYBLOCK
 10
-1423.338774318804
 20
5845.750097675406
 30
0.0
 11
-1423.874672318804
 21
5843.750097675406
 31
0.0
  0
LINE
  5
DE24C
  8
0
  6
BYBLOCK
 10
-1423.874672318804
 20
5843.750097675406
 30
0.0
 11
-1424.410570318804
 21
5845.750097675406
 31
0.0
  0
LINE
  5
DE24D
  8
0
  6
BYBLOCK
 10
-1423.874672318804
 20
5843.750097675406
 30
0.0
 11
-1423.874672318804
 21
5845.750097675406
 31
0.0
  0
TEXT
  5
DE24E
  8
1DIM
  6
CONTINUOUS
 10
-1424.574672318804
 20
5856.052181008739
 30
0.0
 40
3.5
  1
30
 50
90.0
  0
LINE
  5
DE24F
  8
0
  6
BYBLOCK
 10
-1450.062361596139
 20
5878.055768132387
 30
0.0
 11
-1452.062361596139
 21
5878.591666132387
 31
0.0
  0
LINE
  5
DE250
  8
0
  6
BYBLOCK
 10
-1452.062361596139
 20
5878.591666132387
 30
0.0
 11
-1450.062361596139
 21
5879.127564132387
 31
0.0
  0
LINE
  5
DE251
  8
0
  6
BYBLOCK
 10
-1452.062361596139
 20
5878.591666132387
 30
0.0
 11
-1450.062361596139
 21
5878.591666132387
 31
0.0
  0
LINE
  5
DE252
  8
0
  6
BYBLOCK
 10
-1437.062361596139
 20
5879.127564132387
 30
0.0
 11
-1435.062361596139
 21
5878.591666132387
 31
0.0
  0
LINE
  5
DE253
  8
0
  6
BYBLOCK
 10
-1435.062361596139
 20
5878.591666132387
 30
0.0
 11
-1437.062361596139
 21
5878.055768132387
 31
0.0
  0
LINE
  5
DE254
  8
0
  6
BYBLOCK
 10
-1435.062361596139
 20
5878.591666132387
 30
0.0
 11
-1437.062361596139
 21
5878.591666132387
 31
0.0
  0
TEXT
  5
DE255
  8
1DIM
  6
CONTINUOUS
 10
-1445.895694929473
 20
5879.291666132387
 30
0.0
 40
3.5
  1
17
  0
LINE
  5
DE256
  8
0
  6
BYBLOCK
 10
-1409.425832305521
 20
5882.414744575206
 30
0.0
 11
-1411.425832305521
 21
5882.950642575206
 31
0.0
  0
LINE
  5
DE257
  8
0
  6
BYBLOCK
 10
-1411.425832305521
 20
5882.950642575206
 30
0.0
 11
-1409.425832305521
 21
5883.486540575206
 31
0.0
  0
LINE
  5
DE258
  8
0
  6
BYBLOCK
 10
-1411.425832305521
 20
5882.950642575206
 30
0.0
 11
-1409.425832305521
 21
5882.950642575206
 31
0.0
  0
LINE
  5
DE259
  8
0
  6
BYBLOCK
 10
-1398.925832305521
 20
5883.486540575206
 30
0.0
 11
-1396.925832305521
 21
5882.950642575206
 31
0.0
  0
LINE
  5
DE25A
  8
0
  6
BYBLOCK
 10
-1396.925832305521
 20
5882.950642575206
 30
0.0
 11
-1398.925832305521
 21
5882.414744575206
 31
0.0
  0
LINE
  5
DE25B
  8
0
  6
BYBLOCK
 10
-1396.925832305521
 20
5882.950642575206
 30
0.0
 11
-1398.925832305521
 21
5882.950642575206
 31
0.0
  0
TEXT
  5
DE25C
  8
1DIM
  6
CONTINUOUS
 10
-1408.842498972188
 20
5883.650642575205
 30
0.0
 40
3.5
  1
14.5
  0
LINE
  5
DE25D
  8
0
  6
BYBLOCK
 10
-1541.015576594106
 20
5882.698562112495
 30
0.0
 11
-1543.015576594106
 21
5883.234460112495
 31
0.0
  0
LINE
  5
DE25E
  8
0
  6
BYBLOCK
 10
-1543.015576594106
 20
5883.234460112495
 30
0.0
 11
-1541.015576594106
 21
5883.770358112495
 31
0.0
  0
LINE
  5
DE25F
  8
0
  6
BYBLOCK
 10
-1543.015576594106
 20
5883.234460112495
 30
0.0
 11
-1541.015576594106
 21
5883.234460112495
 31
0.0
  0
LINE
  5
DE260
  8
0
  6
BYBLOCK
 10
-1528.015576594106
 20
5883.770358112495
 30
0.0
 11
-1526.015576594106
 21
5883.234460112495
 31
0.0
  0
LINE
  5
DE261
  8
0
  6
BYBLOCK
 10
-1526.015576594106
 20
5883.234460112495
 30
0.0
 11
-1528.015576594106
 21
5882.698562112495
 31
0.0
  0
LINE
  5
DE262
  8
0
  6
BYBLOCK
 10
-1526.015576594106
 20
5883.234460112495
 30
0.0
 11
-1528.015576594106
 21
5883.234460112495
 31
0.0
  0
TEXT
  5
DE263
  8
1DIM
  6
CONTINUOUS
 10
-1536.84890992744
 20
5883.934460112495
 30
0.0
 40
3.5
  1
17
  0
LINE
  5
DE264
  8
0
  6
BYBLOCK
 10
-1511.744459171644
 20
5865.250097675407
 30
0.0
 11
-1511.208561171644
 21
5867.250097675407
 31
0.0
  0
LINE
  5
DE265
  8
0
  6
BYBLOCK
 10
-1511.208561171644
 20
5867.250097675407
 30
0.0
 11
-1510.672663171644
 21
5865.250097675407
 31
0.0
  0
LINE
  5
DE266
  8
0
  6
BYBLOCK
 10
-1511.208561171644
 20
5867.250097675407
 30
0.0
 11
-1511.208561171644
 21
5865.250097675407
 31
0.0
  0
LINE
  5
DE267
  8
0
  6
BYBLOCK
 10
-1510.672663171644
 20
5836.350097675408
 30
0.0
 11
-1511.208561171644
 21
5834.350097675408
 31
0.0
  0
LINE
  5
DE268
  8
0
  6
BYBLOCK
 10
-1511.208561171644
 20
5834.350097675408
 30
0.0
 11
-1511.744459171644
 21
5836.350097675408
 31
0.0
  0
LINE
  5
DE269
  8
0
  6
BYBLOCK
 10
-1511.208561171644
 20
5834.350097675408
 30
0.0
 11
-1511.208561171644
 21
5836.350097675408
 31
0.0
  0
TEXT
  5
DE26A
  8
1DIM
  6
CONTINUOUS
 10
-1511.908561171644
 20
5845.549287490222
 30
0.0
 40
3.5
  1
32.9
 50
90.0
  0
LINE
  5
DE26B
  8
0
  6
BYBLOCK
 10
-1431.174633091193
 20
5797.283400795121
 30
0.0
 11
-1431.753172740487
 21
5799.271484933331
 31
0.0
  0
LINE
  5
DE26C
  8
0
  6
BYBLOCK
 10
-1431.753172740487
 20
5799.271484933331
 30
0.0
 11
-1430.258101152367
 21
5797.839022852575
 31
0.0
  0
LINE
  5
DE26D
  8
0
  6
BYBLOCK
 10
-1431.753172740487
 20
5799.271484933331
 30
0.0
 11
-1430.71636712178
 21
5797.561211823849
 31
0.0
  0
LINE
  5
DE26E
  8
0
  6
BYBLOCK
 10
-1492.078172740487
 20
5811.934855294196
 30
0.0
 11
-1494.078172740487
 21
5812.470753294197
 31
0.0
  0
LINE
  5
DE26F
  8
0
  6
BYBLOCK
 10
-1494.078172740487
 20
5812.470753294197
 30
0.0
 11
-1492.078172740487
 21
5813.006651294197
 31
0.0
  0
LINE
  5
DE270
  8
0
  6
BYBLOCK
 10
-1494.078172740487
 20
5812.470753294197
 30
0.0
 11
-1492.078172740487
 21
5812.470753294197
 31
0.0
  0
LINE
  5
DE271
  8
0
  6
BYBLOCK
 10
-1426.078172740487
 20
5813.006651294197
 30
0.0
 11
-1424.078172740487
 21
5812.470753294197
 31
0.0
  0
LINE
  5
DE272
  8
0
  6
BYBLOCK
 10
-1424.078172740487
 20
5812.470753294197
 30
0.0
 11
-1426.078172740487
 21
5811.934855294196
 31
0.0
  0
LINE
  5
DE273
  8
0
  6
BYBLOCK
 10
-1424.078172740487
 20
5812.470753294197
 30
0.0
 11
-1426.078172740487
 21
5812.470753294197
 31
0.0
  0
TEXT
  5
DE274
  8
1DIM
  6
CONTINUOUS
 10
-1463.890672740487
 20
5814.087419960863
 30
0.0
 40
3.5
  1
(70)
1001
ACAD
1000
DSTYLE
1002
{
1070
     3
1000
(<>)
1002
}
  0
TEXT
  5
DE275
  8
1DIM
  6
CONTINUOUS
 10
-1405.913643588176
 20
5810.452321879421
 30
0.0
 40
3.5
  1
(
 50
60.34713166355648
1001
ACAD_DSTYLE_DIMRADIAL_EXTE
1070
   387
1070
     1
1070
   388
1040
0.0
1070
   390
1040
0.0
1001
ACAD
1000
DSTYLE
1002
{
1070
     3
1000
(\U+0192\U+00D3<>)
1002
}
  0
TEXT
  5
DE276
  8
1DIM
  6
CONTINUOUS
 10
-1404.759241009611
 20
5812.480079047094
 30
0.0
 40
3.5
  1
φ
 50
60.34713166355648
1001
ACAD_DSTYLE_DIMRADIAL_EXTE
1070
   387
1070
     1
1070
   388
1040
0.0
1070
   390
1040
0.0
1001
ACAD
1000
DSTYLE
1002
{
1070
     3
1000
(\U+0192\U+00D3<>)
1002
}
  0
TEXT
  5
DE277
  8
1DIM
  6
CONTINUOUS
 10
-1403.192139509209
 20
5815.232759402209
 30
0.0
 40
3.5
  1
8)
 50
60.34713166355648
1001
ACAD_DSTYLE_DIMRADIAL_EXTE
1070
   387
1070
     1
1070
   388
1040
0.0
1070
   390
1040
0.0
1001
ACAD
1000
DSTYLE
1002
{
1070
     3
1000
(\U+0192\U+00D3<>)
1002
}
  0
LINE
  5
DE278
  8
0
  6
BYBLOCK
 10
-1412.070987795995
 20
5796.472384516336
 30
0.0
 11
-1410.615783724093
 21
5797.945329788749
 31
0.0
  0
LINE
  5
DE279
  8
0
  6
BYBLOCK
 10
-1410.615783724093
 20
5797.945329788749
 30
0.0
 11
-1411.13955550116
 21
5795.942119916581
 31
0.0
  0
LINE
  5
DE27A
  8
0
  6
BYBLOCK
 10
-1410.615783724093
 20
5797.945329788749
 30
0.0
 11
-1411.605271648577
 21
5796.207252216459
 31
0.0
  0
LINE
  5
DE27B
  8
0
  6
BYBLOCK
 10
-1405.202627954255
 20
5806.370585350326
 30
0.0
 11
-1406.657832026156
 21
5804.897640077913
 31
0.0
  0
LINE
  5
DE27C
  8
0
  6
BYBLOCK
 10
-1406.657832026156
 20
5804.897640077913
 30
0.0
 11
-1406.13406024909
 21
5806.900849950081
 31
0.0
  0
LINE
  5
DE27D
  8
0
  6
BYBLOCK
 10
-1406.657832026156
 20
5804.897640077913
 30
0.0
 11
-1405.668344101672
 21
5806.635717650203
 31
0.0
  0
LINE
  5
DE27E
  8
0
  6
BYBLOCK
 10
-1467.877540682103
 20
5799.64309988561
 30
0.0
 11
-1468.223136259577
 21
5801.684606771035
 31
0.0
  0
LINE
  5
DE27F
  8
0
  6
BYBLOCK
 10
-1468.223136259577
 20
5801.684606771035
 30
0.0
 11
-1466.903088840143
 21
5800.08940726099
 31
0.0
  0
LINE
  5
DE280
  8
0
  6
BYBLOCK
 10
-1468.223136259577
 20
5801.684606771035
 30
0.0
 11
-1467.390314761123
 21
5799.8662535733
 31
0.0
  0
LINE
  5
DE281
  8
0
  6
BYBLOCK
 10
-1439.078172740487
 20
5782.587037585957
 30
0.0
 11
-1437.078172740487
 21
5782.051139585957
 31
0.0
  0
LINE
  5
DE282
  8
0
  6
BYBLOCK
 10
-1437.078172740487
 20
5782.051139585957
 30
0.0
 11
-1439.078172740487
 21
5781.515241585957
 31
0.0
  0
LINE
  5
DE283
  8
0
  6
BYBLOCK
 10
-1437.078172740487
 20
5782.051139585957
 30
0.0
 11
-1439.078172740487
 21
5782.051139585957
 31
0.0
  0
LINE
  5
DE284
  8
0
  6
BYBLOCK
 10
-1492.078172740487
 20
5781.515241585957
 30
0.0
 11
-1494.078172740487
 21
5782.051139585957
 31
0.0
  0
LINE
  5
DE285
  8
0
  6
BYBLOCK
 10
-1494.078172740487
 20
5782.051139585957
 30
0.0
 11
-1492.078172740487
 21
5782.587037585957
 31
0.0
  0
LINE
  5
DE286
  8
0
  6
BYBLOCK
 10
-1494.078172740487
 20
5782.051139585957
 30
0.0
 11
-1492.078172740487
 21
5782.051139585957
 31
0.0
  0
TEXT
  5
DE287
  8
1DIM
  6
CONTINUOUS
 10
-1470.694492184931
 20
5782.753570141511
 30
0.0
 40
3.5
  1
(57)
1001
ACAD
1000
DSTYLE
1002
{
1070
     3
1000
(<>)
1002
}
  0
VIEWPORT
  5
7DA1A
 67
     1
  8
0
 10
0.0
 20
0.0
 30
0.0
 40
744.0882352941187
 41
297.0000000000004
 68
     1
 69
     1
1001
ACAD
1000
MVIEW
1002
{
1070
    16
1010
0.0
1020
0.0
1030
0.0
1010
0.0
1020
0.0
1030
1.0
1040
0.0
1040
297.0000000000004
1040
7.434084012613788
1040
9.394630563595712
1040
50.0
1040
0.0
1040
0.0
1070
    16
1070
   100
1070
     0
1070
     3
1070
     0
1070
     0
1070
     0
1070
     0
1040
0.0
1040
0.0
1040
0.0
1040
10.0
1040
10.0
1040
10.0
1040
10.0
1070
     0
1002
{
1002
}
1002
}
  0
ENDSEC
  0
EOF
