  0
SECTION
  2
HEADER
  9
$ACADVER
  1
AC1009
  9
$DWGCODEPAGE
  3
ansi_932
  9
$INSBASE
 10
0.0
 20
0.0
 30
0.0
  9
$EXTMIN
 10
120.4162315779419
 20
-734.4213303512677
 30
0.0
  9
$EXTMAX
 10
815.5162416153653
 20
-503.3905354339633
 30
0.0
  9
$LIMMIN
 10
0.0
 20
0.0
  9
$LIMMAX
 10
420.0
 20
297.0
  9
$ORTHOMODE
 70
     0
  9
$REGENMODE
 70
     1
  9
$FILLMODE
 70
     1
  9
$QTEXTMODE
 70
     0
  9
$MIRRTEXT
 70
     0
  9
$DRAGMODE
 70
     2
  9
$LTSCALE
 40
0.5
  9
$OSMODE
 70
  2303
  9
$ATTMODE
 70
     1
  9
$TEXTSIZE
 40
4.0
  9
$TRACEWID
 40
1.0
  9
$TEXTSTYLE
  7
STANDARD
  9
$CLAYER
  8
1TEXT
  9
$CELTYPE
  6
BYLAYER
  9
$CECOLOR
 62
   256
  9
$DIMSCALE
 40
1.0
  9
$DIMASZ
 40
2.0
  9
$DIMEXO
 40
0.0
  9
$DIMDLI
 40
7.0
  9
$DIMRND
 40
0.0
  9
$DIMDLE
 40
0.0
  9
$DIMEXE
 40
1.0
  9
$DIMTP
 40
0.0
  9
$DIMTM
 40
0.0
  9
$DIMTXT
 40
3.5
  9
$DIMCEN
 40
0.0
  9
$DIMTSZ
 40
0.0
  9
$DIMTOL
 70
     0
  9
$DIMLIM
 70
     0
  9
$DIMTIH
 70
     0
  9
$DIMTOH
 70
     0
  9
$DIMSE1
 70
     0
  9
$DIMSE2
 70
     0
  9
$DIMTAD
 70
     1
  9
$DIMZIN
 70
     8
  9
$DIMBLK
  1

  9
$DIMASO
 70
     1
  9
$DIMSHO
 70
     1
  9
$DIMPOST
  1
 
  9
$DIMAPOST
  1

  9
$DIMALT
 70
     0
  9
$DIMALTD
 70
     2
  9
$DIMALTF
 40
25.4
  9
$DIMLFAC
 40
1.0
  9
$DIMTOFL
 70
     1
  9
$DIMTVP
 40
0.0
  9
$DIMTIX
 70
     0
  9
$DIMSOXD
 70
     0
  9
$DIMSAH
 70
     1
  9
$DIMBLK1
  1
OPEN30
  9
$DIMBLK2
  1
OPEN30
  9
$DIMSTYLE
  2
NEWX10
  9
$DIMCLRD
 70
   256
  9
$DIMCLRE
 70
   256
  9
$DIMCLRT
 70
   201
  9
$DIMTFAC
 40
0.7
  9
$DIMGAP
 40
0.7
  9
$LUNITS
 70
     2
  9
$LUPREC
 70
     4
  9
$SKETCHINC
 40
1.0
  9
$FILLETRAD
 40
0.0
  9
$AUNITS
 70
     0
  9
$AUPREC
 70
     2
  9
$MENU
  1
acad
  9
$ELEVATION
 40
0.0
  9
$PELEVATION
 40
0.0
  9
$THICKNESS
 40
0.0
  9
$LIMCHECK
 70
     0
  9
$CHAMFERA
 40
1.0
  9
$CHAMFERB
 40
1.0
  9
$SKPOLY
 70
     0
  9
$TDCREATE
 40
2453033.732663484
  9
$TDUPDATE
 40
2460243.370072674
  9
$TDINDWG
 40
2.729506169
  9
$TDUSRTIMER
 40
2.7295061806
  9
$USRTIMER
 70
     1
  9
$ANGBASE
 50
0.0
  9
$ANGDIR
 70
     0
  9
$PDMODE
 70
     0
  9
$PDSIZE
 40
0.0
  9
$PLINEWID
 40
0.0
  9
$COORDS
 70
     2
  9
$SPLFRAME
 70
     0
  9
$SPLINETYPE
 70
     6
  9
$SPLINESEGS
 70
     8
  9
$ATTDIA
 70
     0
  9
$ATTREQ
 70
     1
  9
$HANDLING
 70
     1
  9
$HANDSEED
  5
24C19
  9
$SURFTAB1
 70
     6
  9
$SURFTAB2
 70
     6
  9
$SURFTYPE
 70
     6
  9
$SURFU
 70
     6
  9
$SURFV
 70
     6
  9
$UCSNAME
  2

  9
$UCSORG
 10
0.0
 20
0.0
 30
0.0
  9
$UCSXDIR
 10
1.0
 20
0.0
 30
0.0
  9
$UCSYDIR
 10
0.0
 20
1.0
 30
0.0
  9
$PUCSNAME
  2

  9
$PUCSORG
 10
0.0
 20
0.0
 30
0.0
  9
$PUCSXDIR
 10
1.0
 20
0.0
 30
0.0
  9
$PUCSYDIR
 10
0.0
 20
1.0
 30
0.0
  9
$USERI1
 70
     0
  9
$USERI2
 70
     0
  9
$USERI3
 70
     0
  9
$USERI4
 70
     0
  9
$USERI5
 70
     0
  9
$USERR1
 40
0.0
  9
$USERR2
 40
0.0
  9
$USERR3
 40
0.0
  9
$USERR4
 40
0.0
  9
$USERR5
 40
0.0
  9
$WORLDVIEW
 70
     1
  9
$SHADEDGE
 70
     3
  9
$SHADEDIF
 70
    70
  9
$TILEMODE
 70
     1
  9
$MAXACTVP
 70
    48
  9
$PLIMCHECK
 70
     0
  9
$PEXTMIN
 10
1.000000000000000E+20
 20
1.000000000000000E+20
 30
1.000000000000000E+20
  9
$PEXTMAX
 10
-1.000000000000000E+20
 20
-1.000000000000000E+20
 30
-1.000000000000000E+20
  9
$PLIMMIN
 10
0.0
 20
0.0
  9
$PLIMMAX
 10
420.0
 20
297.0
  9
$UNITMODE
 70
     0
  9
$VISRETAIN
 70
     1
  9
$PLINEGEN
 70
     0
  9
$PSLTSCALE
 70
     1
  0
ENDSEC
  0
SECTION
  2
TABLES
  0
TABLE
  2
VPORT
 70
     1
  0
VPORT
  2
*ACTIVE
 70
     0
 10
0.0
 20
0.0
 11
1.0
 21
1.0
 12
467.9662365966536
 22
-618.9059328926155
 13
0.0
 23
0.0
 14
10.0
 24
10.0
 15
10.0
 25
10.0
 16
0.0
 26
0.0
 36
1.0
 17
0.0
 27
0.0
 37
0.0
 40
424.3000813642761
 41
1.758938869665513
 42
50.0
 43
0.0
 44
0.0
 50
0.0
 51
0.0
 71
    16
 72
   100
 73
     1
 74
     1
 75
     0
 76
     0
 77
     0
 78
     0
  0
ENDTAB
  0
TABLE
  2
LTYPE
 70
    19
  0
LTYPE
  2
CONTINUOUS
 70
     0
  3
Solid line
 72
    65
 73
     0
 40
0.0
  0
LTYPE
  2
CENTER2
 70
     0
  3
Center (.5x) ___ _ ___ _ ___ _ ___ _ ___ _ ___
 72
    65
 73
     4
 40
28.575
 49
19.05
 49
-3.175
 49
3.175
 49
-3.175
  0
LTYPE
  2
PHANTOM2
 70
     0
  3
Phantom (0.5x) ___ _ _ ___ _ _ ___ _ _ ___ _ _
 72
    65
 73
     6
 40
31.75
 49
15.875
 49
-3.175
 49
3.175
 49
-3.175
 49
3.175
 49
-3.175
  0
ENDTAB
  0
TABLE
  2
LAYER
 70
    45
  0
LAYER
  2
0
 70
     0
 62
     7
  6
CONTINUOUS
  0
LAYER
  2
1CENTER
 70
     0
 62
     7
  6
CENTER2
  0
LAYER
  2
1TEXT
 70
     0
 62
     7
  6
CONTINUOUS
  0
LAYER
  2
1DIM
 70
     0
 62
     7
  6
CONTINUOUS
  0
LAYER
  2
1PHANTOM
 70
     0
 62
     7
  6
PHANTOM2
  0
LAYER
  2
01
 70
     0
 62
     1
  6
CONTINUOUS
  0
LAYER
  2
1DIM1
 70
     0
 62
     7
  6
CONTINUOUS
  0
LAYER
  2
1HATCH
 70
     0
 62
     7
  6
CONTINUOUS
  0
ENDTAB
  0
TABLE
  2
STYLE
 70
    26
  0
STYLE
  2
STANDARD
 70
     0
 40
0.0
 41
1.0
 50
0.0
 71
     0
 42
4.0
  3
txt.shx
  4
extfont.shx
  0
ENDTAB
  0
TABLE
  2
VIEW
 70
     0
  0
ENDTAB
  0
TABLE
  2
UCS
 70
     0
  0
ENDTAB
  0
TABLE
  2
APPID
 70
    18
  0
APPID
  2
ACAD
 70
     0
  0
APPID
  2
DRAWINGVARIABLESXDATA
 70
     0
  0
APPID
  2
CONTENTTABDATA
 70
     0
  0
APPID
  2
CONTENTCURRENTTAB
 70
     0
  0
APPID
  2
CONTENTBLOCKDESCRIPTION
 70
     0
  0
APPID
  2
CONTENTBLOCKICON
 70
     0
  0
APPID
  2
CONTENTLONGBLOCKNAME
 70
     0
  0
APPID
  2
ACAD_PSEXT
 70
     0
  0
APPID
  2
ACAD_DSTYLE_DIMTEXT_FILL
 70
     0
  0
APPID
  2
ACAD_MLEADERVER
 70
     0
  0
APPID
  2
ACAD_DSTYLE_DIMRADIAL_EXTE
 70
     0
  0
APPID
  2
ACADANNOTATIVE
 70
     0
  0
APPID
  2
ACAD_EXEMPT_FROM_CAD_STAND
 70
     0
  0
APPID
  2
ACDBBLOCKREPETAG
 70
     0
  0
APPID
  2
ACAD_OBJECT_CHANGE_GUID
 70
     0
  0
APPID
  2
ACAD_NAV_VCDISPLAY
 70
     0
  0
APPID
  2
ACLAYERTOOLS
 70
     0
  0
APPID
  2
ACDBDYNAMICBLOCKGUID
 70
     0
  0
ENDTAB
  0
TABLE
  2
DIMSTYLE
 70
    11
  0
DIMSTYLE
  2
NEWX10
 70
     0
  3
 
  4

  5

  6
OPEN30
  7
OPEN30
 40
1.0
 41
2.0
 42
0.0
 43
7.0
 44
1.0
 45
0.0
 46
0.0
 47
0.0
 48
0.0
140
3.5
141
0.0
142
0.0
143
25.4
144
1.0
145
0.0
146
0.7
147
0.7
 71
     0
 72
     0
 73
     0
 74
     0
 75
     0
 76
     0
 77
     1
 78
     8
170
     0
171
     2
172
     1
173
     1
174
     0
175
     0
176
   256
177
   256
178
   201
  0
DIMSTYLE
  2
ISO-25
 70
     0
  3

  4

  5

  6

  7

 40
1.0
 41
20.0
 42
3.0
 43
3.75
 44
2.0
 45
0.0
 46
0.0
 47
0.0
 48
0.0
140
30.0
141
5.0
142
0.0
143
0.03937
144
1.0
145
0.0
146
1.0
147
8.0
 71
     0
 72
     0
 73
     0
 74
     0
 75
     0
 76
     0
 77
     1
 78
     8
170
     0
171
     3
172
     1
173
     0
174
     0
175
     0
176
     1
177
     1
178
     1
  0
ENDTAB
  0
ENDSEC
  0
SECTION
  2
BLOCKS
  0
BLOCK
  8
0
  2
$MODEL_SPACE
 70
     0
 10
0.0
 20
0.0
 30
0.0
  3
$MODEL_SPACE
  1

  0
ENDBLK
  5
1A
  8
0
  0
BLOCK
 67
     1
  8
0
  2
$PAPER_SPACE
 70
     0
 10
0.0
 20
0.0
 30
0.0
  3
$PAPER_SPACE
  1

  0
ENDBLK
  5
17
 67
     1
  8
0
  0
BLOCK
  8
0
  2
_OPEN30
 70
     0
 10
0.0
 20
0.0
 30
0.0
  3
_OPEN30
  1

  0
LINE
  5
44
  8
0
  6
BYBLOCK
 62
     0
 10
-1.0
 20
0.26794919
 30
0.0
 11
0.0
 21
0.0
 31
0.0
  0
LINE
  5
45
  8
0
  6
BYBLOCK
 62
     0
 10
0.0
 20
0.0
 30
0.0
 11
-1.0
 21
-0.26794919
 31
0.0
  0
LINE
  5
46
  8
0
  6
BYBLOCK
 62
     0
 10
0.0
 20
0.0
 30
0.0
 11
-1.0
 21
0.0
 31
0.0
  0
ENDBLK
  5
47
  8
0
  0
BLOCK
  8
0
  2
A3WAKUKAWAJUN2017_HYOUDAI_
 70
     0
 10
0.0
 20
0.0
 30
0.0
  3
A3WAKUKAWAJUN2017_HYOUDAI_
  1

  0
LINE
  5
20318
  8
0
 10
13.26299999998673
 20
-0.0001000000000317
 30
0.0
 11
9.236999999990758
 21
8.999899999990987
 31
0.0
1001
ACAD
1000
ASC_BOUNDS
1002
{
1070
    19
1005
20359
1002
}
  0
LINE
  5
20319
  8
0
 10
5.657999999994331
 20
0.9999999999989768
 30
0.0
 11
9.236999999990758
 21
8.999999999991019
 31
0.0
1001
ACAD
1000
ASC_BOUNDS
1002
{
1070
    19
1005
20359
1002
}
  0
LINE
  5
2031A
  8
0
 10
18.59199999998134
 20
-0.2368999999997641
 30
0.0
 11
16.46099999998353
 21
5.432899999994561
 31
0.0
1001
ACAD
1000
ASC_BOUNDS
1002
{
1070
    19
1005
2035A
1002
}
  0
LINE
  5
2031B
  8
0
 10
18.59199999998134
 20
-0.2368999999997641
 30
0.0
 11
22.38199999997767
 21
8.763099999991255
 31
0.0
1001
ACAD
1000
ASC_BOUNDS
1002
{
1070
    19
1005
2035A
1002
}
  0
LINE
  5
2031C
  8
0
 10
14.32899999998563
 20
-0.2368999999997641
 30
0.0
 11
16.46099999998353
 21
5.432899999994561
 31
0.0
1001
ACAD
1000
ASC_BOUNDS
1002
{
1070
    19
1005
2035A
1002
}
  0
LINE
  5
2031D
  8
0
 10
14.32899999998563
 20
-0.2368999999997641
 30
0.0
 11
10.53899999998941
 21
8.763099999991255
 31
0.0
1001
ACAD
1000
ASC_BOUNDS
1002
{
1070
    19
1005
2035A
1002
}
  0
LINE
  5
2031E
  8
0
 10
19.53899999998043
 20
-0.0001000000000317
 30
0.0
 11
23.56599999997638
 21
8.999899999990987
 31
0.0
1001
ACAD
1000
ASC_BOUNDS
1002
{
1070
    19
1005
2035B
1002
}
  0
LINE
  5
2031F
  8
0
 10
26.97358892824991
 20
1.383099999991202
 30
0.0
 11
23.56599999997638
 21
8.999899999990987
 31
0.0
1001
ACAD
1000
ASC_BOUNDS
1002
{
1070
    19
1005
2035B
1002
}
  0
LINE
  5
20320
  8
0
 10
5.657999999994331
 20
0.9999999999989768
 30
0.0
 11
3.181999999996833
 21
4.668599999995308
 31
0.0
1001
ACAD
1000
ASC_BOUNDS
1002
{
1070
    19
1005
20359
1002
}
  0
LINE
  5
20321
  8
0
 10
4.617999999995391
 20
-0.0001000000000317
 30
0.0
 11
1.420999999998571
 21
4.736799999995242
 31
0.0
1001
ACAD
1000
ASC_BOUNDS
1002
{
1070
    19
1005
20359
1002
}
  0
LINE
  5
20322
  8
0
 10
1.420999999998571
 20
8.763099999991255
 30
0.0
 11
1.420999999998571
 21
0.0
 31
0.0
1001
ACAD
1000
ASC_BOUNDS
1002
{
1070
    19
1005
2035E
1002
}
  0
LINE
  5
20323
  8
0
 10
0.0
 20
8.763099999991255
 30
0.0
 11
0.0
 21
0.0
 31
0.0
1001
ACAD
1000
ASC_BOUNDS
1002
{
1070
    19
1005
2035E
1002
}
  0
LINE
  5
20324
  8
0
 10
6.766999999993232
 20
-0.0001000000000317
 30
0.0
 11
7.826999999992154
 21
2.368399999997621
 31
0.0
1001
ACAD
1000
ASC_BOUNDS
1002
{
1070
    19
1005
20359
1002
}
  0
LINE
  5
20325
  8
0
 10
0.0
 20
0.0
 30
0.0
 11
1.420999999998571
 21
0.0
 31
0.0
1001
ACAD
1000
ASC_BOUNDS
1002
{
1070
    19
1005
2035E
1002
}
  0
LINE
  5
20326
  8
0
 10
4.617999999995391
 20
0.0
 30
0.0
 11
6.766999999993232
 21
0.0
 31
0.0
1001
ACAD
1000
ASC_BOUNDS
1002
{
1070
    19
1005
20359
1002
}
  0
LINE
  5
20327
  8
0
 10
11.70599999998831
 20
-0.0001000000000317
 30
0.0
 11
10.64699999998936
 21
2.368399999997621
 31
0.0
1001
ACAD
1000
ASC_BOUNDS
1002
{
1070
    19
1005
20359
1002
}
  0
LINE
  5
20328
  8
0
 10
7.826999999992154
 20
2.368399999997621
 30
0.0
 11
10.64699999998936
 21
2.368399999997621
 31
0.0
1001
ACAD
1000
ASC_BOUNDS
1002
{
1070
    19
1005
20359
1002
}
  0
LINE
  5
20329
  8
0
 10
11.70599999998831
 20
0.0
 30
0.0
 11
13.26299999998673
 21
0.0
 31
0.0
1001
ACAD
1000
ASC_BOUNDS
1002
{
1070
    19
1005
20359
1002
}
  0
LINE
  5
2032A
  8
0
 10
22.15599999997789
 20
2.368399999997621
 30
0.0
 11
24.97599999997499
 21
2.368399999997621
 31
0.0
1001
ACAD
1000
ASC_BOUNDS
1002
{
1070
    19
1005
2035B
1002
}
  0
LINE
  5
2032B
  8
0
 10
19.53899999998043
 20
0.0
 30
0.0
 11
21.09599999997886
 21
0.0
 31
0.0
1001
ACAD
1000
ASC_BOUNDS
1002
{
1070
    19
1005
2035B
1002
}
  0
LINE
  5
2032C
  8
0
 10
21.09599999997886
 20
-0.0001000000000317
 30
0.0
 11
22.15599999997789
 21
2.368399999997621
 31
0.0
1001
ACAD
1000
ASC_BOUNDS
1002
{
1070
    19
1005
2035B
1002
}
  0
LINE
  5
2032D
  8
0
 10
26.02015566812236
 20
0.0330999999912365
 30
0.0
 11
24.97599999997499
 21
2.368399999997621
 31
0.0
1001
ACAD
1000
ASC_BOUNDS
1002
{
1070
    19
1005
2035B
1002
}
  0
LINE
  5
2032E
  8
0
 10
14.32399999998563
 20
3.315799999996671
 30
0.0
 11
16.46099999998353
 21
8.999899999990987
 31
0.0
1001
ACAD
1000
ASC_BOUNDS
1002
{
1070
    19
1005
2035A
1002
}
  0
LINE
  5
2032F
  8
0
 10
6.432999999993513
 20
8.763099999991255
 30
0.0
 11
3.181999999996833
 21
4.668599999995308
 31
0.0
1001
ACAD
1000
ASC_BOUNDS
1002
{
1070
    19
1005
20359
1002
}
  0
LINE
  5
20330
  8
0
 10
4.617999999995391
 20
8.763099999991255
 30
0.0
 11
1.420999999998571
 21
4.736799999995242
 31
0.0
1001
ACAD
1000
ASC_BOUNDS
1002
{
1070
    19
1005
20359
1002
}
  0
LINE
  5
20331
  8
0
 10
0.0
 20
8.763099999991255
 30
0.0
 11
1.420999999998571
 21
8.763099999991255
 31
0.0
1001
ACAD
1000
ASC_BOUNDS
1002
{
1070
    19
1005
2035E
1002
}
  0
LINE
  5
20332
  8
0
 10
4.617999999995391
 20
8.763099999991255
 30
0.0
 11
6.432999999993513
 21
8.763099999991255
 31
0.0
1001
ACAD
1000
ASC_BOUNDS
1002
{
1070
    19
1005
20359
1002
}
  0
LINE
  5
20333
  8
0
 10
14.32399999998563
 20
3.315799999996671
 30
0.0
 11
12.02999999998792
 21
8.763099999991255
 31
0.0
1001
ACAD
1000
ASC_BOUNDS
1002
{
1070
    19
1005
2035A
1002
}
  0
LINE
  5
20334
  8
0
 10
10.06399999998996
 20
3.670999999996297
 30
0.0
 11
9.236999999990758
 21
5.5200999999945
 31
0.0
1001
ACAD
1000
ASC_BOUNDS
1002
{
1070
    19
1005
20359
1002
}
  0
LINE
  5
20335
  8
0
 10
8.409999999991555
 20
3.670999999996297
 30
0.0
 11
9.236999999990758
 21
5.5200999999945
 31
0.0
1001
ACAD
1000
ASC_BOUNDS
1002
{
1070
    19
1005
20359
1002
}
  0
LINE
  5
20336
  8
0
 10
8.409999999991555
 20
3.670999999996297
 30
0.0
 11
10.06399999998996
 21
3.670999999996297
 31
0.0
1001
ACAD
1000
ASC_BOUNDS
1002
{
1070
    19
1005
20359
1002
}
  0
LINE
  5
20337
  8
0
 10
10.53899999998941
 20
8.763099999991255
 30
0.0
 11
12.02999999998792
 21
8.763099999991255
 31
0.0
1001
ACAD
1000
ASC_BOUNDS
1002
{
1070
    19
1005
2035A
1002
}
  0
LINE
  5
20338
  8
0
 10
22.7389999999773
 20
3.670999999996297
 30
0.0
 11
23.56599999997638
 21
5.5200999999945
 31
0.0
1001
ACAD
1000
ASC_BOUNDS
1002
{
1070
    19
1005
2035B
1002
}
  0
LINE
  5
20339
  8
0
 10
22.7389999999773
 20
3.670999999996297
 30
0.0
 11
24.39299999997559
 21
3.670999999996297
 31
0.0
1001
ACAD
1000
ASC_BOUNDS
1002
{
1070
    19
1005
2035B
1002
}
  0
LINE
  5
2033A
  8
0
 10
18.59799999998143
 20
3.315799999996671
 30
0.0
 11
20.89099999997916
 21
8.763099999991255
 31
0.0
1001
ACAD
1000
ASC_BOUNDS
1002
{
1070
    19
1005
2035A
1002
}
  0
LINE
  5
2033B
  8
0
 10
18.59799999998143
 20
3.315799999996671
 30
0.0
 11
16.46099999998353
 21
8.999899999990987
 31
0.0
1001
ACAD
1000
ASC_BOUNDS
1002
{
1070
    19
1005
2035A
1002
}
  0
LINE
  5
2033C
  8
0
 10
20.89099999997916
 20
8.763099999991255
 30
0.0
 11
22.38199999997767
 21
8.763099999991255
 31
0.0
1001
ACAD
1000
ASC_BOUNDS
1002
{
1070
    19
1005
2035A
1002
}
  0
LINE
  5
2033D
  8
0
 10
24.39299999997559
 20
3.670999999996297
 30
0.0
 11
23.56599999997638
 21
5.5200999999945
 31
0.0
1001
ACAD
1000
ASC_BOUNDS
1002
{
1070
    19
1005
2035B
1002
}
  0
LINE
  5
2033E
  8
0
 10
44.99999999995498
 20
-0.2368999999997641
 30
0.0
 11
40.02599999995994
 21
5.341799999994635
 31
0.0
1001
ACAD
1000
ASC_BOUNDS
1002
{
1070
    19
1005
2035D
1002
}
  0
LINE
  5
2033F
  8
0
 10
40.02599999995994
 20
5.341799999994635
 30
0.0
 11
40.02599999995994
 21
0.0
 31
0.0
1001
ACAD
1000
ASC_BOUNDS
1002
{
1070
    19
1005
2035D
1002
}
  0
LINE
  5
20340
  8
0
 10
38.60499999996136
 20
8.999999999991019
 30
0.0
 11
38.60499999996136
 21
0.0
 31
0.0
1001
ACAD
1000
ASC_BOUNDS
1002
{
1070
    19
1005
2035D
1002
}
  0
LINE
  5
20341
  8
0
 10
44.99999999995498
 20
8.763099999991255
 30
0.0
 11
44.99999999995498
 21
-0.2368999999997641
 31
0.0
1001
ACAD
1000
ASC_BOUNDS
1002
{
1070
    19
1005
2035D
1002
}
  0
LINE
  5
20342
  8
0
 10
38.60499999996136
 20
0.0
 30
0.0
 11
40.02599999995994
 21
0.0
 31
0.0
1001
ACAD
1000
ASC_BOUNDS
1002
{
1070
    19
1005
2035D
1002
}
  0
LINE
  5
20343
  8
0
 10
43.57899999995641
 20
3.421199999996588
 30
0.0
 11
38.60499999996136
 21
8.999899999990987
 31
0.0
1001
ACAD
1000
ASC_BOUNDS
1002
{
1070
    19
1005
2035D
1002
}
  0
LINE
  5
20344
  8
0
 10
43.57899999995641
 20
8.763099999991255
 30
0.0
 11
43.57899999995641
 21
3.421199999996588
 31
0.0
1001
ACAD
1000
ASC_BOUNDS
1002
{
1070
    19
1005
2035D
1002
}
  0
LINE
  5
20345
  8
0
 10
43.57899999995641
 20
8.763099999991255
 30
0.0
 11
44.99999999995498
 21
8.763099999991255
 31
0.0
1001
ACAD
1000
ASC_BOUNDS
1002
{
1070
    19
1005
2035D
1002
}
  0
LINE
  5
20346
  8
0
 10
37.67199999996831
 20
8.763099999991255
 30
0.0
 11
36.23199999996837
 21
8.763099999991255
 31
0.0
  0
LINE
  5
20347
  8
0
 10
31.64199999996833
 20
8.763099999991255
 30
0.0
 11
31.64199999996833
 21
2.481619422925121
 31
0.0
  0
LINE
  5
20348
  8
0
 10
37.67199999996831
 20
8.763099999991255
 30
0.0
 11
37.67199999996831
 21
2.481619422925121
 31
0.0
  0
LINE
  5
20349
  8
0
 10
36.23199999996837
 20
8.763099999991255
 30
0.0
 11
36.23199999996837
 21
2.481619422925064
 31
0.0
  0
LINE
  5
2034A
  8
0
 10
33.08199999996839
 20
8.763099999991255
 30
0.0
 11
33.08199999996839
 21
2.481619422925121
 31
0.0
  0
ARC
  5
2034B
  8
0
 10
34.65699999996832
 20
3.183099999991214
 30
0.0
 40
3.420000000000007
 50
240.0000000000255
 51
299.9999999999766
  0
ARC
  5
2034C
  8
0
 10
34.65699999996832
 20
3.183099999991214
 30
0.0
 40
1.97999999999999
 50
240.000000000026
 51
299.9999999999703
  0
LINE
  5
2034D
  8
0
 10
33.08199999996828
 20
8.763099999991255
 30
0.0
 11
31.64199999996833
 21
8.763099999991255
 31
0.0
  0
ARC
  5
2034E
  8
0
 10
35.06199999996829
 20
2.481619422925064
 30
0.0
 40
1.17
 50
299.9999999999699
 51
0.0
  0
ARC
  5
2034F
  8
0
 10
34.25199999996835
 20
2.481619422925121
 30
0.0
 40
1.17
 50
180.0
 51
240.0000000000238
  0
ARC
  5
20350
  8
0
 10
35.06199999996841
 20
2.481619422925121
 30
0.0
 40
2.61
 50
299.9999999999756
 51
0.0
  0
ARC
  5
20351
  8
0
 10
34.25199999996835
 20
2.481619422925121
 30
0.0
 40
2.61
 50
180.0
 51
240.0000000000244
  0
LINE
  5
20352
  8
0
 10
29.30199999996933
 20
8.763099999991255
 30
0.0
 11
30.74199999996927
 21
8.763099999991255
 31
0.0
1001
ACAD
1000
ASC_BOUNDS
1002
{
1070
    19
1005
2035B
1002
}
  0
LINE
  5
20353
  8
0
 10
30.74199999996927
 20
8.763099999991255
 30
0.0
 11
30.74199999996927
 21
2.373099999991211
 31
0.0
1001
ACAD
1000
ASC_BOUNDS
1002
{
1070
    19
1005
2035B
1002
}
  0
LINE
  5
20354
  8
0
 10
26.02015566812236
 20
0.0330999999912365
 30
0.0
 11
28.40199999996923
 21
0.0330999999912365
 31
0.0
1001
ACAD
1000
ASC_BOUNDS
1002
{
1070
    19
1005
2035B
1002
}
  0
LINE
  5
20355
  8
0
 10
29.30199999996933
 20
8.763099999991255
 30
0.0
 11
29.30199999996933
 21
2.283099999991236
 31
0.0
1001
ACAD
1000
ASC_BOUNDS
1002
{
1070
    19
1005
2035B
1002
}
  0
LINE
  5
20356
  8
0
 10
26.97358892824991
 20
1.383099999991202
 30
0.0
 11
28.40199999996923
 21
1.383099999991202
 31
0.0
1001
ACAD
1000
ASC_BOUNDS
1002
{
1070
    19
1005
2035B
1002
}
  0
ARC
  5
20357
  8
0
 10
28.40199999996923
 20
2.283099999991236
 30
0.0
 40
0.9
 50
270.0
 51
0.0
1001
ACAD
1000
ASC_BOUNDS
1002
{
1070
    19
1005
2035B
1002
}
  0
ARC
  5
20358
  8
0
 10
28.40199999996923
 20
2.373099999991211
 30
0.0
 40
2.34
 50
270.0
 51
0.0
1001
ACAD
1000
ASC_BOUNDS
1002
{
1070
    19
1005
2035B
1002
}
  0
INSERT
  5
20359
  8
0
  2
*X203
 10
0.0
 20
0.0
 30
0.0
1001
ACAD
1000
HATCH
1002
{
1070
    19
1000
ANSI37
1040
0.15
1040
0.0
1000
ASC_BOUNDS
1070
     2
1070
     2
1070
    12
1005
20318
1005
20319
1005
20320
1005
2032F
1005
20332
1005
20330
1005
20321
1005
20326
1005
20324
1005
20328
1005
20327
1005
20329
1070
     2
1070
     3
1005
20334
1005
20336
1005
20335
1000
ASC_SEEDPOINT
1011
3.614004224891801
1021
2.996669441146025
1031
0.0
1021
2.996669441146025
1031
0.0
1000
R14_HATCH_DATA
1000
20359
1011
1.0
1021
0.0
1031
0.0
1021
0.0
1031
0.0
1011
0.0
1021
1.0
1031
0.0
1021
1.0
1031
0.0
1011
0.0
1021
0.0
1031
1.0
1021
0.0
1031
1.0
1040
0.0
1010
0.0
1020
0.0
1030
1.0
1000
ANSI37
1070
     0
1070
     1
1071
        2
1071
        7
1070
     0
1070
     1
1071
       17
1040
13.26299999998673
1040
-0.0001000000000317
1040
9.236999999990758
1040
8.999899999990987
1040
9.236999999990758
1040
8.999999999991019
1040
5.657999999994331
1040
0.9999999999989768
1040
3.181999999996833
1040
4.668599999995308
1040
6.432999999993513
1040
8.763099999991255
1040
4.617999999995391
1040
8.763099999991255
1040
1.420999999998571
1040
4.736799999995242
1040
4.617999999995391
1040
-0.0001000000000317
1040
4.617999999995391
1040
0.0
1040
6.766999999993232
1040
0.0
1040
6.766999999993232
1040
-0.0001000000000317
1040
7.826999999992154
1040
2.368399999997621
1040
10.64699999998936
1040
2.368399999997621
1040
11.70599999998831
1040
-0.0001000000000317
1040
11.70599999998831
1040
0.0
1040
13.26299999998673
1040
0.0
1071
       12
1005
20318
1005
20319
1005
20320
1005
2032F
1005
20332
1005
20330
1005
20321
1005
20326
1005
20324
1005
20328
1005
20327
1005
20329
1071
       22
1070
     0
1070
     1
1071
        3
1040
9.236999999990758
1040
5.5200999999945
1040
10.06399999998996
1040
3.670999999996297
1040
8.409999999991555
1040
3.670999999996297
1071
        3
1005
20334
1005
20336
1005
20335
1070
     0
1070
     1
1040
0.0
1040
0.15
1070
     0
1070
     2
1040
0.7853981633974483
1040
49.29960901727088
1040
-10.17736998311392
1040
-0.3367596045400932
1040
0.3367596045400932
1070
     0
1040
2.356194490192345
1040
49.29960901727088
1040
-10.17736998311392
1040
-0.3367596045400932
1040
-0.3367596045400932
1070
     0
1040
0.0110235143455945
1071
        2
1040
3.614004224891801
1040
2.996669441146025
1040
0.0
1040
3.614004224891801
1040
2.996669441146025
1040
0.0
1002
}
  0
INSERT
  5
2035A
  8
0
  2
*X204
 10
0.0
 20
0.0
 30
0.0
1001
ACAD
1000
HATCH
1002
{
1070
    19
1000
ANSI37
1040
0.15
1040
0.0
1000
ASC_BOUNDS
1070
     1
1070
     2
1070
    10
1005
2031A
1005
2031B
1005
2033C
1005
2033A
1005
2033B
1005
2032E
1005
20333
1005
20337
1005
2031D
1005
2031C
1000
ASC_SEEDPOINT
1011
14.73245321214324
1021
2.798246178283421
1031
0.0
1021
2.798246178283421
1031
0.0
1000
R14_HATCH_DATA
1000
2035A
1011
1.0
1021
0.0
1031
0.0
1021
0.0
1031
0.0
1011
0.0
1021
1.0
1031
0.0
1021
1.0
1031
0.0
1011
0.0
1021
0.0
1031
1.0
1021
0.0
1031
1.0
1040
0.0
1010
0.0
1020
0.0
1030
1.0
1000
ANSI37
1070
     0
1070
     1
1071
        1
1071
        7
1070
     0
1070
     1
1071
       10
1040
16.46099999998353
1040
5.432899999994561
1040
18.59199999998134
1040
-0.2368999999997641
1040
22.38199999997767
1040
8.763099999991255
1040
20.89099999997916
1040
8.763099999991255
1040
18.59799999998143
1040
3.315799999996671
1040
16.46099999998353
1040
8.999899999990987
1040
14.32399999998563
1040
3.315799999996671
1040
12.02999999998792
1040
8.763099999991255
1040
10.53899999998941
1040
8.763099999991255
1040
14.32899999998563
1040
-0.2368999999997641
1071
       10
1005
2031A
1005
2031B
1005
2033C
1005
2033A
1005
2033B
1005
2032E
1005
20333
1005
20337
1005
2031D
1005
2031C
1070
     0
1070
     1
1040
0.0
1040
0.15
1070
     0
1070
     2
1040
0.7853981633974483
1040
49.29960901727088
1040
-10.17736998311392
1040
-0.3367596045400932
1040
0.3367596045400932
1070
     0
1040
2.356194490192345
1040
49.29960901727088
1040
-10.17736998311392
1040
-0.3367596045400932
1040
-0.3367596045400932
1070
     0
1040
0.0110235143455945
1071
        1
1040
14.73245321214324
1040
2.798246178283421
1040
0.0
1002
}
  0
INSERT
  5
2035B
  8
0
  2
*X205
 10
0.0
 20
0.0
 30
0.0
1001
ACAD
1000
HATCH
1002
{
1070
    19
1000
ANSI37
1040
0.15
1040
0.0
1000
ASC_BOUNDS
1070
     2
1070
     2
1070
    13
1005
2031E
1005
2032B
1005
2032C
1005
2032A
1005
2032D
1005
20354
1005
20358
1005
20353
1005
20352
1005
20355
1005
20357
1005
20356
1005
2031F
1070
     2
1070
     3
1005
20338
1005
2033D
1005
20339
1000
ASC_SEEDPOINT
1011
21.97929957367762
1021
3.294304244259308
1031
0.0
1021
3.294304244259308
1031
0.0
1000
R14_HATCH_DATA
1000
2035B
1011
1.0
1021
0.0
1031
0.0
1021
0.0
1031
0.0
1011
0.0
1021
1.0
1031
0.0
1021
1.0
1031
0.0
1011
0.0
1021
0.0
1031
1.0
1021
0.0
1031
1.0
1040
0.0
1010
0.0
1020
0.0
1030
1.0
1000
ANSI37
1070
     0
1070
     1
1071
        2
1071
        7
1070
     1
1070
     1
1071
       15
1040
23.56599999997638
1040
8.999899999990987
1040
0.0
1040
19.53899999998043
1040
-0.0001000000000317
1040
0.0
1040
19.53899999998043
1040
0.0
1040
0.0
1040
21.09599999997886
1040
0.0
1040
0.0
1040
21.09599999997886
1040
-0.0001000000000317
1040
0.0
1040
22.15599999997789
1040
2.368399999997621
1040
0.0
1040
24.97599999997499
1040
2.368399999997621
1040
0.0
1040
26.02015566812236
1040
0.0330999999912365
1040
0.0
1040
28.40199999996923
1040
0.0330999999912365
1040
0.414213562373095
1040
30.74199999996923
1040
2.373099999991211
1040
0.0
1040
30.74199999996927
1040
8.763099999991255
1040
0.0
1040
29.30199999996933
1040
8.763099999991255
1040
0.0
1040
29.30199999996933
1040
2.283099999991236
1040
-0.414213562373095
1040
28.40199999996923
1040
1.383099999991237
1040
0.0
1040
26.97358892824991
1040
1.383099999991202
1040
0.0
1071
       13
1005
2031E
1005
2032B
1005
2032C
1005
2032A
1005
2032D
1005
20354
1005
20358
1005
20353
1005
20352
1005
20355
1005
20357
1005
20356
1005
2031F
1071
       22
1070
     0
1070
     1
1071
        3
1040
22.7389999999773
1040
3.670999999996297
1040
23.56599999997638
1040
5.5200999999945
1040
24.39299999997559
1040
3.670999999996297
1071
        3
1005
20338
1005
2033D
1005
20339
1070
     0
1070
     1
1040
0.0
1040
0.15
1070
     0
1070
     2
1040
0.7853981633974483
1040
49.29960901727088
1040
-10.17736998311392
1040
-0.3367596045400932
1040
0.3367596045400932
1070
     0
1040
2.356194490192345
1040
49.29960901727088
1040
-10.17736998311392
1040
-0.3367596045400932
1040
-0.3367596045400932
1070
     0
1040
0.0110235143455945
1071
        2
1040
21.97929957367762
1040
3.294304244259308
1040
0.0
1040
21.97929957367762
1040
3.294304244259308
1040
0.0
1002
}
  0
INSERT
  5
2035C
  8
0
  2
*X206
 10
0.0
 20
0.0
 30
0.0
1001
ACAD
1000
HATCH
1002
{
1070
    19
1000
ANSI37
1040
0.15
1040
0.0
1000
R14_HATCH_DATA
1000
2035C
1011
1.0
1021
0.0
1031
0.0
1021
0.0
1031
0.0
1011
0.0
1021
1.0
1031
0.0
1021
1.0
1031
0.0
1011
0.0
1021
0.0
1031
1.0
1021
0.0
1031
1.0
1040
0.0
1010
0.0
1020
0.0
1030
1.0
1000
ANSI37
1070
     0
1070
     1
1071
        1
1071
        7
1070
     1
1070
     1
1071
       12
1040
31.64199999996833
1040
2.481619422925121
1040
0.2679491924310942
1040
32.94699999997067
1040
0.2212931190493919
1040
0.2679491924301353
1040
36.36699999995983
1040
0.2212931190459813
1040
0.2679491924321411
1040
37.67199999996831
1040
2.481619422928361
1040
0.0
1040
37.67199999996831
1040
8.763099999991255
1040
0.0
1040
36.23199999996837
1040
8.763099999991255
1040
0.0
1040
36.23199999996837
1040
2.481619422925064
1040
-0.2679491924310291
1040
35.64699999996708
1040
1.468369700498386
1040
-0.267949192430519
1040
33.66699999997093
1040
1.468369700497703
1040
-0.267949192431809
1040
33.08199999996839
1040
2.481619422926997
1040
0.0
1040
33.08199999996839
1040
8.763099999991255
1040
0.0
1040
31.64199999996833
1040
8.763099999991255
1040
0.0
1071
        0
1070
     0
1070
     1
1040
0.0
1040
0.15
1070
     0
1070
     2
1040
0.7853981633974483
1040
49.29960901727088
1040
-10.17736998311392
1040
-0.3367596045400932
1040
0.3367596045400932
1070
     0
1040
2.356194490192345
1040
49.29960901727088
1040
-10.17736998311392
1040
-0.3367596045400932
1040
-0.3367596045400932
1070
     0
1040
0.0110235143455945
1071
        1
1040
32.30357378967278
1040
3.988785755459219
1040
0.0
1002
}
  0
INSERT
  5
2035D
  8
0
  2
*X207
 10
0.0
 20
0.0
 30
0.0
1001
ACAD
1000
HATCH
1002
{
1070
    19
1000
ANSI37
1040
0.15
1040
0.0
1000
ASC_BOUNDS
1070
     1
1070
     2
1070
     8
1005
2033E
1005
20341
1005
20345
1005
20344
1005
20343
1005
20340
1005
20342
1005
2033F
1000
ASC_SEEDPOINT
1011
39.74896370716704
1021
4.484843821435049
1031
0.0
1021
4.484843821435049
1031
0.0
1000
R14_HATCH_DATA
1000
2035D
1011
1.0
1021
0.0
1031
0.0
1021
0.0
1031
0.0
1011
0.0
1021
1.0
1031
0.0
1021
1.0
1031
0.0
1011
0.0
1021
0.0
1031
1.0
1021
0.0
1031
1.0
1040
0.0
1010
0.0
1020
0.0
1030
1.0
1000
ANSI37
1070
     0
1070
     1
1071
        1
1071
        7
1070
     0
1070
     1
1071
        9
1040
40.02599999995994
1040
5.341799999994635
1040
44.99999999995498
1040
-0.2368999999997641
1040
44.99999999995498
1040
8.763099999991255
1040
43.57899999995641
1040
8.763099999991255
1040
43.57899999995641
1040
3.421199999996588
1040
38.60499999996136
1040
8.999899999990987
1040
38.60499999996136
1040
8.999999999991019
1040
38.60499999996136
1040
0.0
1040
40.02599999995994
1040
0.0
1071
        8
1005
2033E
1005
20341
1005
20345
1005
20344
1005
20343
1005
20340
1005
20342
1005
2033F
1070
     0
1070
     1
1040
0.0
1040
0.15
1070
     0
1070
     2
1040
0.7853981633974483
1040
49.29960901727088
1040
-10.17736998311392
1040
-0.3367596045400932
1040
0.3367596045400932
1070
     0
1040
2.356194490192345
1040
49.29960901727088
1040
-10.17736998311392
1040
-0.3367596045400932
1040
-0.3367596045400932
1070
     0
1040
0.0110235143455945
1071
        1
1040
39.74896370716704
1040
4.484843821435049
1040
0.0
1002
}
  0
INSERT
  5
2035E
  8
0
  2
*X208
 10
0.0
 20
0.0
 30
0.0
1001
ACAD
1000
HATCH
1002
{
1070
    19
1000
ANSI37
1040
0.15
1040
0.0
1000
ASC_BOUNDS
1070
     1
1070
     2
1070
     4
1005
20322
1005
20331
1005
20323
1005
20325
1000
ASC_SEEDPOINT
1011
1.079051535452663
1021
4.148538732891836
1031
0.0
1021
4.148538732891836
1031
0.0
1000
R14_HATCH_DATA
1000
2035E
1011
1.0
1021
0.0
1031
0.0
1021
0.0
1031
0.0
1011
0.0
1021
1.0
1031
0.0
1021
1.0
1031
0.0
1011
0.0
1021
0.0
1031
1.0
1021
0.0
1031
1.0
1040
0.0
1010
0.0
1020
0.0
1030
1.0
1000
ANSI37
1070
     0
1070
     1
1071
        1
1071
        7
1070
     0
1070
     1
1071
        4
1040
1.420999999998571
1040
0.0
1040
1.420999999998571
1040
8.763099999991255
1040
0.0
1040
8.763099999991255
1040
0.0
1040
0.0
1071
        4
1005
20322
1005
20331
1005
20323
1005
20325
1070
     0
1070
     1
1040
0.0
1040
0.15
1070
     0
1070
     2
1040
0.7853981633974483
1040
49.29960901727088
1040
-10.17736998311392
1040
-0.3367596045400932
1040
0.3367596045400932
1070
     0
1040
2.356194490192345
1040
49.29960901727088
1040
-10.17736998311392
1040
-0.3367596045400932
1040
-0.3367596045400932
1070
     0
1040
0.0053004257112761
1071
        1
1040
1.079051535452663
1040
4.148538732891836
1040
0.0
1002
}
  0
ENDBLK
  5
20A16
  8
0
  0
BLOCK
  8
0
  2
*X203
 70
     1
 10
0.0
 20
0.0
 30
0.0
  3
*X203
  1

  0
LINE
  5
24A75
  8
0
  6
CONTINUOUS
 10
3.418023043697893
 20
7.251849696850613
 30
0.0
 11
4.929273346838536
 21
8.763099999991255
 31
0.0
  0
LINE
  5
24A76
  8
0
  6
CONTINUOUS
 10
1.483656411257782
 20
4.643963855330318
 30
0.0
 11
5.60279255591872
 21
8.763099999991255
 31
0.0
  0
LINE
  5
24A77
  8
0
  6
CONTINUOUS
 10
1.755053947328235
 20
4.241842182320584
 30
0.0
 11
6.276311764998907
 21
8.763099999991255
 31
0.0
  0
LINE
  5
24A78
  8
0
  6
CONTINUOUS
 10
2.026451483398688
 20
3.839720509310849
 30
0.0
 11
4.441040904851878
 21
6.254309930764039
 31
0.0
  0
LINE
  5
24A79
  8
0
  6
CONTINUOUS
 10
2.297849019469139
 20
3.437598836301114
 30
0.0
 11
3.321765168359338
 21
4.461514985191313
 31
0.0
  0
LINE
  5
24A7A
  8
0
  6
CONTINUOUS
 10
2.569246555539591
 20
3.03547716329138
 30
0.0
 11
3.593163397972743
 21
4.059394005724531
 31
0.0
  0
LINE
  5
24A7B
  8
0
  6
CONTINUOUS
 10
2.840644091610043
 20
2.633355490281646
 30
0.0
 11
3.864561627586149
 21
3.657273026257751
 31
0.0
  0
LINE
  5
24A7C
  8
0
  6
CONTINUOUS
 10
3.112041627680496
 20
2.231233817271911
 30
0.0
 11
4.135959857199554
 21
3.25515204679097
 31
0.0
  0
LINE
  5
24A7D
  8
0
  6
CONTINUOUS
 10
3.383439163750948
 20
1.829112144262177
 30
0.0
 11
4.40735808681296
 21
2.853031067324189
 31
0.0
  0
LINE
  5
24A7E
  8
0
  6
CONTINUOUS
 10
3.654836699821399
 20
1.426990471252442
 30
0.0
 11
4.678756316426365
 21
2.450910087857407
 31
0.0
  0
LINE
  5
24A7F
  8
0
  6
CONTINUOUS
 10
3.926234235891853
 20
1.024868798242709
 30
0.0
 11
4.95015454603977
 21
2.048789108390626
 31
0.0
  0
LINE
  5
24A80
  8
0
  6
CONTINUOUS
 10
4.197631771962304
 20
0.6227471252329737
 30
0.0
 11
5.221552775653176
 21
1.646668128923846
 31
0.0
  0
LINE
  5
24A81
  8
0
  6
CONTINUOUS
 10
8.715877546767851
 20
7.835069736359266
 30
0.0
 11
9.435953450375058
 21
8.555145639966472
 31
0.0
  0
LINE
  5
24A82
  8
0
  6
CONTINUOUS
 10
8.170620868422267
 20
6.616293848933497
 30
0.0
 11
9.644120833743461
 21
8.08979381425469
 31
0.0
  0
LINE
  5
24A83
  8
0
  6
CONTINUOUS
 10
7.625364190076684
 20
5.397517961507727
 30
0.0
 11
9.852288217111864
 21
7.624441988542907
 31
0.0
  0
LINE
  5
24A84
  8
0
  6
CONTINUOUS
 10
7.080107511731101
 20
4.178742074081957
 30
0.0
 11
10.06045560048027
 21
7.159090162831124
 31
0.0
  0
LINE
  5
24A85
  8
0
  6
CONTINUOUS
 10
6.534850833385518
 20
2.959966186656187
 30
0.0
 11
10.26862298384867
 21
6.693738337119342
 31
0.0
  0
LINE
  5
24A86
  8
0
  6
CONTINUOUS
 10
4.469029308032756
 20
0.2206254522232385
 30
0.0
 11
5.492951005266582
 21
1.244547149457064
 31
0.0
  0
LINE
  5
24A87
  8
0
  6
CONTINUOUS
 10
5.989594155039935
 20
1.741190299230417
 30
0.0
 11
8.806950407233131
 21
4.558546551423613
 31
0.0
  0
LINE
  5
24A88
  8
0
  6
CONTINUOUS
 10
9.401251593263643
 20
5.152847737454126
 30
0.0
 11
10.47679036721708
 21
6.228386511407559
 31
0.0
  0
LINE
  5
24A89
  8
0
  6
CONTINUOUS
 10
4.921837203428691
 20
-0.0000858614610131
 30
0.0
 11
8.592923064886001
 21
3.670999999996297
 31
0.0
  0
LINE
  5
24A8A
  8
0
  6
CONTINUOUS
 10
9.609390446785305
 20
4.6874673818956
 30
0.0
 11
10.68495775058548
 21
5.763034685695775
 31
0.0
  0
LINE
  5
24A8B
  8
0
  6
CONTINUOUS
 10
5.595387755019432
 20
-0.0000545189504582
 30
0.0
 11
7.716137258923768
 21
2.120694984953879
 31
0.0
  0
LINE
  5
24A8C
  8
0
  6
CONTINUOUS
 10
6.268938306610172
 20
-0.000023176439905
 30
0.0
 11
7.170485805526503
 21
0.9015243224764267
 31
0.0
  0
LINE
  5
24A8D
  8
0
  6
CONTINUOUS
 10
7.963842273967511
 20
2.368399999997621
 30
0.0
 11
9.266442273966188
 21
3.670999999996297
 31
0.0
  0
LINE
  5
24A8E
  8
0
  6
CONTINUOUS
 10
8.637361483047696
 20
2.368399999997621
 30
0.0
 11
9.939961483046375
 21
3.670999999996297
 31
0.0
  0
LINE
  5
24A8F
  8
0
  6
CONTINUOUS
 10
9.817529300306965
 20
4.222087026337075
 30
0.0
 11
10.89312513395388
 21
5.297682859983993
 31
0.0
  0
LINE
  5
24A90
  8
0
  6
CONTINUOUS
 10
10.02566815382863
 20
3.756706670778549
 30
0.0
 11
11.10129251732229
 21
4.832331034272211
 31
0.0
  0
LINE
  5
24A91
  8
0
  6
CONTINUOUS
 10
9.310880692127883
 20
2.368399999997621
 30
0.0
 11
11.30945990069069
 21
4.366979208560428
 31
0.0
  0
LINE
  5
24A92
  8
0
  6
CONTINUOUS
 10
9.98439990120807
 20
2.36839999999762
 30
0.0
 11
11.5176272840591
 21
3.901627382848645
 31
0.0
  0
LINE
  5
24A93
  8
0
  6
CONTINUOUS
 10
10.65037369446246
 20
2.36085458417182
 30
0.0
 11
11.7257946674275
 21
3.436275557136862
 31
0.0
  0
LINE
  5
24A94
  8
0
  6
CONTINUOUS
 10
10.85847197087848
 20
1.895433651507656
 30
0.0
 11
11.9339620507959
 21
2.97092373142508
 31
0.0
  0
LINE
  5
24A95
  8
0
  6
CONTINUOUS
 10
11.0665702472945
 20
1.430012718843491
 30
0.0
 11
12.14212943416431
 21
2.505571905713296
 31
0.0
  0
LINE
  5
24A96
  8
0
  6
CONTINUOUS
 10
11.27466852371052
 20
0.9645917861793256
 30
0.0
 11
12.35029681753271
 21
2.040220080001513
 31
0.0
  0
LINE
  5
24A97
  8
0
  6
CONTINUOUS
 10
11.48276680012654
 20
0.4991708535151611
 30
0.0
 11
12.55846420090111
 21
1.57486825428973
 31
0.0
  0
LINE
  5
24A98
  8
0
  6
CONTINUOUS
 10
11.69086507654257
 20
0.0337499208509957
 30
0.0
 11
12.76663158426952
 21
1.109516428577947
 31
0.0
  0
LINE
  5
24A99
  8
0
  6
CONTINUOUS
 10
12.33057447873954
 20
-0.0000598860322123
 30
0.0
 11
12.97479896763792
 21
0.6441646028661663
 31
0.0
  0
LINE
  5
24A9A
  8
0
  6
CONTINUOUS
 10
13.00413694809395
 20
-0.0000166257579952
 30
0.0
 11
13.18296635100632
 21
0.1788127771543824
 31
0.0
  0
LINE
  5
24A9B
  8
0
  6
CONTINUOUS
 10
4.772852165289667
 20
-0.000092794222212
 30
0.0
 11
4.296495091028902
 21
0.4762642800385528
 31
0.0
  0
LINE
  5
24A9C
  8
0
  6
CONTINUOUS
 10
5.446340034776103
 20
-0.0000614546284616
 30
0.0
 11
2.898195908335625
 21
2.548082671812017
 31
0.0
  0
LINE
  5
24A9D
  8
0
  6
CONTINUOUS
 10
6.119827904262539
 20
-0.0000301150347113
 30
0.0
 11
1.499896725642348
 21
4.61990106358548
 31
0.0
  0
LINE
  5
24A9E
  8
0
  6
CONTINUOUS
 10
6.775136745476159
 20
0.0181802528318542
 30
0.0
 11
5.699826040202669
 21
1.093490958105344
 31
0.0
  0
LINE
  5
24A9F
  8
0
  6
CONTINUOUS
 10
6.983376846288489
 20
0.4834593610997118
 30
0.0
 11
5.908008617934405
 21
1.558827589453796
 31
0.0
  0
LINE
  5
24AA0
  8
0
  6
CONTINUOUS
 10
5.377063484962296
 20
1.416253513345719
 30
0.0
 11
1.702276957014131
 21
5.091040041293883
 31
0.0
  0
LINE
  5
24AA1
  8
0
  6
CONTINUOUS
 10
3.978745891735324
 20
3.488090315652877
 30
0.0
 11
2.000373521109399
 21
5.466462686278803
 31
0.0
  0
LINE
  5
24AA2
  8
0
  6
CONTINUOUS
 10
7.191616947100819
 20
0.948738469367568
 30
0.0
 11
6.11619119566614
 21
2.024164220802247
 31
0.0
  0
LINE
  5
24AA3
  8
0
  6
CONTINUOUS
 10
7.399857047913149
 20
1.414017577635424
 30
0.0
 11
6.324373773397875
 21
2.489500852150698
 31
0.0
  0
LINE
  5
24AA4
  8
0
  6
CONTINUOUS
 10
7.608097148725479
 20
1.879296685903281
 30
0.0
 11
6.53255635112961
 21
2.95483748349915
 31
0.0
  0
LINE
  5
24AA5
  8
0
  6
CONTINUOUS
 10
7.816337249537808
 20
2.344575794171138
 30
0.0
 11
6.740738928861345
 21
3.420174114847601
 31
0.0
  0
LINE
  5
24AA6
  8
0
  6
CONTINUOUS
 10
3.310241080789734
 20
4.830114335678653
 30
0.0
 11
2.298470085204666
 21
5.84188533126372
 31
0.0
  0
LINE
  5
24AA7
  8
0
  6
CONTINUOUS
 10
3.60832983563551
 20
5.205544789913063
 30
0.0
 11
2.596566649299935
 21
6.217307976248638
 31
0.0
  0
LINE
  5
24AA8
  8
0
  6
CONTINUOUS
 10
3.906418590481286
 20
5.580975244147473
 30
0.0
 11
2.894663213395203
 21
6.592730621233557
 31
0.0
  0
LINE
  5
24AA9
  8
0
  6
CONTINUOUS
 10
4.204507345327062
 20
5.956405698381884
 30
0.0
 11
3.192759777490472
 21
6.968153266218474
 31
0.0
  0
LINE
  5
24AAA
  8
0
  6
CONTINUOUS
 10
8.466032252791512
 20
2.368399999997621
 30
0.0
 11
6.948921506593081
 21
3.885510746196053
 31
0.0
  0
LINE
  5
24AAB
  8
0
  6
CONTINUOUS
 10
9.139551461871699
 20
2.36839999999762
 30
0.0
 11
7.157104084324816
 21
4.350847377544504
 31
0.0
  0
LINE
  5
24AAC
  8
0
  6
CONTINUOUS
 10
4.502596100172839
 20
6.331836152616295
 30
0.0
 11
3.49085634158574
 21
7.343575911203393
 31
0.0
  0
LINE
  5
24AAD
  8
0
  6
CONTINUOUS
 10
4.800684855018615
 20
6.707266606850705
 30
0.0
 11
3.788952905681008
 21
7.718998556188312
 31
0.0
  0
LINE
  5
24AAE
  8
0
  6
CONTINUOUS
 10
12.18154012887317
 20
-0.0000694579236642
 30
0.0
 11
11.32140332908496
 21
0.8600673418645499
 31
0.0
  0
LINE
  5
24AAF
  8
0
  6
CONTINUOUS
 10
12.85501608323566
 20
-0.0000262032059659
 30
0.0
 11
10.77672456435345
 21
2.078265315676246
 31
0.0
  0
LINE
  5
24AB0
  8
0
  6
CONTINUOUS
 10
9.813070670951886
 20
2.36839999999762
 30
0.0
 11
8.51047067095321
 21
3.670999999996297
 31
0.0
  0
LINE
  5
24AB1
  8
0
  6
CONTINUOUS
 10
10.48658988003207
 20
2.36839999999762
 30
0.0
 11
9.183989880033396
 21
3.670999999996297
 31
0.0
  0
LINE
  5
24AB2
  8
0
  6
CONTINUOUS
 10
8.441048632286794
 20
3.740422038662712
 30
0.0
 11
7.365286662056551
 21
4.816184008892956
 31
0.0
  0
LINE
  5
24AB3
  8
0
  6
CONTINUOUS
 10
8.649187485808454
 20
4.205802394221237
 30
0.0
 11
7.573469239788285
 21
5.281520640241407
 31
0.0
  0
LINE
  5
24AB4
  8
0
  6
CONTINUOUS
 10
5.098773609864391
 20
7.082697061085115
 30
0.0
 11
4.087049469776277
 21
8.09442120117323
 31
0.0
  0
LINE
  5
24AB5
  8
0
  6
CONTINUOUS
 10
5.396862364710167
 20
7.458127515319526
 30
0.0
 11
4.385146033871544
 21
8.469843846158149
 31
0.0
  0
LINE
  5
24AB6
  8
0
  6
CONTINUOUS
 10
13.04801363231285
 20
0.4804954567970334
 30
0.0
 11
9.85750908911358
 21
3.670999999996297
 31
0.0
  0
LINE
  5
24AB7
  8
0
  6
CONTINUOUS
 10
8.857326339330116
 20
4.671182749779763
 30
0.0
 11
7.781651817520021
 21
5.746857271589858
 31
0.0
  0
LINE
  5
24AB8
  8
0
  6
CONTINUOUS
 10
5.694951119555943
 20
7.833557969553937
 30
0.0
 11
4.765409089118624
 21
8.763099999991255
 31
0.0
  0
LINE
  5
24AB9
  8
0
  6
CONTINUOUS
 10
12.50286117236978
 20
1.699167125820288
 30
0.0
 11
9.68611877250287
 21
4.515909525687196
 31
0.0
  0
LINE
  5
24ABA
  8
0
  6
CONTINUOUS
 10
9.065465192851777
 20
5.136563105338288
 30
0.0
 11
7.989834395251757
 21
6.21219390293831
 31
0.0
  0
LINE
  5
24ABB
  8
0
  6
CONTINUOUS
 10
5.993039874401719
 20
8.208988423788346
 30
0.0
 11
5.43892829819881
 21
8.763099999991255
 31
0.0
  0
LINE
  5
24ABC
  8
0
  6
CONTINUOUS
 10
11.95770871242671
 20
2.917838794843543
 30
0.0
 11
8.19801697298349
 21
6.677530534286761
 31
0.0
  0
LINE
  5
24ABD
  8
0
  6
CONTINUOUS
 10
6.291128629247495
 20
8.584418878022756
 30
0.0
 11
6.112447507278997
 21
8.763099999991255
 31
0.0
  0
LINE
  5
24ABE
  8
0
  6
CONTINUOUS
 10
11.41255625248364
 20
4.136510463866797
 30
0.0
 11
8.406199550715227
 21
7.142867165635211
 31
0.0
  0
LINE
  5
24ABF
  8
0
  6
CONTINUOUS
 10
10.86740379254057
 20
5.355182132890051
 30
0.0
 11
8.614382128446962
 21
7.608203796983664
 31
0.0
  0
LINE
  5
24AC0
  8
0
  6
CONTINUOUS
 10
10.3222513325975
 20
6.573853801913305
 30
0.0
 11
8.822564706178696
 21
8.073540428332114
 31
0.0
  0
LINE
  5
24AC1
  8
0
  6
CONTINUOUS
 10
9.777098872654436
 20
7.792525470936562
 30
0.0
 11
9.030747283910433
 21
8.538877059680566
 31
0.0
  0
ENDBLK
  5
24C03
  8
0
  0
BLOCK
  8
0
  2
*X204
 70
     1
 10
0.0
 20
0.0
 30
0.0
  3
*X204
  1

  0
LINE
  5
24AC3
  8
0
  6
CONTINUOUS
 10
10.67292308101235
 20
8.445076852443387
 30
0.0
 11
10.99094622856022
 21
8.763099999991255
 31
0.0
  0
LINE
  5
24AC4
  8
0
  6
CONTINUOUS
 10
10.87250383178748
 20
7.971138394138331
 30
0.0
 11
11.6644654376404
 21
8.763099999991255
 31
0.0
  0
LINE
  5
24AC5
  8
0
  6
CONTINUOUS
 10
11.07208458256261
 20
7.497199935833273
 30
0.0
 11
12.12126590876355
 21
8.546381262034211
 31
0.0
  0
LINE
  5
24AC6
  8
0
  6
CONTINUOUS
 10
11.27166533333774
 20
7.023261477528216
 30
0.0
 11
12.32085164573666
 21
8.072447789927136
 31
0.0
  0
LINE
  5
24AC7
  8
0
  6
CONTINUOUS
 10
11.47124608411287
 20
6.549323019223158
 30
0.0
 11
12.52043738270977
 21
7.59851431782006
 31
0.0
  0
LINE
  5
24AC8
  8
0
  6
CONTINUOUS
 10
11.670826834888
 20
6.075384560918101
 30
0.0
 11
12.72002311968288
 21
7.124580845712984
 31
0.0
  0
LINE
  5
24AC9
  8
0
  6
CONTINUOUS
 10
11.87040758566313
 20
5.601446102613043
 30
0.0
 11
12.91960885665599
 21
6.650647373605907
 31
0.0
  0
LINE
  5
24ACA
  8
0
  6
CONTINUOUS
 10
12.06998833643825
 20
5.127507644307986
 30
0.0
 11
13.1191945936291
 21
6.176713901498832
 31
0.0
  0
LINE
  5
24ACB
  8
0
  6
CONTINUOUS
 10
12.26956908721338
 20
4.65356918600293
 30
0.0
 11
13.31878033060221
 21
5.702780429391757
 31
0.0
  0
LINE
  5
24ACC
  8
0
  6
CONTINUOUS
 10
12.46914983798851
 20
4.179630727697873
 30
0.0
 11
13.51836606757532
 21
5.228846957284683
 31
0.0
  0
LINE
  5
24ACD
  8
0
  6
CONTINUOUS
 10
12.66873058876364
 20
3.705692269392816
 30
0.0
 11
13.71795180454843
 21
4.754913485177607
 31
0.0
  0
LINE
  5
24ACE
  8
0
  6
CONTINUOUS
 10
12.86831133953877
 20
3.231753811087759
 30
0.0
 11
13.91753754152154
 21
4.280980013070531
 31
0.0
  0
LINE
  5
24ACF
  8
0
  6
CONTINUOUS
 10
13.0678920903139
 20
2.757815352782702
 30
0.0
 11
14.11712327849465
 21
3.807046540963456
 31
0.0
  0
LINE
  5
24AD0
  8
0
  6
CONTINUOUS
 10
13.26747284108903
 20
2.283876894477644
 30
0.0
 11
14.31670901546777
 21
3.333113068856379
 31
0.0
  0
LINE
  5
24AD1
  8
0
  6
CONTINUOUS
 10
16.36767838827179
 20
8.751678487061342
 30
0.0
 11
16.50332410898388
 21
8.887324207773432
 31
0.0
  0
LINE
  5
24AD2
  8
0
  6
CONTINUOUS
 10
15.96190732182191
 20
7.67238821153127
 30
0.0
 11
16.68735328004734
 21
8.397834169756699
 31
0.0
  0
LINE
  5
24AD3
  8
0
  6
CONTINUOUS
 10
15.55613625537202
 20
6.593097936001196
 30
0.0
 11
16.87138245111079
 21
7.908344131739965
 31
0.0
  0
LINE
  5
24AD4
  8
0
  6
CONTINUOUS
 10
15.15036518892213
 20
5.513807660471122
 30
0.0
 11
17.05541162217424
 21
7.418854093723231
 31
0.0
  0
LINE
  5
24AD5
  8
0
  6
CONTINUOUS
 10
14.74459412247225
 20
4.434517384941048
 30
0.0
 11
17.2394407932377
 21
6.929364055706499
 31
0.0
  0
LINE
  5
24AD6
  8
0
  6
CONTINUOUS
 10
14.33882305602236
 20
3.355227109410975
 30
0.0
 11
17.42346996430115
 21
6.439874017689766
 31
0.0
  0
LINE
  5
24AD7
  8
0
  6
CONTINUOUS
 10
13.46705359186416
 20
1.809938436172586
 30
0.0
 11
16.0819338255367
 21
4.424818669845129
 31
0.0
  0
LINE
  5
24AD8
  8
0
  6
CONTINUOUS
 10
16.63283254238972
 20
4.975717386698149
 30
0.0
 11
17.60749913536461
 21
5.950383979673033
 31
0.0
  0
LINE
  5
24AD9
  8
0
  6
CONTINUOUS
 10
13.66663434263929
 20
1.335999977867529
 30
0.0
 11
15.67604797733754
 21
3.345413612565779
 31
0.0
  0
LINE
  5
24ADA
  8
0
  6
CONTINUOUS
 10
13.86621509341442
 20
0.8620615195624723
 30
0.0
 11
15.27016212913838
 21
2.26600855528643
 31
0.0
  0
LINE
  5
24ADB
  8
0
  6
CONTINUOUS
 10
16.81682257348267
 20
4.486188208710908
 30
0.0
 11
17.79152830642806
 21
5.460893941656299
 31
0.0
  0
LINE
  5
24ADC
  8
0
  6
CONTINUOUS
 10
17.00081260457561
 20
3.996659030723667
 30
0.0
 11
17.97555747749151
 21
4.971403903639565
 31
0.0
  0
LINE
  5
24ADD
  8
0
  6
CONTINUOUS
 10
20.74362343514722
 20
8.412989070375462
 30
0.0
 11
21.09373436476302
 21
8.763099999991256
 31
0.0
  0
LINE
  5
24ADE
  8
0
  6
CONTINUOUS
 10
20.25401257174777
 20
7.249858997895826
 30
0.0
 11
21.7672535738432
 21
8.763099999991255
 31
0.0
  0
LINE
  5
24ADF
  8
0
  6
CONTINUOUS
 10
14.06579584418955
 20
0.3881230612574149
 30
0.0
 11
14.86427628093921
 21
1.186603498007082
 31
0.0
  0
LINE
  5
24AE0
  8
0
  6
CONTINUOUS
 10
14.26537659496467
 20
-0.0858153970476412
 30
0.0
 11
14.45839043274005
 21
0.1071984407277329
 31
0.0
  0
LINE
  5
24AE1
  8
0
  6
CONTINUOUS
 10
17.18480263566856
 20
3.507129852736426
 30
0.0
 11
18.15958664855496
 21
4.481913865622833
 31
0.0
  0
LINE
  5
24AE2
  8
0
  6
CONTINUOUS
 10
17.3687926667615
 20
3.017600674749186
 30
0.0
 11
18.34361581961842
 21
3.9924238276061
 31
0.0
  0
LINE
  5
24AE3
  8
0
  6
CONTINUOUS
 10
19.76440170834832
 20
6.086728925416191
 30
0.0
 11
22.33924590259489
 21
8.661573119662755
 31
0.0
  0
LINE
  5
24AE4
  8
0
  6
CONTINUOUS
 10
19.27479084494887
 20
4.923598852936555
 30
0.0
 11
21.84929622842713
 21
7.498104236414807
 31
0.0
  0
LINE
  5
24AE5
  8
0
  6
CONTINUOUS
 10
17.55278269785445
 20
2.528071496761945
 30
0.0
 11
18.52764499068187
 21
3.502933789589366
 31
0.0
  0
LINE
  5
24AE6
  8
0
  6
CONTINUOUS
 10
18.78517998154942
 20
3.760468780456919
 30
0.0
 11
21.35934655425936
 21
6.33463535316686
 31
0.0
  0
LINE
  5
24AE7
  8
0
  6
CONTINUOUS
 10
17.73677272894739
 20
2.038542318774704
 30
0.0
 11
20.8693968800916
 21
5.171166469918914
 31
0.0
  0
LINE
  5
24AE8
  8
0
  6
CONTINUOUS
 10
17.92076276004034
 20
1.549013140787464
 30
0.0
 11
20.37944720592384
 21
4.007697586670968
 31
0.0
  0
LINE
  5
24AE9
  8
0
  6
CONTINUOUS
 10
18.10475279113329
 20
1.059483962800223
 30
0.0
 11
19.88949753175608
 21
2.84422870342302
 31
0.0
  0
LINE
  5
24AEA
  8
0
  6
CONTINUOUS
 10
18.28874282222623
 20
0.5699547848129822
 30
0.0
 11
19.39954785758832
 21
1.680759820175074
 31
0.0
  0
LINE
  5
24AEB
  8
0
  6
CONTINUOUS
 10
18.47273285331918
 20
0.0804256068257416
 30
0.0
 11
18.90959818342056
 21
0.517290936927127
 31
0.0
  0
LINE
  5
24AEC
  8
0
  6
CONTINUOUS
 10
14.3590401358224
 20
-0.1570118376323384
 30
0.0
 11
14.24903296539946
 21
-0.0470046672093929
 31
0.0
  0
LINE
  5
24AED
  8
0
  6
CONTINUOUS
 10
14.54309291258661
 20
0.332454594683643
 30
0.0
 11
13.75908329123172
 21
1.116464216038529
 31
0.0
  0
LINE
  5
24AEE
  8
0
  6
CONTINUOUS
 10
14.72714568935081
 20
0.8219210269996244
 30
0.0
 11
13.26913361706399
 21
2.27993309928645
 31
0.0
  0
LINE
  5
24AEF
  8
0
  6
CONTINUOUS
 10
14.91119846611502
 20
1.311387459315606
 30
0.0
 11
12.77918394289625
 21
3.443401982534371
 31
0.0
  0
LINE
  5
24AF0
  8
0
  6
CONTINUOUS
 10
15.09525124287922
 20
1.800853891631587
 30
0.0
 11
12.28923426872852
 21
4.606870865782293
 31
0.0
  0
LINE
  5
24AF1
  8
0
  6
CONTINUOUS
 10
15.27930401964343
 20
2.290320323947569
 30
0.0
 11
11.79928459456078
 21
5.770339749030213
 31
0.0
  0
LINE
  5
24AF2
  8
0
  6
CONTINUOUS
 10
15.46335679640763
 20
2.77978675626355
 30
0.0
 11
14.48885470994921
 21
3.754288842721972
 31
0.0
  0
LINE
  5
24AF3
  8
0
  6
CONTINUOUS
 10
13.88507249233704
 20
4.358071060334137
 30
0.0
 11
11.30933492039305
 21
6.933808632278135
 31
0.0
  0
LINE
  5
24AF4
  8
0
  6
CONTINUOUS
 10
18.75840522805855
 20
0.1582575336928151
 30
0.0
 11
18.25383727664818
 21
0.6628254851031863
 31
0.0
  0
LINE
  5
24AF5
  8
0
  6
CONTINUOUS
 10
15.64740957317184
 20
3.269253188579531
 30
0.0
 11
14.67288388101266
 21
4.243778880738705
 31
0.0
  0
LINE
  5
24AF6
  8
0
  6
CONTINUOUS
 10
13.39509276772158
 20
5.521569994029786
 30
0.0
 11
10.81938524622531
 21
8.097277515526056
 31
0.0
  0
LINE
  5
24AF7
  8
0
  6
CONTINUOUS
 10
18.95798597883369
 20
0.6321959919978686
 30
0.0
 11
17.84825644852853
 21
1.741925522303024
 31
0.0
  0
LINE
  5
24AF8
  8
0
  6
CONTINUOUS
 10
19.15756672960882
 20
1.106134450302922
 30
0.0
 11
17.44267562040888
 21
2.821025559502861
 31
0.0
  0
LINE
  5
24AF9
  8
0
  6
CONTINUOUS
 10
15.83146234993604
 20
3.758719620895513
 30
0.0
 11
14.85691305207612
 21
4.733268918755439
 31
0.0
  0
LINE
  5
24AFA
  8
0
  6
CONTINUOUS
 10
16.01551512670025
 20
4.248186053211494
 30
0.0
 11
15.04094222313957
 21
5.222758956772172
 31
0.0
  0
LINE
  5
24AFB
  8
0
  6
CONTINUOUS
 10
12.90511304310612
 20
6.685068927725435
 30
0.0
 11
10.8270819708403
 21
8.763099999991255
 31
0.0
  0
LINE
  5
24AFC
  8
0
  6
CONTINUOUS
 10
12.41513331849066
 20
7.848567861421083
 30
0.0
 11
11.50060117992049
 21
8.763099999991255
 31
0.0
  0
LINE
  5
24AFD
  8
0
  6
CONTINUOUS
 10
19.35714748038395
 20
1.580072908607975
 30
0.0
 11
17.03709479228923
 21
3.900125596702697
 31
0.0
  0
LINE
  5
24AFE
  8
0
  6
CONTINUOUS
 10
19.55672823115909
 20
2.054011366913028
 30
0.0
 11
16.63151396416958
 21
4.979225633902534
 31
0.0
  0
LINE
  5
24AFF
  8
0
  6
CONTINUOUS
 10
16.19956790346445
 20
4.737652485527476
 30
0.0
 11
15.22497139420302
 21
5.712248994788904
 31
0.0
  0
LINE
  5
24B00
  8
0
  6
CONTINUOUS
 10
16.38362068022866
 20
5.227118917843457
 30
0.0
 11
15.40900056526648
 21
6.201739032805637
 31
0.0
  0
LINE
  5
24B01
  8
0
  6
CONTINUOUS
 10
19.75630898193422
 20
2.527949825218081
 30
0.0
 11
18.70774536448286
 21
3.576513442669441
 31
0.0
  0
LINE
  5
24B02
  8
0
  6
CONTINUOUS
 10
19.95588973270936
 20
3.001888283523134
 30
0.0
 11
18.90726987211446
 21
4.050508144118028
 31
0.0
  0
LINE
  5
24B03
  8
0
  6
CONTINUOUS
 10
20.15547048348449
 20
3.475826741828186
 30
0.0
 11
19.10679437974606
 21
4.524502845566614
 31
0.0
  0
LINE
  5
24B04
  8
0
  6
CONTINUOUS
 10
20.35505123425962
 20
3.94976520013324
 30
0.0
 11
19.30631888737766
 21
4.998497547015201
 31
0.0
  0
LINE
  5
24B05
  8
0
  6
CONTINUOUS
 10
20.55463198503475
 20
4.423703658438292
 30
0.0
 11
19.50584339500926
 21
5.472492248463787
 31
0.0
  0
LINE
  5
24B06
  8
0
  6
CONTINUOUS
 10
18.37481191085755
 20
3.909446896294752
 30
0.0
 11
15.59302973632993
 21
6.691229070822371
 31
0.0
  0
LINE
  5
24B07
  8
0
  6
CONTINUOUS
 10
17.96904084440766
 20
4.988737171824825
 30
0.0
 11
15.77705890739338
 21
7.180719108839104
 31
0.0
  0
LINE
  5
24B08
  8
0
  6
CONTINUOUS
 10
17.56326977795777
 20
6.068027447354899
 30
0.0
 11
15.96108807845684
 21
7.670209146855838
 31
0.0
  0
LINE
  5
24B09
  8
0
  6
CONTINUOUS
 10
17.15749871150789
 20
7.147317722884972
 30
0.0
 11
16.14511724952029
 21
8.15969918487257
 31
0.0
  0
LINE
  5
24B0A
  8
0
  6
CONTINUOUS
 10
16.751727645058
 20
8.226607998415046
 30
0.0
 11
16.32914642058374
 21
8.649189222889303
 31
0.0
  0
LINE
  5
24B0B
  8
0
  6
CONTINUOUS
 10
20.75421273580989
 20
4.897642116743345
 30
0.0
 11
19.70536790264086
 21
5.946486949912374
 31
0.0
  0
LINE
  5
24B0C
  8
0
  6
CONTINUOUS
 10
20.95379348658502
 20
5.371580575048398
 30
0.0
 11
19.90489241027246
 21
6.42048165136096
 31
0.0
  0
LINE
  5
24B0D
  8
0
  6
CONTINUOUS
 10
21.15337423736015
 20
5.845519033353452
 30
0.0
 11
20.10441691790406
 21
6.894476352809547
 31
0.0
  0
LINE
  5
24B0E
  8
0
  6
CONTINUOUS
 10
21.35295498813529
 20
6.319457491658505
 30
0.0
 11
20.30394142553566
 21
7.368471054258134
 31
0.0
  0
LINE
  5
24B0F
  8
0
  6
CONTINUOUS
 10
21.55253573891042
 20
6.793395949963558
 30
0.0
 11
20.50346593316726
 21
7.842465755706721
 31
0.0
  0
LINE
  5
24B10
  8
0
  6
CONTINUOUS
 10
21.75211648968556
 20
7.267334408268612
 30
0.0
 11
20.70299044079886
 21
8.316460457155308
 31
0.0
  0
LINE
  5
24B11
  8
0
  6
CONTINUOUS
 10
21.95169724046069
 20
7.741272866573663
 30
0.0
 11
20.9298701070431
 21
8.763099999991256
 31
0.0
  0
LINE
  5
24B12
  8
0
  6
CONTINUOUS
 10
22.15127799123582
 20
8.215211324878716
 30
0.0
 11
21.60338931612328
 21
8.763099999991256
 31
0.0
  0
LINE
  5
24B13
  8
0
  6
CONTINUOUS
 10
22.35085874201096
 20
8.689149783183769
 30
0.0
 11
22.27690852520347
 21
8.763099999991255
 31
0.0
  0
ENDBLK
  5
24C05
  8
0
  0
BLOCK
  8
0
  2
*X205
 70
     1
 10
0.0
 20
0.0
 30
0.0
  3
*X205
  1

  0
LINE
  5
24B15
  8
0
  6
CONTINUOUS
 10
23.19462913593892
 20
8.169917934846424
 30
0.0
 11
23.70775465517246
 21
8.683043454079957
 31
0.0
  0
LINE
  5
24B16
  8
0
  6
CONTINUOUS
 10
22.64923161835078
 20
6.951001208178088
 30
0.0
 11
23.9159364069932
 21
8.217705996820516
 31
0.0
  0
LINE
  5
24B17
  8
0
  6
CONTINUOUS
 10
22.10383410076263
 20
5.732084481509751
 30
0.0
 11
24.12411815881395
 21
7.752368539561078
 31
0.0
  0
LINE
  5
24B18
  8
0
  6
CONTINUOUS
 10
21.55843658317447
 20
4.513167754841414
 30
0.0
 11
24.3322999106347
 21
7.287031082301639
 31
0.0
  0
LINE
  5
24B19
  8
0
  6
CONTINUOUS
 10
21.01303906558632
 20
3.294251028173077
 30
0.0
 11
24.54048166245544
 21
6.821693625042199
 31
0.0
  0
LINE
  5
24B1A
  8
0
  6
CONTINUOUS
 10
20.46764154799817
 20
2.075334301504738
 30
0.0
 11
23.28571549467848
 21
4.89340824818505
 31
0.0
  0
LINE
  5
24B1B
  8
0
  6
CONTINUOUS
 10
19.92224403041002
 20
0.8564175748364002
 30
0.0
 11
22.74075865492779
 21
3.674932199354171
 31
0.0
  0
LINE
  5
24B1C
  8
0
  6
CONTINUOUS
 10
23.67305085490148
 20
5.280743608408048
 30
0.0
 11
24.74866341427619
 21
6.356356167782759
 31
0.0
  0
LINE
  5
24B1D
  8
0
  6
CONTINUOUS
 10
23.88118970842314
 20
4.815363252849522
 30
0.0
 11
24.95684516609694
 21
5.89101871052332
 31
0.0
  0
LINE
  5
24B1E
  8
0
  6
CONTINUOUS
 10
19.73925852647308
 20
-0.0000871381807288
 30
0.0
 11
23.4103456646501
 21
3.670999999996297
 31
0.0
  0
LINE
  5
24B1F
  8
0
  6
CONTINUOUS
 10
24.0893285619448
 20
4.349982897290997
 30
0.0
 11
25.16502691791769
 21
5.42568125326388
 31
0.0
  0
LINE
  5
24B20
  8
0
  6
CONTINUOUS
 10
20.41282099582748
 20
-0.0000438779065108
 30
0.0
 11
21.64944178675636
 21
1.236576913022366
 31
0.0
  0
LINE
  5
24B21
  8
0
  6
CONTINUOUS
 10
22.78126487373161
 20
2.36839999999762
 30
0.0
 11
24.08386487373029
 21
3.670999999996297
 31
0.0
  0
LINE
  5
24B22
  8
0
  6
CONTINUOUS
 10
24.29746741546646
 20
3.884602541732471
 30
0.0
 11
25.37320866973843
 21
4.960343796004441
 31
0.0
  0
LINE
  5
24B23
  8
0
  6
CONTINUOUS
 10
21.08638346518189
 20
-0.0000006176322938
 30
0.0
 11
21.10379033335899
 21
0.0174062505448083
 31
0.0
  0
LINE
  5
24B24
  8
0
  6
CONTINUOUS
 10
23.4547840828118
 20
2.36839999999762
 30
0.0
 11
25.58139042155918
 21
4.495006338745002
 31
0.0
  0
LINE
  5
24B25
  8
0
  6
CONTINUOUS
 10
29.30199999996933
 20
8.215615917155148
 30
0.0
 11
29.84948408280543
 21
8.763099999991255
 31
0.0
  0
LINE
  5
24B26
  8
0
  6
CONTINUOUS
 10
24.12830329189199
 20
2.36839999999762
 30
0.0
 11
25.78957217337993
 21
4.029668881485562
 31
0.0
  0
LINE
  5
24B27
  8
0
  6
CONTINUOUS
 10
29.30199999996933
 20
7.54209670807496
 30
0.0
 11
30.52300329188562
 21
8.763099999991255
 31
0.0
  0
LINE
  5
24B28
  8
0
  6
CONTINUOUS
 10
24.80182250097217
 20
2.36839999999762
 30
0.0
 11
25.99775392520067
 21
3.564331424226122
 31
0.0
  0
LINE
  5
24B29
  8
0
  6
CONTINUOUS
 10
29.30199999996933
 20
6.868577498994774
 30
0.0
 11
30.74199999996926
 21
8.308577498994712
 31
0.0
  0
LINE
  5
24B2A
  8
0
  6
CONTINUOUS
 10
25.13028238392013
 20
2.023340673865392
 30
0.0
 11
26.20593567702142
 21
3.098993966966683
 31
0.0
  0
LINE
  5
24B2B
  8
0
  6
CONTINUOUS
 10
25.33838066033617
 20
1.557919741201244
 30
0.0
 11
26.41411742884217
 21
2.633656509707244
 31
0.0
  0
LINE
  5
24B2C
  8
0
  6
CONTINUOUS
 10
25.54647893675221
 20
1.092498808537098
 30
0.0
 11
26.62229918066291
 21
2.168319052447804
 31
0.0
  0
LINE
  5
24B2D
  8
0
  6
CONTINUOUS
 10
25.75457721316825
 20
0.62707787587295
 30
0.0
 11
26.83048093248366
 21
1.702981595188365
 31
0.0
  0
LINE
  5
24B2E
  8
0
  6
CONTINUOUS
 10
29.30199999996933
 20
6.195058289914587
 30
0.0
 11
30.74199999996926
 21
7.635058289914522
 31
0.0
  0
LINE
  5
24B2F
  8
0
  6
CONTINUOUS
 10
29.30199999996933
 20
5.521539080834401
 30
0.0
 11
30.74199999996926
 21
6.961539080834331
 31
0.0
  0
LINE
  5
24B30
  8
0
  6
CONTINUOUS
 10
29.30199999996933
 20
4.848019871754214
 30
0.0
 11
30.74199999996925
 21
6.288019871754143
 31
0.0
  0
LINE
  5
24B31
  8
0
  6
CONTINUOUS
 10
29.30199999996933
 20
4.174500662674028
 30
0.0
 11
30.74199999996925
 21
5.614500662673953
 31
0.0
  0
LINE
  5
24B32
  8
0
  6
CONTINUOUS
 10
25.96267548958429
 20
0.1616569432088024
 30
0.0
 11
27.18411854636669
 21
1.383099999991207
 31
0.0
  0
LINE
  5
24B33
  8
0
  6
CONTINUOUS
 10
29.30199999996933
 20
3.500981453593841
 30
0.0
 11
30.74199999996925
 21
4.940981453593762
 31
0.0
  0
LINE
  5
24B34
  8
0
  6
CONTINUOUS
 10
26.50763775544691
 20
0.0330999999912356
 30
0.0
 11
27.85763775544689
 21
1.383099999991223
 31
0.0
  0
LINE
  5
24B35
  8
0
  6
CONTINUOUS
 10
29.30199999996933
 20
2.827462244513656
 30
0.0
 11
30.74199999996925
 21
4.267462244513574
 31
0.0
  0
LINE
  5
24B36
  8
0
  6
CONTINUOUS
 10
27.18115696452709
 20
0.0330999999912356
 30
0.0
 11
28.6224847300034
 21
1.474427765467545
 31
0.0
  0
LINE
  5
24B37
  8
0
  6
CONTINUOUS
 10
29.21067223449293
 20
2.062615269957069
 30
0.0
 11
30.74199999996924
 21
3.593943035433383
 31
0.0
  0
LINE
  5
24B38
  8
0
  6
CONTINUOUS
 10
27.85467617360728
 20
0.0330999999912356
 30
0.0
 11
30.74199999996924
 21
2.920423826353195
 31
0.0
  0
LINE
  5
24B39
  8
0
  6
CONTINUOUS
 10
28.57438609860264
 20
0.0792907159064073
 30
0.0
 11
30.69580928405405
 21
2.200713901357819
 31
0.0
  0
LINE
  5
24B3A
  8
0
  6
CONTINUOUS
 10
29.49443044814297
 20
0.3258158563665496
 30
0.0
 11
30.44928414359389
 21
1.280669551817477
 31
0.0
  0
LINE
  5
24B3B
  8
0
  6
CONTINUOUS
 10
19.59027867740337
 20
-0.0000967065718083
 30
0.0
 11
19.55485265190471
 21
0.035329318926844
 31
0.0
  0
LINE
  5
24B3C
  8
0
  6
CONTINUOUS
 10
20.26375463176586
 20
-0.0000534518541091
 30
0.0
 11
19.76305575737534
 21
0.5006454225364014
 31
0.0
  0
LINE
  5
24B3D
  8
0
  6
CONTINUOUS
 10
20.93723058612834
 20
-0.0000101971364099
 30
0.0
 11
19.97125886284597
 21
0.965961526145958
 31
0.0
  0
LINE
  5
24B3E
  8
0
  6
CONTINUOUS
 10
21.25514828313686
 20
0.355591314935257
 30
0.0
 11
20.1794619683166
 21
1.431277629755512
 31
0.0
  0
LINE
  5
24B3F
  8
0
  6
CONTINUOUS
 10
21.46338838394921
 20
0.8208704232030986
 30
0.0
 11
20.38766507378723
 21
1.896593733365069
 31
0.0
  0
LINE
  5
24B40
  8
0
  6
CONTINUOUS
 10
21.67162848476155
 20
1.28614953147094
 30
0.0
 11
20.59586817925786
 21
2.361909836974626
 31
0.0
  0
LINE
  5
24B41
  8
0
  6
CONTINUOUS
 10
21.8798685855739
 20
1.751428639738782
 30
0.0
 11
20.80407128472849
 21
2.827225940584183
 31
0.0
  0
LINE
  5
24B42
  8
0
  6
CONTINUOUS
 10
22.08810868638624
 20
2.216707748006623
 30
0.0
 11
21.01227439019912
 21
3.292542044193739
 31
0.0
  0
LINE
  5
24B43
  8
0
  6
CONTINUOUS
 10
22.60993564347543
 20
2.36839999999762
 30
0.0
 11
21.22047749566975
 21
3.757858147803296
 31
0.0
  0
LINE
  5
24B44
  8
0
  6
CONTINUOUS
 10
23.28345485255561
 20
2.36839999999762
 30
0.0
 11
21.42868060114038
 21
4.223174251412853
 31
0.0
  0
LINE
  5
24B45
  8
0
  6
CONTINUOUS
 10
26.29227406164219
 20
0.0330999999912356
 30
0.0
 11
25.80009199592872
 21
0.5252820657046957
 31
0.0
  0
LINE
  5
24B46
  8
0
  6
CONTINUOUS
 10
23.9569740616358
 20
2.36839999999762
 30
0.0
 11
21.63688370661101
 21
4.688490355022409
 31
0.0
  0
LINE
  5
24B47
  8
0
  6
CONTINUOUS
 10
26.96579327072237
 20
0.0330999999912356
 30
0.0
 11
25.2554132311971
 21
1.743480039516508
 31
0.0
  0
LINE
  5
24B48
  8
0
  6
CONTINUOUS
 10
24.63049327071599
 20
2.36839999999762
 30
0.0
 11
23.32789327071731
 21
3.670999999996297
 31
0.0
  0
LINE
  5
24B49
  8
0
  6
CONTINUOUS
 10
22.92098674744635
 20
4.077906523267254
 30
0.0
 11
21.84508681208164
 21
5.153806458631966
 31
0.0
  0
LINE
  5
24B4A
  8
0
  6
CONTINUOUS
 10
27.63931247980256
 20
0.0330999999912356
 30
0.0
 11
24.0014124797975
 21
3.670999999996297
 31
0.0
  0
LINE
  5
24B4B
  8
0
  6
CONTINUOUS
 10
23.129125600968
 20
4.5432868788258
 30
0.0
 11
22.05328991755227
 21
5.619122562241522
 31
0.0
  0
LINE
  5
24B4C
  8
0
  6
CONTINUOUS
 10
28.31283168888275
 20
0.0330999999912356
 30
0.0
 11
24.16488385994816
 21
4.181047828925828
 31
0.0
  0
LINE
  5
24B4D
  8
0
  6
CONTINUOUS
 10
23.33726445448964
 20
5.008667234384345
 30
0.0
 11
22.2614930230229
 21
6.084438665851079
 31
0.0
  0
LINE
  5
24B4E
  8
0
  6
CONTINUOUS
 10
28.86286302309502
 20
0.1565878748591523
 30
0.0
 11
27.63635089796295
 21
1.383099999991217
 31
0.0
  0
LINE
  5
24B4F
  8
0
  6
CONTINUOUS
 10
26.43704649509776
 20
2.582404402856405
 30
0.0
 11
23.61992702019732
 21
5.399523877756844
 31
0.0
  0
LINE
  5
24B50
  8
0
  6
CONTINUOUS
 10
23.54540330801128
 20
5.47404758994289
 30
0.0
 11
22.46969612849353
 21
6.549754769460635
 31
0.0
  0
LINE
  5
24B51
  8
0
  6
CONTINUOUS
 10
29.39405087596853
 20
0.2989192310658284
 30
0.0
 11
28.30987010704312
 21
1.383099999991234
 31
0.0
  0
LINE
  5
24B52
  8
0
  6
CONTINUOUS
 10
25.89179548232307
 20
3.801174624711282
 30
0.0
 11
22.67789923396416
 21
7.015070873070191
 31
0.0
  0
LINE
  5
24B53
  8
0
  6
CONTINUOUS
 10
29.79594438047407
 20
0.570544935640473
 30
0.0
 11
28.81310432793121
 21
1.553384988183336
 31
0.0
  0
LINE
  5
24B54
  8
0
  6
CONTINUOUS
 10
25.34654446954838
 20
5.01994484656616
 30
0.0
 11
22.88610233943479
 21
7.480386976679748
 31
0.0
  0
LINE
  5
24B55
  8
0
  6
CONTINUOUS
 10
30.13270398501416
 20
0.9073045401805646
 30
0.0
 11
29.14234640337737
 21
1.897662121817355
 31
0.0
  0
LINE
  5
24B56
  8
0
  6
CONTINUOUS
 10
24.80129345677369
 20
6.238715068421037
 30
0.0
 11
23.09430544490542
 21
7.945703080289305
 31
0.0
  0
LINE
  5
24B57
  8
0
  6
CONTINUOUS
 10
30.44581292956759
 20
1.26771480470732
 30
0.0
 11
29.30199999996933
 21
2.411527734305588
 31
0.0
  0
LINE
  5
24B58
  8
0
  6
CONTINUOUS
 10
30.58814428577427
 20
1.798902657580827
 30
0.0
 11
29.30199999996933
 21
3.085046943385775
 31
0.0
  0
LINE
  5
24B59
  8
0
  6
CONTINUOUS
 10
24.256042443999
 20
7.457485290275915
 30
0.0
 11
23.30250855037605
 21
8.411019183898862
 31
0.0
  0
LINE
  5
24B5A
  8
0
  6
CONTINUOUS
 10
23.71079143122431
 20
8.676255512130794
 30
0.0
 11
23.51071165584668
 21
8.876335287508418
 31
0.0
  0
LINE
  5
24B5B
  8
0
  6
CONTINUOUS
 10
30.73047564198095
 20
2.330090510454333
 30
0.0
 11
29.30199999996933
 21
3.758566152465961
 31
0.0
  0
LINE
  5
24B5C
  8
0
  6
CONTINUOUS
 10
30.74199999996924
 20
2.992085361546236
 30
0.0
 11
29.30199999996933
 21
4.432085361546148
 31
0.0
  0
LINE
  5
24B5D
  8
0
  6
CONTINUOUS
 10
30.74199999996924
 20
3.665604570626419
 30
0.0
 11
29.30199999996933
 21
5.105604570626333
 31
0.0
  0
LINE
  5
24B5E
  8
0
  6
CONTINUOUS
 10
30.74199999996925
 20
4.339123779706602
 30
0.0
 11
29.30199999996933
 21
5.77912377970652
 31
0.0
  0
LINE
  5
24B5F
  8
0
  6
CONTINUOUS
 10
30.74199999996925
 20
5.012642988786785
 30
0.0
 11
29.30199999996933
 21
6.452642988786707
 31
0.0
  0
LINE
  5
24B60
  8
0
  6
CONTINUOUS
 10
30.74199999996925
 20
5.68616219786697
 30
0.0
 11
29.30199999996933
 21
7.126162197866894
 31
0.0
  0
LINE
  5
24B61
  8
0
  6
CONTINUOUS
 10
30.74199999996925
 20
6.359681406947153
 30
0.0
 11
29.30199999996933
 21
7.799681406947081
 31
0.0
  0
LINE
  5
24B62
  8
0
  6
CONTINUOUS
 10
30.74199999996926
 20
7.033200616027337
 30
0.0
 11
29.30199999996933
 21
8.473200616027269
 31
0.0
  0
LINE
  5
24B63
  8
0
  6
CONTINUOUS
 10
30.74199999996926
 20
7.706719825107518
 30
0.0
 11
29.68561982508552
 21
8.763099999991255
 31
0.0
  0
LINE
  5
24B64
  8
0
  6
CONTINUOUS
 10
30.74199999996926
 20
8.380239034187703
 30
0.0
 11
30.35913903416571
 21
8.763099999991255
 31
0.0
  0
ENDBLK
  5
24C07
  8
0
  0
BLOCK
  8
0
  2
*X206
 70
     1
 10
0.0
 20
0.0
 30
0.0
  3
*X206
  1

  0
LINE
  5
24B66
  8
0
  6
CONTINUOUS
 10
31.64199999996833
 20
8.5350582899136
 30
0.0
 11
31.87004171004599
 21
8.763099999991255
 31
0.0
  0
LINE
  5
24B67
  8
0
  6
CONTINUOUS
 10
31.64199999996833
 20
7.861539080833413
 30
0.0
 11
32.54356091912618
 21
8.763099999991255
 31
0.0
  0
LINE
  5
24B68
  8
0
  6
CONTINUOUS
 10
31.64199999996833
 20
7.188019871753227
 30
0.0
 11
33.08199999996839
 21
8.628019871753281
 31
0.0
  0
LINE
  5
24B69
  8
0
  6
CONTINUOUS
 10
31.64199999996833
 20
6.514500662673041
 30
0.0
 11
33.08199999996839
 21
7.954500662673095
 31
0.0
  0
LINE
  5
24B6A
  8
0
  6
CONTINUOUS
 10
31.64199999996833
 20
5.840981453592855
 30
0.0
 11
33.08199999996839
 21
7.28098145359291
 31
0.0
  0
LINE
  5
24B6B
  8
0
  6
CONTINUOUS
 10
31.64199999996833
 20
5.167462244512668
 30
0.0
 11
33.08199999996839
 21
6.607462244512723
 31
0.0
  0
LINE
  5
24B6C
  8
0
  6
CONTINUOUS
 10
31.64199999996833
 20
4.493943035432482
 30
0.0
 11
33.08199999996839
 21
5.933943035432536
 31
0.0
  0
LINE
  5
24B6D
  8
0
  6
CONTINUOUS
 10
31.64199999996833
 20
3.820423826352294
 30
0.0
 11
33.08199999996839
 21
5.260423826352349
 31
0.0
  0
LINE
  5
24B6E
  8
0
  6
CONTINUOUS
 10
31.64199999996833
 20
3.146904617272108
 30
0.0
 11
33.08199999996839
 21
4.586904617272163
 31
0.0
  0
LINE
  5
24B6F
  8
0
  6
CONTINUOUS
 10
36.23199999996837
 20
8.410423826352327
 30
0.0
 11
36.58467617360729
 21
8.763099999991255
 31
0.0
  0
LINE
  5
24B70
  8
0
  6
CONTINUOUS
 10
36.23199999996837
 20
7.73690461727214
 30
0.0
 11
37.25819538268748
 21
8.763099999991255
 31
0.0
  0
LINE
  5
24B71
  8
0
  6
CONTINUOUS
 10
31.64323424774199
 20
2.474619655965573
 30
0.0
 11
33.08199999996839
 21
3.913385408191976
 31
0.0
  0
LINE
  5
24B72
  8
0
  6
CONTINUOUS
 10
31.74419223861915
 20
1.902058437762552
 30
0.0
 11
33.08199999996839
 21
3.239866199111789
 31
0.0
  0
LINE
  5
24B73
  8
0
  6
CONTINUOUS
 10
36.23199999996837
 20
7.063385408191953
 30
0.0
 11
37.67199999996831
 21
8.503385408191894
 31
0.0
  0
LINE
  5
24B74
  8
0
  6
CONTINUOUS
 10
36.23199999996837
 20
6.389866199111767
 30
0.0
 11
37.67199999996831
 21
7.829866199111708
 31
0.0
  0
LINE
  5
24B75
  8
0
  6
CONTINUOUS
 10
31.91111233414976
 20
1.39545932421297
 30
0.0
 11
33.08199999996839
 21
2.566346990031603
 31
0.0
  0
LINE
  5
24B76
  8
0
  6
CONTINUOUS
 10
36.23199999996837
 20
5.71634699003158
 30
0.0
 11
37.67199999996831
 21
7.156346990031522
 31
0.0
  0
LINE
  5
24B77
  8
0
  6
CONTINUOUS
 10
32.1576374746103
 20
0.9684652555933289
 30
0.0
 11
33.20642631446081
 21
2.017254095443838
 31
0.0
  0
LINE
  5
24B78
  8
0
  6
CONTINUOUS
 10
36.23199999996837
 20
5.042827780951393
 30
0.0
 11
37.67199999996831
 21
6.482827780951334
 31
0.0
  0
LINE
  5
24B79
  8
0
  6
CONTINUOUS
 10
32.47774023927325
 20
0.6150488111760914
 30
0.0
 11
33.49903056428258
 21
1.636339136185419
 31
0.0
  0
LINE
  5
24B7A
  8
0
  6
CONTINUOUS
 10
36.23199999996837
 20
4.369308571871207
 30
0.0
 11
37.67199999996831
 21
5.809308571871148
 31
0.0
  0
LINE
  5
24B7B
  8
0
  6
CONTINUOUS
 10
32.84396249154443
 20
0.3077518543670883
 30
0.0
 11
33.93324121824649
 21
1.397030581069146
 31
0.0
  0
LINE
  5
24B7C
  8
0
  6
CONTINUOUS
 10
36.23199999996837
 20
3.695789362791021
 30
0.0
 11
37.67199999996831
 21
5.135789362790963
 31
0.0
  0
LINE
  5
24B7D
  8
0
  6
CONTINUOUS
 10
33.30186329036846
 20
0.0921334441109263
 30
0.0
 11
34.46442907112041
 21
1.254699224862875
 31
0.0
  0
LINE
  5
24B7E
  8
0
  6
CONTINUOUS
 10
36.23199999996837
 20
3.022270153710834
 30
0.0
 11
37.67199999996831
 21
4.462270153710776
 31
0.0
  0
LINE
  5
24B7F
  8
0
  6
CONTINUOUS
 10
33.79565647746294
 20
-0.0875925778747773
 30
0.0
 11
35.24350171668284
 21
1.360252661345124
 31
0.0
  0
LINE
  5
24B80
  8
0
  6
CONTINUOUS
 10
36.18336676155003
 20
2.300117706212308
 30
0.0
 11
37.67199999996831
 21
3.788750944630589
 31
0.0
  0
LINE
  5
24B81
  8
0
  6
CONTINUOUS
 10
34.37182574910968
 20
-0.184942515308224
 30
0.0
 11
37.67199999996831
 21
3.115231735550402
 31
0.0
  0
LINE
  5
24B82
  8
0
  6
CONTINUOUS
 10
35.0453449581892
 20
-0.1849425153088955
 30
0.0
 11
37.66345697088136
 21
2.433169497383271
 31
0.0
  0
LINE
  5
24B83
  8
0
  6
CONTINUOUS
 10
35.98667157609191
 20
0.0828648935136398
 30
0.0
 11
37.51927401744566
 21
1.615467334867382
 31
0.0
  0
LINE
  5
24B84
  8
0
  6
CONTINUOUS
 10
32.27747408544484
 20
0.7830920669904482
 30
0.0
 11
32.24716210471949
 21
0.8134040477157893
 31
0.0
  0
LINE
  5
24B85
  8
0
  6
CONTINUOUS
 10
33.83656881101902
 20
-0.1024834495035494
 30
0.0
 11
31.72538911593758
 21
2.008696245577891
 31
0.0
  0
LINE
  5
24B86
  8
0
  6
CONTINUOUS
 10
34.5925470859041
 20
-0.1849425153084434
 30
0.0
 11
31.64199999996833
 21
2.765604570627322
 31
0.0
  0
LINE
  5
24B87
  8
0
  6
CONTINUOUS
 10
35.26201302775981
 20
-0.1808892480839752
 30
0.0
 11
31.64199999996833
 21
3.439123779707508
 31
0.0
  0
LINE
  5
24B88
  8
0
  6
CONTINUOUS
 10
35.75580621485512
 20
-0.0011632260990879
 30
0.0
 11
34.51294304365551
 21
1.241699945100514
 31
0.0
  0
LINE
  5
24B89
  8
0
  6
CONTINUOUS
 10
33.08199999996839
 20
2.672642988787641
 30
0.0
 11
31.64199999996833
 21
4.112642988787695
 31
0.0
  0
LINE
  5
24B8A
  8
0
  6
CONTINUOUS
 10
36.24959940195042
 20
0.1785627958857976
 30
0.0
 11
35.10501653033629
 21
1.323145667499924
 31
0.0
  0
LINE
  5
24B8B
  8
0
  6
CONTINUOUS
 10
33.08199999996839
 20
3.346162197867827
 30
0.0
 11
31.64199999996833
 21
4.786162197867881
 31
0.0
  0
LINE
  5
24B8C
  8
0
  6
CONTINUOUS
 10
36.64615197150552
 20
0.4555294354108876
 30
0.0
 11
35.6362043832099
 21
1.465477023706505
 31
0.0
  0
LINE
  5
24B8D
  8
0
  6
CONTINUOUS
 10
33.08199999996839
 20
4.019681406948013
 30
0.0
 11
31.64199999996833
 21
5.459681406948068
 31
0.0
  0
LINE
  5
24B8E
  8
0
  6
CONTINUOUS
 10
37.0123742237774
 20
0.7628263922191891
 30
0.0
 11
35.97691545773309
 21
1.798285158263504
 31
0.0
  0
LINE
  5
24B8F
  8
0
  6
CONTINUOUS
 10
33.08199999996839
 20
4.6932006160282
 30
0.0
 11
31.64199999996833
 21
6.133200616028255
 31
0.0
  0
LINE
  5
24B90
  8
0
  6
CONTINUOUS
 10
37.27491524157143
 20
1.173804583505349
 30
0.0
 11
36.17602012811361
 21
2.272699696963169
 31
0.0
  0
LINE
  5
24B91
  8
0
  6
CONTINUOUS
 10
33.08199999996839
 20
5.366719825108387
 30
0.0
 11
31.64199999996833
 21
6.806719825108441
 31
0.0
  0
LINE
  5
24B92
  8
0
  6
CONTINUOUS
 10
37.51739996707661
 20
1.604839067080355
 30
0.0
 11
36.23199999996837
 21
2.890239034188595
 31
0.0
  0
LINE
  5
24B93
  8
0
  6
CONTINUOUS
 10
37.6183579579535
 20
2.177400285283649
 30
0.0
 11
36.23199999996837
 21
3.563758243268782
 31
0.0
  0
LINE
  5
24B94
  8
0
  6
CONTINUOUS
 10
33.08199999996839
 20
6.040239034188573
 30
0.0
 11
31.64199999996833
 21
7.480239034188628
 31
0.0
  0
LINE
  5
24B95
  8
0
  6
CONTINUOUS
 10
33.08199999996839
 20
6.713758243268759
 30
0.0
 11
31.64199999996833
 21
8.153758243268815
 31
0.0
  0
LINE
  5
24B96
  8
0
  6
CONTINUOUS
 10
37.67199999996831
 20
2.797277452349027
 30
0.0
 11
36.23199999996837
 21
4.237277452348969
 31
0.0
  0
LINE
  5
24B97
  8
0
  6
CONTINUOUS
 10
37.67199999996831
 20
3.470796661429214
 30
0.0
 11
36.23199999996837
 21
4.910796661429155
 31
0.0
  0
LINE
  5
24B98
  8
0
  6
CONTINUOUS
 10
37.67199999996831
 20
4.1443158705094
 30
0.0
 11
36.23199999996837
 21
5.584315870509341
 31
0.0
  0
LINE
  5
24B99
  8
0
  6
CONTINUOUS
 10
33.08199999996839
 20
7.387277452348946
 30
0.0
 11
31.70617745232608
 21
8.763099999991255
 31
0.0
  0
LINE
  5
24B9A
  8
0
  6
CONTINUOUS
 10
33.08199999996839
 20
8.060796661429134
 30
0.0
 11
32.37969666140626
 21
8.763099999991255
 31
0.0
  0
LINE
  5
24B9B
  8
0
  6
CONTINUOUS
 10
33.08199999996839
 20
8.734315870509318
 30
0.0
 11
33.05321587048645
 21
8.763099999991255
 31
0.0
  0
LINE
  5
24B9C
  8
0
  6
CONTINUOUS
 10
37.67199999996831
 20
4.817835079589586
 30
0.0
 11
36.23199999996837
 21
6.257835079589528
 31
0.0
  0
LINE
  5
24B9D
  8
0
  6
CONTINUOUS
 10
37.67199999996831
 20
5.491354288669772
 30
0.0
 11
36.23199999996837
 21
6.931354288669715
 31
0.0
  0
LINE
  5
24B9E
  8
0
  6
CONTINUOUS
 10
37.67199999996831
 20
6.164873497749959
 30
0.0
 11
36.23199999996837
 21
7.6048734977499
 31
0.0
  0
LINE
  5
24B9F
  8
0
  6
CONTINUOUS
 10
37.67199999996831
 20
6.838392706830145
 30
0.0
 11
36.23199999996837
 21
8.278392706830086
 31
0.0
  0
LINE
  5
24BA0
  8
0
  6
CONTINUOUS
 10
37.67199999996831
 20
7.511911915910333
 30
0.0
 11
36.42081191588738
 21
8.763099999991255
 31
0.0
  0
LINE
  5
24BA1
  8
0
  6
CONTINUOUS
 10
37.67199999996831
 20
8.185431124990519
 30
0.0
 11
37.09433112496757
 21
8.763099999991255
 31
0.0
  0
ENDBLK
  5
24C09
  8
0
  0
BLOCK
  8
0
  2
*X207
 70
     1
 10
0.0
 20
0.0
 30
0.0
  3
*X207
  1

  0
LINE
  5
24BA3
  8
0
  6
CONTINUOUS
 10
38.60499999996136
 20
8.762866199104765
 30
0.0
 11
38.71672554182345
 21
8.874591740966855
 31
0.0
  0
LINE
  5
24BA4
  8
0
  6
CONTINUOUS
 10
38.60499999996136
 20
8.089346990024577
 30
0.0
 11
39.03418785440363
 21
8.518534844466847
 31
0.0
  0
LINE
  5
24BA5
  8
0
  6
CONTINUOUS
 10
38.60499999996136
 20
7.41582778094439
 30
0.0
 11
39.35165016698382
 21
8.16247794796684
 31
0.0
  0
LINE
  5
24BA6
  8
0
  6
CONTINUOUS
 10
38.60499999996136
 20
6.742308571864204
 30
0.0
 11
39.66911247956399
 21
7.806421051466834
 31
0.0
  0
LINE
  5
24BA7
  8
0
  6
CONTINUOUS
 10
38.60499999996136
 20
6.068789362784018
 30
0.0
 11
39.98657479214418
 21
7.450364154966827
 31
0.0
  0
LINE
  5
24BA8
  8
0
  6
CONTINUOUS
 10
38.60499999996136
 20
5.395270153703832
 30
0.0
 11
40.30403710472435
 21
7.09430725846682
 31
0.0
  0
LINE
  5
24BA9
  8
0
  6
CONTINUOUS
 10
38.60499999996136
 20
4.721750944623645
 30
0.0
 11
40.62149941730453
 21
6.738250361966813
 31
0.0
  0
LINE
  5
24BAA
  8
0
  6
CONTINUOUS
 10
38.60499999996136
 20
4.048231735543458
 30
0.0
 11
40.93896172988471
 21
6.382193465466806
 31
0.0
  0
LINE
  5
24BAB
  8
0
  6
CONTINUOUS
 10
38.60499999996136
 20
3.374712526463272
 30
0.0
 11
40.02599999995994
 21
4.795712526461843
 31
0.0
  0
LINE
  5
24BAC
  8
0
  6
CONTINUOUS
 10
38.60499999996136
 20
2.701193317383085
 30
0.0
 11
40.02599999995994
 21
4.122193317381657
 31
0.0
  0
LINE
  5
24BAD
  8
0
  6
CONTINUOUS
 10
40.28339754687704
 20
5.053110073378947
 30
0.0
 11
41.25642404246489
 21
6.026136568966799
 31
0.0
  0
LINE
  5
24BAE
  8
0
  6
CONTINUOUS
 10
40.60085985945722
 20
4.697053176878939
 30
0.0
 11
41.57388635504507
 21
5.670079672466793
 31
0.0
  0
LINE
  5
24BAF
  8
0
  6
CONTINUOUS
 10
43.57899999995641
 20
8.348712526458318
 30
0.0
 11
43.99338747348935
 21
8.763099999991255
 31
0.0
  0
LINE
  5
24BB0
  8
0
  6
CONTINUOUS
 10
43.57899999995641
 20
7.675193317378131
 30
0.0
 11
44.66690668256953
 21
8.763099999991255
 31
0.0
  0
LINE
  5
24BB1
  8
0
  6
CONTINUOUS
 10
38.60499999996136
 20
2.027674108302898
 30
0.0
 11
40.02599999995994
 21
3.44867410830147
 31
0.0
  0
LINE
  5
24BB2
  8
0
  6
CONTINUOUS
 10
38.60499999996136
 20
1.354154899222712
 30
0.0
 11
40.02599999995994
 21
2.775154899221284
 31
0.0
  0
LINE
  5
24BB3
  8
0
  6
CONTINUOUS
 10
38.60499999996136
 20
0.6806356901425255
 30
0.0
 11
40.02599999995994
 21
2.101635690141098
 31
0.0
  0
LINE
  5
24BB4
  8
0
  6
CONTINUOUS
 10
38.60499999996136
 20
0.0071164810623383
 30
0.0
 11
40.02599999995994
 21
1.428116481060911
 31
0.0
  0
LINE
  5
24BB5
  8
0
  6
CONTINUOUS
 10
40.9183221720374
 20
4.340996280378933
 30
0.0
 11
41.89134866762525
 21
5.314022775966786
 31
0.0
  0
LINE
  5
24BB6
  8
0
  6
CONTINUOUS
 10
41.23578448461758
 20
3.984939383878926
 30
0.0
 11
42.20881098020543
 21
4.957965879466778
 31
0.0
  0
LINE
  5
24BB7
  8
0
  6
CONTINUOUS
 10
41.55324679719776
 20
3.628882487378919
 30
0.0
 11
42.52627329278561
 21
4.601908982966772
 31
0.0
  0
LINE
  5
24BB8
  8
0
  6
CONTINUOUS
 10
41.87070910977793
 20
3.272825590878912
 30
0.0
 11
42.84373560536579
 21
4.245852086466765
 31
0.0
  0
LINE
  5
24BB9
  8
0
  6
CONTINUOUS
 10
43.57899999995641
 20
7.001674108297943
 30
0.0
 11
44.99999999995498
 21
8.422674108296516
 31
0.0
  0
LINE
  5
24BBA
  8
0
  6
CONTINUOUS
 10
43.57899999995641
 20
6.328154899217758
 30
0.0
 11
44.99999999995498
 21
7.749154899216329
 31
0.0
  0
LINE
  5
24BBB
  8
0
  6
CONTINUOUS
 10
43.57899999995641
 20
5.654635690137571
 30
0.0
 11
44.99999999995498
 21
7.075635690136142
 31
0.0
  0
LINE
  5
24BBC
  8
0
  6
CONTINUOUS
 10
43.57899999995641
 20
4.981116481057384
 30
0.0
 11
44.99999999995498
 21
6.402116481055955
 31
0.0
  0
LINE
  5
24BBD
  8
0
  6
CONTINUOUS
 10
39.27140272797921
 20
-0.0000000000000009
 30
0.0
 11
40.02599999995994
 21
0.7545972719807246
 31
0.0
  0
LINE
  5
24BBE
  8
0
  6
CONTINUOUS
 10
39.9449219370594
 20
-0.0000000000000009
 30
0.0
 11
40.02599999995994
 21
0.0810780629005379
 31
0.0
  0
LINE
  5
24BBF
  8
0
  6
CONTINUOUS
 10
42.18817142235812
 20
2.916768694378905
 30
0.0
 11
43.16119791794597
 21
3.889795189966758
 31
0.0
  0
LINE
  5
24BC0
  8
0
  6
CONTINUOUS
 10
42.50563373493829
 20
2.560711797878898
 30
0.0
 11
43.47866023052615
 21
3.533738293466751
 31
0.0
  0
LINE
  5
24BC1
  8
0
  6
CONTINUOUS
 10
43.57899999995641
 20
4.307597271977198
 30
0.0
 11
44.99999999995498
 21
5.728597271975769
 31
0.0
  0
LINE
  5
24BC2
  8
0
  6
CONTINUOUS
 10
43.57899999995641
 20
3.634078062897011
 30
0.0
 11
44.99999999995498
 21
5.055078062895582
 31
0.0
  0
LINE
  5
24BC3
  8
0
  6
CONTINUOUS
 10
42.82309604751848
 20
2.204654901378891
 30
0.0
 11
44.99999999995498
 21
4.381558853815395
 31
0.0
  0
LINE
  5
24BC4
  8
0
  6
CONTINUOUS
 10
43.14055836009865
 20
1.848598004878885
 30
0.0
 11
44.99999999995498
 21
3.70803964473521
 31
0.0
  0
LINE
  5
24BC5
  8
0
  6
CONTINUOUS
 10
43.45802067267883
 20
1.492541108378878
 30
0.0
 11
44.99999999995498
 21
3.034520435655023
 31
0.0
  0
LINE
  5
24BC6
  8
0
  6
CONTINUOUS
 10
43.77548298525902
 20
1.136484211878871
 30
0.0
 11
44.99999999995498
 21
2.361001226574837
 31
0.0
  0
LINE
  5
24BC7
  8
0
  6
CONTINUOUS
 10
44.09294529783919
 20
0.7804273153788639
 30
0.0
 11
44.99999999995498
 21
1.687482017494649
 31
0.0
  0
LINE
  5
24BC8
  8
0
  6
CONTINUOUS
 10
44.41040761041938
 20
0.4243704188788566
 30
0.0
 11
44.99999999995498
 21
1.013962808414463
 31
0.0
  0
LINE
  5
24BC9
  8
0
  6
CONTINUOUS
 10
44.72786992299955
 20
0.0683135223788494
 30
0.0
 11
44.99999999995498
 21
0.340443599334276
 31
0.0
  0
LINE
  5
24BCA
  8
0
  6
CONTINUOUS
 10
39.12223903415696
 20
-0.0000000000000009
 30
0.0
 11
38.60499999996136
 21
0.5172390341955961
 31
0.0
  0
LINE
  5
24BCB
  8
0
  6
CONTINUOUS
 10
39.79575824323715
 20
-0.0000000000000009
 30
0.0
 11
38.60499999996136
 21
1.190758243275783
 31
0.0
  0
LINE
  5
24BCC
  8
0
  6
CONTINUOUS
 10
40.02599999995994
 20
0.443277452357397
 30
0.0
 11
38.60499999996136
 21
1.864277452355969
 31
0.0
  0
LINE
  5
24BCD
  8
0
  6
CONTINUOUS
 10
40.02599999995994
 20
1.116796661437583
 30
0.0
 11
38.60499999996136
 21
2.537796661436155
 31
0.0
  0
LINE
  5
24BCE
  8
0
  6
CONTINUOUS
 10
40.02599999995994
 20
1.79031587051777
 30
0.0
 11
38.60499999996136
 21
3.211315870516341
 31
0.0
  0
LINE
  5
24BCF
  8
0
  6
CONTINUOUS
 10
40.02599999995994
 20
2.463835079597956
 30
0.0
 11
38.60499999996136
 21
3.884835079596527
 31
0.0
  0
LINE
  5
24BD0
  8
0
  6
CONTINUOUS
 10
40.02599999995994
 20
3.137354288678143
 30
0.0
 11
38.60499999996136
 21
4.558354288676714
 31
0.0
  0
LINE
  5
24BD1
  8
0
  6
CONTINUOUS
 10
40.02599999995994
 20
3.810873497758329
 30
0.0
 11
38.60499999996136
 21
5.2318734977569
 31
0.0
  0
LINE
  5
24BD2
  8
0
  6
CONTINUOUS
 10
40.02599999995994
 20
4.484392706838515
 30
0.0
 11
38.60499999996136
 21
5.905392706837086
 31
0.0
  0
LINE
  5
24BD3
  8
0
  6
CONTINUOUS
 10
44.99999999995498
 20
0.183911915923658
 30
0.0
 11
41.53858364506288
 21
3.64532827081576
 31
0.0
  0
LINE
  5
24BD4
  8
0
  6
CONTINUOUS
 10
40.02599999995994
 20
5.157911915918703
 30
0.0
 11
38.60499999996136
 21
6.578911915917274
 31
0.0
  0
LINE
  5
24BD5
  8
0
  6
CONTINUOUS
 10
44.99999999995498
 20
0.8574311250038447
 30
0.0
 11
38.60499999996136
 21
7.25243112499746
 31
0.0
  0
LINE
  5
24BD6
  8
0
  6
CONTINUOUS
 10
44.99999999995498
 20
1.530950334084031
 30
0.0
 11
38.60499999996136
 21
7.925950334077647
 31
0.0
  0
LINE
  5
24BD7
  8
0
  6
CONTINUOUS
 10
44.99999999995498
 20
2.204469543164218
 30
0.0
 11
43.57899999995641
 21
3.625469543162789
 31
0.0
  0
LINE
  5
24BD8
  8
0
  6
CONTINUOUS
 10
41.89876730984767
 20
5.305702233271528
 30
0.0
 11
38.60499999996136
 21
8.599469543157834
 31
0.0
  0
LINE
  5
24BD9
  8
0
  6
CONTINUOUS
 10
44.99999999995498
 20
2.877988752244405
 30
0.0
 11
43.57899999995641
 21
4.298988752242975
 31
0.0
  0
LINE
  5
24BDA
  8
0
  6
CONTINUOUS
 10
44.99999999995498
 20
3.551507961324591
 30
0.0
 11
43.57899999995641
 21
4.972507961323163
 31
0.0
  0
LINE
  5
24BDB
  8
0
  6
CONTINUOUS
 10
44.99999999995498
 20
4.225027170404777
 30
0.0
 11
43.57899999995641
 21
5.646027170403348
 31
0.0
  0
LINE
  5
24BDC
  8
0
  6
CONTINUOUS
 10
44.99999999995498
 20
4.898546379484964
 30
0.0
 11
43.57899999995641
 21
6.319546379483535
 31
0.0
  0
LINE
  5
24BDD
  8
0
  6
CONTINUOUS
 10
44.99999999995498
 20
5.572065588565151
 30
0.0
 11
43.57899999995641
 21
6.993065588563722
 31
0.0
  0
LINE
  5
24BDE
  8
0
  6
CONTINUOUS
 10
44.99999999995498
 20
6.245584797645336
 30
0.0
 11
43.57899999995641
 21
7.666584797643908
 31
0.0
  0
LINE
  5
24BDF
  8
0
  6
CONTINUOUS
 10
44.99999999995498
 20
6.919104006725522
 30
0.0
 11
43.57899999995641
 21
8.340104006724093
 31
0.0
  0
LINE
  5
24BE0
  8
0
  6
CONTINUOUS
 10
44.99999999995498
 20
7.592623215805709
 30
0.0
 11
43.82952321576943
 21
8.763099999991255
 31
0.0
  0
LINE
  5
24BE1
  8
0
  6
CONTINUOUS
 10
44.99999999995498
 20
8.266142424885896
 30
0.0
 11
44.50304242484962
 21
8.763099999991255
 31
0.0
  0
ENDBLK
  5
24C0B
  8
0
  0
BLOCK
  8
0
  2
*X208
 70
     1
 10
0.0
 20
0.0
 30
0.0
  3
*X208
  1

  0
LINE
  5
24BE3
  8
0
  6
CONTINUOUS
 10
0.0
 20
8.548461116714023
 30
0.0
 11
0.2146388832772324
 21
8.763099999991255
 31
0.0
  0
LINE
  5
24BE4
  8
0
  6
CONTINUOUS
 10
-0.0000000000000002
 20
7.874941907633837
 30
0.0
 11
0.8881580923574184
 21
8.763099999991255
 31
0.0
  0
LINE
  5
24BE5
  8
0
  6
CONTINUOUS
 10
0.0
 20
7.20142269855365
 30
0.0
 11
1.420999999998572
 21
8.622422698552223
 31
0.0
  0
LINE
  5
24BE6
  8
0
  6
CONTINUOUS
 10
-0.0000000000000001
 20
6.527903489473465
 30
0.0
 11
1.420999999998571
 21
7.948903489472036
 31
0.0
  0
LINE
  5
24BE7
  8
0
  6
CONTINUOUS
 10
-0.0000000000000002
 20
5.854384280393278
 30
0.0
 11
1.420999999998571
 21
7.275384280391849
 31
0.0
  0
LINE
  5
24BE8
  8
0
  6
CONTINUOUS
 10
-0.0000000000000002
 20
5.180865071313091
 30
0.0
 11
1.420999999998571
 21
6.601865071311663
 31
0.0
  0
LINE
  5
24BE9
  8
0
  6
CONTINUOUS
 10
0.0
 20
4.507345862232905
 30
0.0
 11
1.420999999998571
 21
5.928345862231477
 31
0.0
  0
LINE
  5
24BEA
  8
0
  6
CONTINUOUS
 10
-0.0000000000000003
 20
3.833826653152718
 30
0.0
 11
1.420999999998571
 21
5.25482665315129
 31
0.0
  0
LINE
  5
24BEB
  8
0
  6
CONTINUOUS
 10
-0.0000000000000002
 20
3.160307444072532
 30
0.0
 11
1.420999999998571
 21
4.581307444071103
 31
0.0
  0
LINE
  5
24BEC
  8
0
  6
CONTINUOUS
 10
-0.0000000000000001
 20
2.486788234992345
 30
0.0
 11
1.420999999998571
 21
3.907788234990917
 31
0.0
  0
LINE
  5
24BED
  8
0
  6
CONTINUOUS
 10
-0.0000000000000006
 20
1.813269025912159
 30
0.0
 11
1.420999999998571
 21
3.234269025910731
 31
0.0
  0
LINE
  5
24BEE
  8
0
  6
CONTINUOUS
 10
0.0
 20
1.139749816831973
 30
0.0
 11
1.420999999998571
 21
2.560749816830544
 31
0.0
  0
LINE
  5
24BEF
  8
0
  6
CONTINUOUS
 10
0.0000000000000002
 20
0.466230607751787
 30
0.0
 11
1.420999999998571
 21
1.887230607750358
 31
0.0
  0
LINE
  5
24BF0
  8
0
  6
CONTINUOUS
 10
0.2072886013284003
 20
-0.0000000000000009
 30
0.0
 11
1.420999999998571
 21
1.213711398670171
 31
0.0
  0
LINE
  5
24BF1
  8
0
  6
CONTINUOUS
 10
0.8808078104085864
 20
-0.0000000000000009
 30
0.0
 11
1.420999999998571
 21
0.5401921895899839
 31
0.0
  0
LINE
  5
24BF2
  8
0
  6
CONTINUOUS
 10
0.0581249075061505
 20
-0.0000000000000009
 30
0.0
 11
-0.0000000000000002
 21
0.0581249075061496
 31
0.0
  0
LINE
  5
24BF3
  8
0
  6
CONTINUOUS
 10
0.7316441165863372
 20
-0.0000000000000009
 30
0.0
 11
-0.0000000000000002
 21
0.7316441165863363
 31
0.0
  0
LINE
  5
24BF4
  8
0
  6
CONTINUOUS
 10
1.405163325666523
 20
-0.0000000000000009
 30
0.0
 11
-0.0000000000000002
 21
1.405163325666523
 31
0.0
  0
LINE
  5
24BF5
  8
0
  6
CONTINUOUS
 10
1.420999999998572
 20
0.6576825347481381
 30
0.0
 11
-0.0000000000000001
 21
2.07868253474671
 31
0.0
  0
LINE
  5
24BF6
  8
0
  6
CONTINUOUS
 10
1.420999999998571
 20
1.331201743828324
 30
0.0
 11
-0.0000000000000001
 21
2.752201743826896
 31
0.0
  0
LINE
  5
24BF7
  8
0
  6
CONTINUOUS
 10
1.420999999998571
 20
2.004720952908511
 30
0.0
 11
-0.0000000000000002
 21
3.425720952907082
 31
0.0
  0
LINE
  5
24BF8
  8
0
  6
CONTINUOUS
 10
1.420999999998571
 20
2.678240161988697
 30
0.0
 11
-0.0000000000000001
 21
4.099240161987269
 31
0.0
  0
LINE
  5
24BF9
  8
0
  6
CONTINUOUS
 10
1.420999999998572
 20
3.351759371068884
 30
0.0
 11
0.0
 21
4.772759371067455
 31
0.0
  0
LINE
  5
24BFA
  8
0
  6
CONTINUOUS
 10
1.420999999998571
 20
4.02527858014907
 30
0.0
 11
-0.0000000000000003
 21
5.446278580147642
 31
0.0
  0
LINE
  5
24BFB
  8
0
  6
CONTINUOUS
 10
1.420999999998571
 20
4.698797789229257
 30
0.0
 11
0.0
 21
6.119797789227828
 31
0.0
  0
LINE
  5
24BFC
  8
0
  6
CONTINUOUS
 10
1.420999999998571
 20
5.372316998309444
 30
0.0
 11
-0.0000000000000001
 21
6.793316998308015
 31
0.0
  0
LINE
  5
24BFD
  8
0
  6
CONTINUOUS
 10
1.420999999998572
 20
6.045836207389629
 30
0.0
 11
-0.0000000000000004
 21
7.466836207388202
 31
0.0
  0
LINE
  5
24BFE
  8
0
  6
CONTINUOUS
 10
1.420999999998571
 20
6.719355416469816
 30
0.0
 11
0.0
 21
8.140355416468388
 31
0.0
  0
LINE
  5
24BFF
  8
0
  6
CONTINUOUS
 10
1.420999999998571
 20
7.392874625550003
 30
0.0
 11
0.0507746255573185
 21
8.763099999991255
 31
0.0
  0
LINE
  5
24C00
  8
0
  6
CONTINUOUS
 10
1.420999999998571
 20
8.06639383463019
 30
0.0
 11
0.7242938346375052
 21
8.763099999991255
 31
0.0
  0
LINE
  5
24C01
  8
0
  6
CONTINUOUS
 10
1.420999999998571
 20
8.739913043710375
 30
0.0
 11
1.397813043717691
 21
8.763099999991255
 31
0.0
  0
ENDBLK
  5
24C0D
  8
0
  0
ENDSEC
  0
SECTION
  2
ENTITIES
  0
TEXT
  5
1DB9B
  8
1TEXT
 10
525.7273462176485
 20
-525.3213303512664
 30
0.0
 40
8.0
  1
SE-501-※L
 72
     2
 11
592.7162351065374
 21
-525.3213303512664
 31
0.0
 73
     1
  0
LINE
  5
1DBA4
  8
01
 10
775.5162416153653
 20
-618.5931567659834
 30
0.0
 11
775.5162416153653
 21
-693.0495039365471
 31
0.0
  0
LINE
  5
1DBA5
  8
01
 10
784.5162416153653
 20
-618.5931567659834
 30
0.0
 11
784.5162416153653
 21
-693.0495039365471
 31
0.0
  0
LINE
  5
1DBA6
  8
01
 10
763.0162416153653
 20
-618.5931567659834
 30
0.0
 11
763.0162416153653
 21
-693.0495039365471
 31
0.0
  0
LINE
  5
1E7B5
  8
01
 10
632.2162364466535
 20
-539.8213303512664
 30
0.0
 11
631.2162367466535
 21
-538.8213303512664
 31
0.0
  0
LINE
  5
1E7B6
  8
01
 10
635.5162365966535
 20
-539.8213303512664
 30
0.0
 11
635.5162365966535
 21
-538.8213303512664
 31
0.0
  0
LINE
  5
1E7B7
  8
01
 10
635.5162365966535
 20
-538.8213303512664
 30
0.0
 11
627.9162365966536
 21
-538.8213303512664
 31
0.0
  0
LINE
  5
1E7B8
  8
01
 10
635.5162365966535
 20
-539.8213303512664
 30
0.0
 11
627.9162365966536
 21
-539.8213303512664
 31
0.0
  0
LINE
  5
1E7B9
  8
01
 10
627.9162365966536
 20
-539.8213303512664
 30
0.0
 11
627.9162365966536
 21
-538.8213303512664
 31
0.0
  0
LINE
  5
1E9CD
  8
01
 10
759.0162416164925
 20
-655.3213302012664
 30
0.0
 11
760.0162416164925
 21
-654.3213305012664
 31
0.0
  0
LINE
  5
1E9CE
  8
01
 10
759.0162416164925
 20
-658.6213303512664
 30
0.0
 11
760.0162416164925
 21
-658.6213303512664
 31
0.0
  0
LINE
  5
1E9CF
  8
01
 10
760.0162416164925
 20
-658.6213303512664
 30
0.0
 11
760.0162416164925
 21
-651.0213303512664
 31
0.0
  0
LINE
  5
1E9D0
  8
01
 10
759.0162416164925
 20
-658.6213303512664
 30
0.0
 11
759.0162416164925
 21
-651.0213303512664
 31
0.0
  0
LINE
  5
1E9D1
  8
01
 10
759.0162416164925
 20
-651.0213303512664
 30
0.0
 11
760.0162416164925
 21
-651.0213303512664
 31
0.0
  0
LINE
  5
2376E
  8
01
 10
156.2162415438391
 20
-570.5213291472526
 30
0.0
 11
145.5162392311789
 21
-570.5213291472526
 31
0.0
  0
LINE
  5
2376F
  8
01
 10
121.4162336045005
 20
-593.1213317340942
 30
0.0
 11
156.2162415438391
 21
-593.1213317340942
 31
0.0
  0
ARC
  5
23770
  8
01
 10
156.2162380867697
 20
-592.6213303512664
 30
0.0
 40
0.5
 50
270.0
 51
0.0
  0
ARC
  5
23771
  8
01
 10
156.2162380867697
 20
-571.0213303512662
 30
0.0
 40
0.5
 50
0.0
 51
90.0
  0
ARC
  5
23772
  8
01
 10
121.4162380867697
 20
-592.1213303512664
 30
0.0
 40
0.9999999999999938
 50
179.6105146644753
 51
270.4324869659955
  0
LINE
  5
23773
  8
01
 10
120.4162315779425
 20
-535.8213303512664
 30
0.0
 11
120.4162315779425
 21
-592.1213297075362
 31
0.0
  0
LINE
  5
23774
  8
01
 10
143.0162416153647
 20
-568.0213315314384
 30
0.0
 11
143.0162416153647
 21
-535.8213303512664
 31
0.0
  0
ARC
  5
23775
  8
01
 10
145.5162380867697
 20
-568.0213303512662
 30
0.0
 40
2.50000000000001
 50
180.0290594845015
 51
269.9637400130547
  0
LINE
  5
23776
  8
01
 10
607.216231649468
 20
-593.1213317340942
 30
0.0
 11
642.0162395888067
 21
-593.1213317340942
 31
0.0
  0
LINE
  5
23777
  8
01
 10
617.9162339621282
 20
-570.5213291472526
 30
0.0
 11
607.216231649468
 21
-570.5213291472526
 31
0.0
  0
ARC
  5
23778
  8
01
 10
607.2162351065374
 20
-571.0213303512662
 30
0.0
 40
0.5000000000000568
 50
90.0
 51
180.0
  0
ARC
  5
23779
  8
01
 10
607.2162351065374
 20
-592.6213303512664
 30
0.0
 40
0.5000000000000568
 50
180.0
 51
270.0
  0
ARC
  5
2377A
  8
01
 10
642.0162351065375
 20
-592.1213303512664
 30
0.0
 40
1.000000000000022
 50
269.6105146644754
 51
0.4324869659955385
  0
LINE
  5
2377B
  8
01
 10
620.4162315779424
 20
-535.8213303512664
 30
0.0
 11
620.4162315779424
 21
-568.0213315314384
 31
0.0
  0
LINE
  5
2377C
  8
01
 10
643.0162416153646
 20
-592.1213297075362
 30
0.0
 11
643.0162416153646
 21
-535.8213303512664
 31
0.0
  0
ARC
  5
2377D
  8
01
 10
617.9162351065373
 20
-568.0213303512662
 30
0.0
 40
2.500000000000055
 50
270.0290594845015
 51
359.9637400130521
  0
LINE
  5
2377F
  8
01
 10
143.0162416153647
 20
-535.8213303512664
 30
0.0
 11
120.4162315779425
 21
-535.8213303512664
 31
0.0
  0
LINE
  5
23780
  8
01
 10
620.4162315779424
 20
-535.8213303512664
 30
0.0
 11
643.0162416153646
 21
-535.8213303512664
 31
0.0
  0
LINE
  5
23781
  8
01
 10
156.7162380867697
 20
-592.8213302916618
 30
0.0
 11
156.7162380867697
 21
-570.821330410871
 31
0.0
  0
LINE
  5
23857
  8
01
 10
606.7162351065374
 20
-570.821330410871
 30
0.0
 11
606.7162351065374
 21
-592.8213302916618
 31
0.0
  0
LINE
  5
23858
  8
01
 10
606.7162351065374
 20
-570.821330410871
 30
0.0
 11
156.7162380867697
 21
-570.821330410871
 31
0.0
  0
LINE
  5
2385A
  8
01
 10
156.7162380867697
 20
-592.8213302916618
 30
0.0
 11
606.7162351065374
 21
-592.8213302916618
 31
0.0
  0
LINE
  5
239B2
  8
01
 10
143.7483600574689
 20
-569.7889862209183
 30
0.0
 11
120.7093967042675
 21
-592.8287024315625
 31
0.0
  0
LINE
  5
239B3
  8
01
 10
619.6838909761893
 20
-569.7892083805672
 30
0.0
 11
642.7236071868336
 21
-592.8281717337686
 31
0.0
  0
TEXT
  5
239F4
  8
1TEXT
 10
538.982901773204
 20
-535.8213303512664
 30
0.0
 40
4.0
  1
※には色品番が入ります。
 72
     2
 11
592.7162351065374
 21
-535.8213303512664
 31
0.0
 73
     1
  0
LINE
  5
239F7
  8
01
 10
131.2162367466536
 20
-539.8213303512664
 30
0.0
 11
132.2162364466536
 21
-538.8213303512664
 31
0.0
  0
LINE
  5
239F8
  8
01
 10
127.9162365966537
 20
-539.8213303512664
 30
0.0
 11
127.9162365966537
 21
-538.8213303512664
 31
0.0
  0
LINE
  5
239F9
  8
01
 10
127.9162365966537
 20
-538.8213303512664
 30
0.0
 11
135.5162365966536
 21
-538.8213303512664
 31
0.0
  0
LINE
  5
239FA
  8
01
 10
127.9162365966537
 20
-539.8213303512664
 30
0.0
 11
135.5162365966536
 21
-539.8213303512664
 31
0.0
  0
LINE
  5
239FB
  8
01
 10
135.5162365966536
 20
-539.8213303512664
 30
0.0
 11
135.5162365966536
 21
-538.8213303512664
 31
0.0
  0
POLYLINE
  5
23A7C
  8
1PHANTOM
 66
     1
 10
0.0
 20
0.0
 30
0.0
  0
VERTEX
  5
244A9
  8
1PHANTOM
 10
638.849401937689
 20
-558.7342841239157
 30
0.0
  0
VERTEX
  5
244AA
  8
1PHANTOM
 10
638.8512150288288
 20
-558.7337492690317
 30
0.0
  0
VERTEX
  5
244AB
  8
1PHANTOM
 10
638.8530270801893
 20
-558.7332108585064
 30
0.0
  0
VERTEX
  5
244AC
  8
1PHANTOM
 10
638.8548380129448
 20
-558.7326688416344
 30
0.0
  0
VERTEX
  5
244AD
  8
1PHANTOM
 10
638.8566477965267
 20
-558.7321233437202
 30
0.0
  0
VERTEX
  5
244AE
  8
1PHANTOM
 10
638.858456400366
 20
-558.7315744900675
 30
0.0
  0
VERTEX
  5
244AF
  8
1PHANTOM
 10
638.8602637938941
 20
-558.7310224059806
 30
0.0
  0
VERTEX
  5
244B0
  8
1PHANTOM
 10
638.8620699465422
 20
-558.7304672167637
 30
0.0
  0
VERTEX
  5
244B1
  8
1PHANTOM
 10
638.8638748277416
 20
-558.7299090477209
 30
0.0
  0
VERTEX
  5
244B2
  8
1PHANTOM
 10
638.8656784069235
 20
-558.7293480241563
 30
0.0
  0
VERTEX
  5
244B3
  8
1PHANTOM
 10
638.8674806535191
 20
-558.7287842713741
 30
0.0
  0
VERTEX
  5
244B4
  8
1PHANTOM
 10
638.8692815369598
 20
-558.7282179146786
 30
0.0
  0
VERTEX
  5
244B5
  8
1PHANTOM
 10
638.8710810266766
 20
-558.7276490793736
 30
0.0
  0
VERTEX
  5
244B6
  8
1PHANTOM
 10
638.8728790921011
 20
-558.7270778907633
 30
0.0
  0
VERTEX
  5
244B7
  8
1PHANTOM
 10
638.8746757026643
 20
-558.7265044741521
 30
0.0
  0
VERTEX
  5
244B8
  8
1PHANTOM
 10
638.8764708277974
 20
-558.7259289548441
 30
0.0
  0
VERTEX
  5
244B9
  8
1PHANTOM
 10
638.8782644369319
 20
-558.7253514581433
 30
0.0
  0
VERTEX
  5
244BA
  8
1PHANTOM
 10
638.8800564994989
 20
-558.7247721093538
 30
0.0
  0
VERTEX
  5
244BB
  8
1PHANTOM
 10
638.8818469849294
 20
-558.7241910337799
 30
0.0
  0
VERTEX
  5
244BC
  8
1PHANTOM
 10
638.8836358626552
 20
-558.7236083567255
 30
0.0
  0
VERTEX
  5
244BD
  8
1PHANTOM
 10
638.885423107097
 20
-558.723024200967
 30
0.0
  0
VERTEX
  5
244BE
  8
1PHANTOM
 10
638.8872087549814
 20
-558.7224386577152
 30
0.0
  0
VERTEX
  5
244BF
  8
1PHANTOM
 10
638.8889928853683
 20
-558.7218517967337
 30
0.0
  0
VERTEX
  5
244C0
  8
1PHANTOM
 10
638.890775578126
 20
-558.721263687377
 30
0.0
  0
VERTEX
  5
244C1
  8
1PHANTOM
 10
638.8925569131226
 20
-558.720674398999
 30
0.0
  0
VERTEX
  5
244C2
  8
1PHANTOM
 10
638.8943369702266
 20
-558.7200840009539
 30
0.0
  0
VERTEX
  5
244C3
  8
1PHANTOM
 10
638.8961158293063
 20
-558.719492562596
 30
0.0
  0
VERTEX
  5
244C4
  8
1PHANTOM
 10
638.8978935702299
 20
-558.7189001532794
 30
0.0
  0
VERTEX
  5
244C5
  8
1PHANTOM
 10
638.8996702728657
 20
-558.7183068423584
 30
0.0
  0
VERTEX
  5
244C6
  8
1PHANTOM
 10
638.9014460170821
 20
-558.717712699187
 30
0.0
  0
VERTEX
  5
244C7
  8
1PHANTOM
 10
638.9032208827472
 20
-558.7171177931197
 30
0.0
  0
VERTEX
  5
244C8
  8
1PHANTOM
 10
638.9049949497295
 20
-558.7165221935105
 30
0.0
  0
VERTEX
  5
244C9
  8
1PHANTOM
 10
638.9067682978971
 20
-558.7159259697133
 30
0.0
  0
VERTEX
  5
244CA
  8
1PHANTOM
 10
638.9085410071184
 20
-558.7153291910829
 30
0.0
  0
VERTEX
  5
244CB
  8
1PHANTOM
 10
638.9103131572617
 20
-558.7147319269731
 30
0.0
  0
VERTEX
  5
244CC
  8
1PHANTOM
 10
638.9120848281952
 20
-558.714134246738
 30
0.0
  0
VERTEX
  5
244CD
  8
1PHANTOM
 10
638.9138560997874
 20
-558.7135362197322
 30
0.0
  0
VERTEX
  5
244CE
  8
1PHANTOM
 10
638.9156270519063
 20
-558.7129379153095
 30
0.0
  0
VERTEX
  5
244CF
  8
1PHANTOM
 10
638.9173977644203
 20
-558.7123394028242
 30
0.0
  0
VERTEX
  5
244D0
  8
1PHANTOM
 10
638.9191683171978
 20
-558.7117407516305
 30
0.0
  0
VERTEX
  5
244D1
  8
1PHANTOM
 10
638.9209387901069
 20
-558.7111420310827
 30
0.0
  0
SEQEND
  5
24C0E
  8
1PHANTOM
  0
LINE
  5
23A87
  8
1PHANTOM
 10
640.2662365966396
 20
-535.8213303512664
 30
0.0
 11
640.2662365966396
 21
-537.8213303512664
 31
0.0
  0
LINE
  5
23A89
  8
1PHANTOM
 10
623.1662365966675
 20
-537.8213303512664
 30
0.0
 11
623.1662365966675
 21
-535.8213303512664
 31
0.0
  0
POLYLINE
  5
23A8B
  8
1PHANTOM
 66
     1
 10
0.0
 20
0.0
 30
0.0
  0
VERTEX
  5
244D2
  8
1PHANTOM
 10
640.2662365966395
 20
-537.8213303512664
 30
0.0
  0
VERTEX
  5
244D3
  8
1PHANTOM
 10
640.2660367291192
 20
-537.8410559874649
 30
0.0
  0
VERTEX
  5
244D4
  8
1PHANTOM
 10
640.265433165322
 20
-537.8609400329233
 30
0.0
  0
VERTEX
  5
244D5
  8
1PHANTOM
 10
640.2644199633935
 20
-537.8809687580352
 30
0.0
  0
VERTEX
  5
244D6
  8
1PHANTOM
 10
640.2629911814793
 20
-537.9011284331945
 30
0.0
  0
VERTEX
  5
244D7
  8
1PHANTOM
 10
640.2611408777249
 20
-537.9214053287948
 30
0.0
  0
VERTEX
  5
244D8
  8
1PHANTOM
 10
640.2588631102759
 20
-537.9417857152295
 30
0.0
  0
VERTEX
  5
244D9
  8
1PHANTOM
 10
640.2561519372779
 20
-537.9622558628924
 30
0.0
  0
VERTEX
  5
244DA
  8
1PHANTOM
 10
640.2530014168766
 20
-537.9828020421772
 30
0.0
  0
VERTEX
  5
244DB
  8
1PHANTOM
 10
640.2494056072172
 20
-538.0034105234777
 30
0.0
  0
VERTEX
  5
244DC
  8
1PHANTOM
 10
640.2453585664458
 20
-538.024067577187
 30
0.0
  0
VERTEX
  5
244DD
  8
1PHANTOM
 10
640.2408543527077
 20
-538.0447594736992
 30
0.0
  0
VERTEX
  5
244DE
  8
1PHANTOM
 10
640.2358870241484
 20
-538.0654724834078
 30
0.0
  0
VERTEX
  5
244DF
  8
1PHANTOM
 10
640.2304506389136
 20
-538.0861928767064
 30
0.0
  0
VERTEX
  5
244E0
  8
1PHANTOM
 10
640.2245392551489
 20
-538.1069069239888
 30
0.0
  0
VERTEX
  5
244E1
  8
1PHANTOM
 10
640.2181469309996
 20
-538.1276008956486
 30
0.0
  0
VERTEX
  5
244E2
  8
1PHANTOM
 10
640.2112677246118
 20
-538.1482610620793
 30
0.0
  0
VERTEX
  5
244E3
  8
1PHANTOM
 10
640.2038956941308
 20
-538.1688736936746
 30
0.0
  0
VERTEX
  5
244E4
  8
1PHANTOM
 10
640.196024897702
 20
-538.1894250608283
 30
0.0
  0
VERTEX
  5
244E5
  8
1PHANTOM
 10
640.1876484006613
 20
-538.2098939392555
 30
0.0
  0
VERTEX
  5
244E6
  8
1PHANTOM
 10
640.1787675306373
 20
-538.2302573934946
 30
0.0
  0
VERTEX
  5
244E7
  8
1PHANTOM
 10
640.1693887392147
 20
-538.2504991271743
 30
0.0
  0
VERTEX
  5
244E8
  8
1PHANTOM
 10
640.1595184779787
 20
-538.2706028439223
 30
0.0
  0
VERTEX
  5
244E9
  8
1PHANTOM
 10
640.1491631985141
 20
-538.2905522473674
 30
0.0
  0
VERTEX
  5
244EA
  8
1PHANTOM
 10
640.138329352406
 20
-538.3103310411376
 30
0.0
  0
VERTEX
  5
244EB
  8
1PHANTOM
 10
640.127023391239
 20
-538.3299229288615
 30
0.0
  0
VERTEX
  5
244EC
  8
1PHANTOM
 10
640.1152517665986
 20
-538.3493116141672
 30
0.0
  0
VERTEX
  5
244ED
  8
1PHANTOM
 10
640.1030209300692
 20
-538.368480800683
 30
0.0
  0
VERTEX
  5
244EE
  8
1PHANTOM
 10
640.0903373332361
 20
-538.3874141920371
 30
0.0
  0
VERTEX
  5
244EF
  8
1PHANTOM
 10
640.077207427684
 20
-538.4060954918582
 30
0.0
  0
VERTEX
  5
244F0
  8
1PHANTOM
 10
640.063637664998
 20
-538.4245084037743
 30
0.0
  0
VERTEX
  5
244F1
  8
1PHANTOM
 10
640.049634496763
 20
-538.4426366314138
 30
0.0
  0
VERTEX
  5
244F2
  8
1PHANTOM
 10
640.035204374564
 20
-538.460463878405
 30
0.0
  0
VERTEX
  5
244F3
  8
1PHANTOM
 10
640.0203537499858
 20
-538.4779738483762
 30
0.0
  0
VERTEX
  5
244F4
  8
1PHANTOM
 10
640.0050890746136
 20
-538.4951502449558
 30
0.0
  0
VERTEX
  5
244F5
  8
1PHANTOM
 10
639.9894168000319
 20
-538.5119767717719
 30
0.0
  0
VERTEX
  5
244F6
  8
1PHANTOM
 10
639.9733433778262
 20
-538.528437132453
 30
0.0
  0
VERTEX
  5
244F7
  8
1PHANTOM
 10
639.9568830171451
 20
-538.5445105546587
 30
0.0
  0
VERTEX
  5
244F8
  8
1PHANTOM
 10
639.940056490329
 20
-538.5601828292404
 30
0.0
  0
VERTEX
  5
244F9
  8
1PHANTOM
 10
639.9228800937494
 20
-538.5754475046126
 30
0.0
  0
VERTEX
  5
244FA
  8
1PHANTOM
 10
639.9053701237782
 20
-538.5902981291908
 30
0.0
  0
VERTEX
  5
244FB
  8
1PHANTOM
 10
639.887542876787
 20
-538.6047282513898
 30
0.0
  0
VERTEX
  5
244FC
  8
1PHANTOM
 10
639.8694146491475
 20
-538.6187314196249
 30
0.0
  0
VERTEX
  5
244FD
  8
1PHANTOM
 10
639.8510017372314
 20
-538.6323011823108
 30
0.0
  0
VERTEX
  5
244FE
  8
1PHANTOM
 10
639.8323204374103
 20
-538.6454310878629
 30
0.0
  0
VERTEX
  5
244FF
  8
1PHANTOM
 10
639.8133870460562
 20
-538.658114684696
 30
0.0
  0
VERTEX
  5
24500
  8
1PHANTOM
 10
639.7942178595404
 20
-538.6703455212254
 30
0.0
  0
VERTEX
  5
24501
  8
1PHANTOM
 10
639.7748291742347
 20
-538.6821171458658
 30
0.0
  0
VERTEX
  5
24502
  8
1PHANTOM
 10
639.7552372865108
 20
-538.6934231070328
 30
0.0
  0
VERTEX
  5
24503
  8
1PHANTOM
 10
639.7354584927406
 20
-538.7042569531409
 30
0.0
  0
VERTEX
  5
24504
  8
1PHANTOM
 10
639.7155090892956
 20
-538.7146122326055
 30
0.0
  0
VERTEX
  5
24505
  8
1PHANTOM
 10
639.6954053725475
 20
-538.7244824938415
 30
0.0
  0
VERTEX
  5
24506
  8
1PHANTOM
 10
639.6751636388678
 20
-538.7338612852641
 30
0.0
  0
VERTEX
  5
24507
  8
1PHANTOM
 10
639.6548001846287
 20
-538.742742155288
 30
0.0
  0
VERTEX
  5
24508
  8
1PHANTOM
 10
639.6343313062015
 20
-538.7511186523288
 30
0.0
  0
VERTEX
  5
24509
  8
1PHANTOM
 10
639.6137799390478
 20
-538.7589894487576
 30
0.0
  0
VERTEX
  5
2450A
  8
1PHANTOM
 10
639.5931673074525
 20
-538.7663614792386
 30
0.0
  0
VERTEX
  5
2450B
  8
1PHANTOM
 10
639.5725071410218
 20
-538.7732406856264
 30
0.0
  0
VERTEX
  5
2450C
  8
1PHANTOM
 10
639.551813169362
 20
-538.7796330097757
 30
0.0
  0
VERTEX
  5
2450D
  8
1PHANTOM
 10
639.5310991220796
 20
-538.7855443935404
 30
0.0
  0
VERTEX
  5
2450E
  8
1PHANTOM
 10
639.510378728781
 20
-538.7909807787752
 30
0.0
  0
VERTEX
  5
2450F
  8
1PHANTOM
 10
639.4896657190724
 20
-538.7959481073345
 30
0.0
  0
VERTEX
  5
24510
  8
1PHANTOM
 10
639.4689738225602
 20
-538.8004523210726
 30
0.0
  0
VERTEX
  5
24511
  8
1PHANTOM
 10
639.4483167688509
 20
-538.804499361844
 30
0.0
  0
VERTEX
  5
24512
  8
1PHANTOM
 10
639.4277082875504
 20
-538.8080951715034
 30
0.0
  0
VERTEX
  5
24513
  8
1PHANTOM
 10
639.4071621082657
 20
-538.8112456919048
 30
0.0
  0
VERTEX
  5
24514
  8
1PHANTOM
 10
639.3866919606027
 20
-538.8139568649028
 30
0.0
  0
VERTEX
  5
24515
  8
1PHANTOM
 10
639.366311574168
 20
-538.8162346323518
 30
0.0
  0
VERTEX
  5
24516
  8
1PHANTOM
 10
639.3460346785677
 20
-538.8180849361062
 30
0.0
  0
VERTEX
  5
24517
  8
1PHANTOM
 10
639.3258750034084
 20
-538.8195137180204
 30
0.0
  0
VERTEX
  5
24518
  8
1PHANTOM
 10
639.3058462782965
 20
-538.8205269199489
 30
0.0
  0
VERTEX
  5
24519
  8
1PHANTOM
 10
639.2859622328381
 20
-538.8211304837461
 30
0.0
  0
VERTEX
  5
2451A
  8
1PHANTOM
 10
639.2662365966396
 20
-538.8213303512664
 30
0.0
  0
SEQEND
  5
24C0F
  8
1PHANTOM
  0
POLYLINE
  5
23A8C
  8
1PHANTOM
 66
     1
 10
0.0
 20
0.0
 30
0.0
  0
VERTEX
  5
2451B
  8
1PHANTOM
 10
624.1662365966677
 20
-538.8213303512664
 30
0.0
  0
VERTEX
  5
2451C
  8
1PHANTOM
 10
624.1465109604692
 20
-538.8211304837461
 30
0.0
  0
VERTEX
  5
2451D
  8
1PHANTOM
 10
624.1266269150108
 20
-538.8205269199489
 30
0.0
  0
VERTEX
  5
2451E
  8
1PHANTOM
 10
624.1065981898988
 20
-538.8195137180204
 30
0.0
  0
VERTEX
  5
2451F
  8
1PHANTOM
 10
624.0864385147396
 20
-538.8180849361062
 30
0.0
  0
VERTEX
  5
24520
  8
1PHANTOM
 10
624.0661616191394
 20
-538.8162346323518
 30
0.0
  0
VERTEX
  5
24521
  8
1PHANTOM
 10
624.0457812327046
 20
-538.8139568649028
 30
0.0
  0
VERTEX
  5
24522
  8
1PHANTOM
 10
624.0253110850416
 20
-538.8112456919048
 30
0.0
  0
VERTEX
  5
24523
  8
1PHANTOM
 10
624.0047649057568
 20
-538.8080951715034
 30
0.0
  0
VERTEX
  5
24524
  8
1PHANTOM
 10
623.9841564244565
 20
-538.804499361844
 30
0.0
  0
VERTEX
  5
24525
  8
1PHANTOM
 10
623.9634993707471
 20
-538.8004523210726
 30
0.0
  0
VERTEX
  5
24526
  8
1PHANTOM
 10
623.9428074742349
 20
-538.7959481073345
 30
0.0
  0
VERTEX
  5
24527
  8
1PHANTOM
 10
623.9220944645263
 20
-538.7909807787752
 30
0.0
  0
VERTEX
  5
24528
  8
1PHANTOM
 10
623.9013740712277
 20
-538.7855443935404
 30
0.0
  0
VERTEX
  5
24529
  8
1PHANTOM
 10
623.8806600239452
 20
-538.7796330097757
 30
0.0
  0
VERTEX
  5
2452A
  8
1PHANTOM
 10
623.8599660522855
 20
-538.7732406856264
 30
0.0
  0
VERTEX
  5
2452B
  8
1PHANTOM
 10
623.8393058858549
 20
-538.7663614792386
 30
0.0
  0
VERTEX
  5
2452C
  8
1PHANTOM
 10
623.8186932542595
 20
-538.7589894487576
 30
0.0
  0
VERTEX
  5
2452D
  8
1PHANTOM
 10
623.7981418871059
 20
-538.7511186523288
 30
0.0
  0
VERTEX
  5
2452E
  8
1PHANTOM
 10
623.7776730086787
 20
-538.742742155288
 30
0.0
  0
VERTEX
  5
2452F
  8
1PHANTOM
 10
623.7573095544395
 20
-538.7338612852641
 30
0.0
  0
VERTEX
  5
24530
  8
1PHANTOM
 10
623.73706782076
 20
-538.7244824938415
 30
0.0
  0
VERTEX
  5
24531
  8
1PHANTOM
 10
623.7169641040119
 20
-538.7146122326055
 30
0.0
  0
VERTEX
  5
24532
  8
1PHANTOM
 10
623.6970147005668
 20
-538.7042569531409
 30
0.0
  0
VERTEX
  5
24533
  8
1PHANTOM
 10
623.6772359067966
 20
-538.6934231070328
 30
0.0
  0
VERTEX
  5
24534
  8
1PHANTOM
 10
623.6576440190727
 20
-538.6821171458658
 30
0.0
  0
VERTEX
  5
24535
  8
1PHANTOM
 10
623.6382553337671
 20
-538.6703455212254
 30
0.0
  0
VERTEX
  5
24536
  8
1PHANTOM
 10
623.6190861472512
 20
-538.658114684696
 30
0.0
  0
VERTEX
  5
24537
  8
1PHANTOM
 10
623.600152755897
 20
-538.6454310878629
 30
0.0
  0
VERTEX
  5
24538
  8
1PHANTOM
 10
623.5814714560759
 20
-538.6323011823108
 30
0.0
  0
VERTEX
  5
24539
  8
1PHANTOM
 10
623.5630585441598
 20
-538.6187314196249
 30
0.0
  0
VERTEX
  5
2453A
  8
1PHANTOM
 10
623.5449303165203
 20
-538.6047282513898
 30
0.0
  0
VERTEX
  5
2453B
  8
1PHANTOM
 10
623.5271030695291
 20
-538.5902981291908
 30
0.0
  0
VERTEX
  5
2453C
  8
1PHANTOM
 10
623.5095930995578
 20
-538.5754475046126
 30
0.0
  0
VERTEX
  5
2453D
  8
1PHANTOM
 10
623.4924167029784
 20
-538.5601828292404
 30
0.0
  0
VERTEX
  5
2453E
  8
1PHANTOM
 10
623.4755901761623
 20
-538.5445105546587
 30
0.0
  0
VERTEX
  5
2453F
  8
1PHANTOM
 10
623.4591298154811
 20
-538.528437132453
 30
0.0
  0
VERTEX
  5
24540
  8
1PHANTOM
 10
623.4430563932754
 20
-538.5119767717719
 30
0.0
  0
VERTEX
  5
24541
  8
1PHANTOM
 10
623.4273841186938
 20
-538.4951502449558
 30
0.0
  0
VERTEX
  5
24542
  8
1PHANTOM
 10
623.4121194433216
 20
-538.4779738483762
 30
0.0
  0
VERTEX
  5
24543
  8
1PHANTOM
 10
623.3972688187433
 20
-538.460463878405
 30
0.0
  0
VERTEX
  5
24544
  8
1PHANTOM
 10
623.3828386965442
 20
-538.4426366314138
 30
0.0
  0
VERTEX
  5
24545
  8
1PHANTOM
 10
623.3688355283093
 20
-538.4245084037743
 30
0.0
  0
VERTEX
  5
24546
  8
1PHANTOM
 10
623.3552657656234
 20
-538.4060954918582
 30
0.0
  0
VERTEX
  5
24547
  8
1PHANTOM
 10
623.3421358600713
 20
-538.3874141920371
 30
0.0
  0
VERTEX
  5
24548
  8
1PHANTOM
 10
623.3294522632382
 20
-538.368480800683
 30
0.0
  0
VERTEX
  5
24549
  8
1PHANTOM
 10
623.3172214267088
 20
-538.3493116141672
 30
0.0
  0
VERTEX
  5
2454A
  8
1PHANTOM
 10
623.3054498020683
 20
-538.3299229288615
 30
0.0
  0
VERTEX
  5
2454B
  8
1PHANTOM
 10
623.2941438409014
 20
-538.3103310411376
 30
0.0
  0
VERTEX
  5
2454C
  8
1PHANTOM
 10
623.2833099947932
 20
-538.2905522473674
 30
0.0
  0
VERTEX
  5
2454D
  8
1PHANTOM
 10
623.2729547153286
 20
-538.2706028439223
 30
0.0
  0
VERTEX
  5
2454E
  8
1PHANTOM
 10
623.2630844540927
 20
-538.2504991271743
 30
0.0
  0
VERTEX
  5
2454F
  8
1PHANTOM
 10
623.2537056626701
 20
-538.2302573934946
 30
0.0
  0
VERTEX
  5
24550
  8
1PHANTOM
 10
623.244824792646
 20
-538.2098939392555
 30
0.0
  0
VERTEX
  5
24551
  8
1PHANTOM
 10
623.2364482956053
 20
-538.1894250608283
 30
0.0
  0
VERTEX
  5
24552
  8
1PHANTOM
 10
623.2285774991766
 20
-538.1688736936746
 30
0.0
  0
VERTEX
  5
24553
  8
1PHANTOM
 10
623.2212054686954
 20
-538.1482610620793
 30
0.0
  0
VERTEX
  5
24554
  8
1PHANTOM
 10
623.2143262623076
 20
-538.1276008956486
 30
0.0
  0
VERTEX
  5
24555
  8
1PHANTOM
 10
623.2079339381585
 20
-538.1069069239888
 30
0.0
  0
VERTEX
  5
24556
  8
1PHANTOM
 10
623.2020225543937
 20
-538.0861928767064
 30
0.0
  0
VERTEX
  5
24557
  8
1PHANTOM
 10
623.1965861691589
 20
-538.0654724834078
 30
0.0
  0
VERTEX
  5
24558
  8
1PHANTOM
 10
623.1916188405995
 20
-538.0447594736992
 30
0.0
  0
VERTEX
  5
24559
  8
1PHANTOM
 10
623.1871146268614
 20
-538.024067577187
 30
0.0
  0
VERTEX
  5
2455A
  8
1PHANTOM
 10
623.18306758609
 20
-538.0034105234777
 30
0.0
  0
VERTEX
  5
2455B
  8
1PHANTOM
 10
623.1794717764307
 20
-537.9828020421772
 30
0.0
  0
VERTEX
  5
2455C
  8
1PHANTOM
 10
623.1763212560293
 20
-537.9622558628924
 30
0.0
  0
VERTEX
  5
2455D
  8
1PHANTOM
 10
623.1736100830312
 20
-537.9417857152295
 30
0.0
  0
VERTEX
  5
2455E
  8
1PHANTOM
 10
623.1713323155823
 20
-537.9214053287948
 30
0.0
  0
VERTEX
  5
2455F
  8
1PHANTOM
 10
623.1694820118279
 20
-537.9011284331945
 30
0.0
  0
VERTEX
  5
24560
  8
1PHANTOM
 10
623.1680532299135
 20
-537.8809687580352
 30
0.0
  0
VERTEX
  5
24561
  8
1PHANTOM
 10
623.1670400279851
 20
-537.8609400329233
 30
0.0
  0
VERTEX
  5
24562
  8
1PHANTOM
 10
623.1664364641879
 20
-537.8410559874649
 30
0.0
  0
VERTEX
  5
24563
  8
1PHANTOM
 10
623.1662365966675
 20
-537.8213303512664
 30
0.0
  0
SEQEND
  5
24C10
  8
1PHANTOM
  0
LINE
  5
23A92
  8
1PHANTOM
 10
638.2662365966396
 20
-558.8213303512664
 30
0.0
 11
625.1662365966675
 21
-558.8213303512664
 31
0.0
  0
LINE
  5
23A93
  8
1PHANTOM
 10
640.2662365966395
 20
-537.8213303512664
 30
0.0
 11
640.2662365966396
 21
-556.8213303512664
 31
0.0
  0
LINE
  5
23A94
  8
1PHANTOM
 10
623.1662365966675
 20
-556.8213303512664
 30
0.0
 11
623.1662365966675
 21
-537.8213303512664
 31
0.0
  0
POLYLINE
  5
23A95
  8
1PHANTOM
 66
     1
 10
0.0
 20
0.0
 30
0.0
  0
VERTEX
  5
24564
  8
1PHANTOM
 10
625.1662365966675
 20
-558.8213303512664
 30
0.0
  0
VERTEX
  5
24565
  8
1PHANTOM
 10
625.1396784491784
 20
-558.8208771643029
 30
0.0
  0
VERTEX
  5
24566
  8
1PHANTOM
 10
625.1131236366181
 20
-558.820319958514
 30
0.0
  0
VERTEX
  5
24567
  8
1PHANTOM
 10
625.0865754939153
 20
-558.8195547150737
 30
0.0
  0
VERTEX
  5
24568
  8
1PHANTOM
 10
625.060037355999
 20
-558.8184774151566
 30
0.0
  0
VERTEX
  5
24569
  8
1PHANTOM
 10
625.033512622843
 20
-558.8169935363211
 30
0.0
  0
VERTEX
  5
2456A
  8
1PHANTOM
 10
625.0070052300437
 20
-558.8150867551578
 30
0.0
  0
VERTEX
  5
2456B
  8
1PHANTOM
 10
624.9805193765657
 20
-558.8127791991883
 30
0.0
  0
VERTEX
  5
2456C
  8
1PHANTOM
 10
624.9540592632062
 20
-558.8100932633955
 30
0.0
  0
VERTEX
  5
2456D
  8
1PHANTOM
 10
624.9276290907619
 20
-558.8070513427621
 30
0.0
  0
VERTEX
  5
2456E
  8
1PHANTOM
 10
624.9012329180382
 20
-558.80367298095
 30
0.0
  0
VERTEX
  5
2456F
  8
1PHANTOM
 10
624.8748739208073
 20
-558.7999599895129
 30
0.0
  0
VERTEX
  5
24570
  8
1PHANTOM
 10
624.8485549359227
 20
-558.795907374207
 30
0.0
  0
VERTEX
  5
24571
  8
1PHANTOM
 10
624.8222787995396
 20
-558.7915101267693
 30
0.0
  0
VERTEX
  5
24572
  8
1PHANTOM
 10
624.7960483478137
 20
-558.7867632389367
 30
0.0
  0
VERTEX
  5
24573
  8
1PHANTOM
 10
624.7698664233076
 20
-558.7816617173551
 30
0.0
  0
VERTEX
  5
24574
  8
1PHANTOM
 10
624.7437367640787
 20
-558.776202652329
 30
0.0
  0
VERTEX
  5
24575
  8
1PHANTOM
 10
624.7176649160992
 20
-558.7703873408593
 30
0.0
  0
VERTEX
  5
24576
  8
1PHANTOM
 10
624.6916566429835
 20
-558.7642175863626
 30
0.0
  0
VERTEX
  5
24577
  8
1PHANTOM
 10
624.6657177083459
 20
-558.7576951922559
 30
0.0
  0
VERTEX
  5
24578
  8
1PHANTOM
 10
624.6398538758008
 20
-558.7508219619559
 30
0.0
  0
VERTEX
  5
24579
  8
1PHANTOM
 10
624.6140709089625
 20
-558.7435996988793
 30
0.0
  0
VERTEX
  5
2457A
  8
1PHANTOM
 10
624.5883745714456
 20
-558.7360302064427
 30
0.0
  0
VERTEX
  5
2457B
  8
1PHANTOM
 10
624.5627700270659
 20
-558.7281148989717
 30
0.0
  0
VERTEX
  5
2457C
  8
1PHANTOM
 10
624.5372599234795
 20
-558.7198535585508
 30
0.0
  0
VERTEX
  5
2457D
  8
1PHANTOM
 10
624.5118462486502
 20
-558.7112455393195
 30
0.0
  0
VERTEX
  5
2457E
  8
1PHANTOM
 10
624.486530990539
 20
-558.7022901954156
 30
0.0
  0
VERTEX
  5
2457F
  8
1PHANTOM
 10
624.4613161371069
 20
-558.6929868809772
 30
0.0
  0
VERTEX
  5
24580
  8
1PHANTOM
 10
624.4362036763149
 20
-558.6833349501421
 30
0.0
  0
VERTEX
  5
24581
  8
1PHANTOM
 10
624.4111955961242
 20
-558.6733337570485
 30
0.0
  0
VERTEX
  5
24582
  8
1PHANTOM
 10
624.3862939862734
 20
-558.6629827147121
 30
0.0
  0
VERTEX
  5
24583
  8
1PHANTOM
 10
624.3615025480723
 20
-558.6522821684421
 30
0.0
  0
VERTEX
  5
24584
  8
1PHANTOM
 10
624.3368262704007
 20
-558.6412332084049
 30
0.0
  0
VERTEX
  5
24585
  8
1PHANTOM
 10
624.3122701780898
 20
-558.6298369455653
 30
0.0
  0
VERTEX
  5
24586
  8
1PHANTOM
 10
624.287839295971
 20
-558.6180944908881
 30
0.0
  0
VERTEX
  5
24587
  8
1PHANTOM
 10
624.2635386488759
 20
-558.6060069553382
 30
0.0
  0
VERTEX
  5
24588
  8
1PHANTOM
 10
624.2393732616358
 20
-558.5935754498801
 30
0.0
  0
VERTEX
  5
24589
  8
1PHANTOM
 10
624.2153481590822
 20
-558.5808010854787
 30
0.0
  0
VERTEX
  5
2458A
  8
1PHANTOM
 10
624.1914683660465
 20
-558.5676849730988
 30
0.0
  0
VERTEX
  5
2458B
  8
1PHANTOM
 10
624.1677389073602
 20
-558.5542282237052
 30
0.0
  0
VERTEX
  5
2458C
  8
1PHANTOM
 10
624.1441648078547
 20
-558.5404319482626
 30
0.0
  0
VERTEX
  5
2458D
  8
1PHANTOM
 10
624.1207510923613
 20
-558.5262972577358
 30
0.0
  0
VERTEX
  5
2458E
  8
1PHANTOM
 10
624.0975027857115
 20
-558.5118252630896
 30
0.0
  0
VERTEX
  5
2458F
  8
1PHANTOM
 10
624.074424912737
 20
-558.4970170752887
 30
0.0
  0
VERTEX
  5
24590
  8
1PHANTOM
 10
624.0515224982687
 20
-558.4818738052979
 30
0.0
  0
VERTEX
  5
24591
  8
1PHANTOM
 10
624.0288005647557
 20
-558.4663965671873
 30
0.0
  0
VERTEX
  5
24592
  8
1PHANTOM
 10
624.0062639954169
 20
-558.4505866564739
 30
0.0
  0
VERTEX
  5
24593
  8
1PHANTOM
 10
623.983917459788
 20
-558.4344456471516
 30
0.0
  0
VERTEX
  5
24594
  8
1PHANTOM
 10
623.9617656092687
 20
-558.4179751368498
 30
0.0
  0
VERTEX
  5
24595
  8
1PHANTOM
 10
623.939813095259
 20
-558.4011767231972
 30
0.0
  0
VERTEX
  5
24596
  8
1PHANTOM
 10
623.9180645691584
 20
-558.3840520038226
 30
0.0
  0
VERTEX
  5
24597
  8
1PHANTOM
 10
623.8965246823672
 20
-558.3666025763551
 30
0.0
  0
VERTEX
  5
24598
  8
1PHANTOM
 10
623.8751980862851
 20
-558.3488300384236
 30
0.0
  0
VERTEX
  5
24599
  8
1PHANTOM
 10
623.8540894323119
 20
-558.330735987657
 30
0.0
  0
VERTEX
  5
2459A
  8
1PHANTOM
 10
623.8332033718476
 20
-558.3123220216842
 30
0.0
  0
VERTEX
  5
2459B
  8
1PHANTOM
 10
623.8125445562921
 20
-558.2935897381341
 30
0.0
  0
VERTEX
  5
2459C
  8
1PHANTOM
 10
623.7921176370451
 20
-558.2745407346356
 30
0.0
  0
VERTEX
  5
2459D
  8
1PHANTOM
 10
623.7719272655065
 20
-558.2551766088178
 30
0.0
  0
VERTEX
  5
2459E
  8
1PHANTOM
 10
623.7519780930763
 20
-558.2354989583096
 30
0.0
  0
VERTEX
  5
2459F
  8
1PHANTOM
 10
623.7322748492015
 20
-558.2155096685623
 30
0.0
  0
VERTEX
  5
245A0
  8
1PHANTOM
 10
623.7128225734032
 20
-558.1952117685153
 30
0.0
  0
VERTEX
  5
245A1
  8
1PHANTOM
 10
623.6936263821952
 20
-558.1746085710425
 30
0.0
  0
VERTEX
  5
245A2
  8
1PHANTOM
 10
623.6746913920919
 20
-558.1537033890183
 30
0.0
  0
VERTEX
  5
245A3
  8
1PHANTOM
 10
623.6560227196069
 20
-558.1324995353166
 30
0.0
  0
VERTEX
  5
245A4
  8
1PHANTOM
 10
623.6376254812544
 20
-558.1110003228114
 30
0.0
  0
VERTEX
  5
245A5
  8
1PHANTOM
 10
623.6195047935486
 20
-558.0892090643769
 30
0.0
  0
VERTEX
  5
245A6
  8
1PHANTOM
 10
623.6016657730031
 20
-558.0671290728869
 30
0.0
  0
VERTEX
  5
245A7
  8
1PHANTOM
 10
623.5841135361323
 20
-558.0447636612157
 30
0.0
  0
VERTEX
  5
245A8
  8
1PHANTOM
 10
623.5668531994501
 20
-558.0221161422372
 30
0.0
  0
VERTEX
  5
245A9
  8
1PHANTOM
 10
623.5498898794704
 20
-557.9991898288256
 30
0.0
  0
VERTEX
  5
245AA
  8
1PHANTOM
 10
623.5332286927073
 20
-557.9759880338547
 30
0.0
  0
VERTEX
  5
245AB
  8
1PHANTOM
 10
623.5168747556748
 20
-557.952514070199
 30
0.0
  0
VERTEX
  5
245AC
  8
1PHANTOM
 10
623.500833184887
 20
-557.9287712507321
 30
0.0
  0
VERTEX
  5
245AD
  8
1PHANTOM
 10
623.4851091084282
 20
-557.9047630093894
 30
0.0
  0
VERTEX
  5
245AE
  8
1PHANTOM
 10
623.46970776302
 20
-557.8804939167861
 30
0.0
  0
VERTEX
  5
245AF
  8
1PHANTOM
 10
623.4546344448709
 20
-557.8559691659556
 30
0.0
  0
VERTEX
  5
245B0
  8
1PHANTOM
 10
623.4398944507977
 20
-557.8311939562934
 30
0.0
  0
VERTEX
  5
245B1
  8
1PHANTOM
 10
623.4254930776174
 20
-557.8061734871958
 30
0.0
  0
VERTEX
  5
245B2
  8
1PHANTOM
 10
623.4114356221464
 20
-557.7809129580584
 30
0.0
  0
VERTEX
  5
245B3
  8
1PHANTOM
 10
623.3977273812018
 20
-557.755417568277
 30
0.0
  0
VERTEX
  5
245B4
  8
1PHANTOM
 10
623.3843736516001
 20
-557.7296925172477
 30
0.0
  0
VERTEX
  5
245B5
  8
1PHANTOM
 10
623.3713797301583
 20
-557.7037430043661
 30
0.0
  0
VERTEX
  5
245B6
  8
1PHANTOM
 10
623.3587509136929
 20
-557.6775742290281
 30
0.0
  0
VERTEX
  5
245B7
  8
1PHANTOM
 10
623.3464924990208
 20
-557.6511913906295
 30
0.0
  0
VERTEX
  5
245B8
  8
1PHANTOM
 10
623.3346097829586
 20
-557.6245996885661
 30
0.0
  0
VERTEX
  5
245B9
  8
1PHANTOM
 10
623.3231080623234
 20
-557.5978043222341
 30
0.0
  0
VERTEX
  5
245BA
  8
1PHANTOM
 10
623.3119924344646
 20
-557.5708105327371
 30
0.0
  0
VERTEX
  5
245BB
  8
1PHANTOM
 10
623.3012648611241
 20
-557.5436242168264
 30
0.0
  0
VERTEX
  5
245BC
  8
1PHANTOM
 10
623.2909248106134
 20
-557.5162517926236
 30
0.0
  0
VERTEX
  5
245BD
  8
1PHANTOM
 10
623.2809716823315
 20
-557.4886996926595
 30
0.0
  0
VERTEX
  5
245BE
  8
1PHANTOM
 10
623.2714048756768
 20
-557.4609743494649
 30
0.0
  0
VERTEX
  5
245BF
  8
1PHANTOM
 10
623.2622237900481
 20
-557.4330821955707
 30
0.0
  0
VERTEX
  5
245C0
  8
1PHANTOM
 10
623.2534278248438
 20
-557.4050296635078
 30
0.0
  0
VERTEX
  5
245C1
  8
1PHANTOM
 10
623.2450163794628
 20
-557.3768231858069
 30
0.0
  0
VERTEX
  5
245C2
  8
1PHANTOM
 10
623.2369888533033
 20
-557.3484691949989
 30
0.0
  0
VERTEX
  5
245C3
  8
1PHANTOM
 10
623.2293452246734
 20
-557.3199741583236
 30
0.0
  0
VERTEX
  5
245C4
  8
1PHANTOM
 10
623.2220956534578
 20
-557.291345153463
 30
0.0
  0
VERTEX
  5
245C5
  8
1PHANTOM
 10
623.2152589952555
 20
-557.262589779455
 30
0.0
  0
VERTEX
  5
245C6
  8
1PHANTOM
 10
623.2088543850813
 20
-557.2337156520906
 30
0.0
  0
VERTEX
  5
245C7
  8
1PHANTOM
 10
623.20290095795
 20
-557.2047303871606
 30
0.0
  0
VERTEX
  5
245C8
  8
1PHANTOM
 10
623.1974178488766
 20
-557.1756416004558
 30
0.0
  0
VERTEX
  5
245C9
  8
1PHANTOM
 10
623.1924241928759
 20
-557.146456907767
 30
0.0
  0
VERTEX
  5
245CA
  8
1PHANTOM
 10
623.187939124963
 20
-557.117183924885
 30
0.0
  0
VERTEX
  5
245CB
  8
1PHANTOM
 10
623.1839817801524
 20
-557.0878302676006
 30
0.0
  0
VERTEX
  5
245CC
  8
1PHANTOM
 10
623.180566912089
 20
-557.0584035792241
 30
0.0
  0
VERTEX
  5
245CD
  8
1PHANTOM
 10
623.177661097791
 20
-557.0289118056626
 30
0.0
  0
VERTEX
  5
245CE
  8
1PHANTOM
 10
623.1752010934412
 20
-556.9993630801278
 30
0.0
  0
VERTEX
  5
245CF
  8
1PHANTOM
 10
623.173123211904
 20
-556.9697655386159
 30
0.0
  0
VERTEX
  5
245D0
  8
1PHANTOM
 10
623.171363766044
 20
-556.940127317123
 30
0.0
  0
VERTEX
  5
245D1
  8
1PHANTOM
 10
623.1698590687258
 20
-556.9104565516456
 30
0.0
  0
VERTEX
  5
245D2
  8
1PHANTOM
 10
623.1685454328141
 20
-556.8807613781794
 30
0.0
  0
VERTEX
  5
245D3
  8
1PHANTOM
 10
623.1673591711731
 20
-556.851049932721
 30
0.0
  0
VERTEX
  5
245D4
  8
1PHANTOM
 10
623.1662365966675
 20
-556.8213303512664
 30
0.0
  0
SEQEND
  5
24C11
  8
1PHANTOM
  0
POLYLINE
  5
23A96
  8
1PHANTOM
 66
     1
 10
0.0
 20
0.0
 30
0.0
  0
VERTEX
  5
245D5
  8
1PHANTOM
 10
640.2662365966395
 20
-556.8213303512664
 30
0.0
  0
VERTEX
  5
245D6
  8
1PHANTOM
 10
640.2657403660165
 20
-556.8473227232168
 30
0.0
  0
VERTEX
  5
245D7
  8
1PHANTOM
 10
640.2651576322529
 20
-556.8733095721635
 30
0.0
  0
VERTEX
  5
245D8
  8
1PHANTOM
 10
640.2644018922081
 20
-556.8992853751027
 30
0.0
  0
VERTEX
  5
245D9
  8
1PHANTOM
 10
640.2633866427414
 20
-556.9252446090312
 30
0.0
  0
VERTEX
  5
245DA
  8
1PHANTOM
 10
640.2620253864056
 20
-556.9511817509552
 30
0.0
  0
VERTEX
  5
245DB
  8
1PHANTOM
 10
640.260253949389
 20
-556.977091317704
 30
0.0
  0
VERTEX
  5
245DC
  8
1PHANTOM
 10
640.2580811108745
 20
-557.0029679562472
 30
0.0
  0
VERTEX
  5
245DD
  8
1PHANTOM
 10
640.2555305286446
 20
-557.0288063400958
 30
0.0
  0
VERTEX
  5
245DE
  8
1PHANTOM
 10
640.2526258604812
 20
-557.0546011427614
 30
0.0
  0
VERTEX
  5
245DF
  8
1PHANTOM
 10
640.2493907623193
 20
-557.0803470377656
 30
0.0
  0
VERTEX
  5
245E0
  8
1PHANTOM
 10
640.2458430670458
 20
-557.1060387326544
 30
0.0
  0
VERTEX
  5
245E1
  8
1PHANTOM
 10
640.2419818835623
 20
-557.1316710443759
 30
0.0
  0
VERTEX
  5
245E2
  8
1PHANTOM
 10
640.2378025647503
 20
-557.1572388118248
 30
0.0
  0
VERTEX
  5
245E3
  8
1PHANTOM
 10
640.2333004634914
 20
-557.1827368738955
 30
0.0
  0
VERTEX
  5
245E4
  8
1PHANTOM
 10
640.2284709326822
 20
-557.208160069483
 30
0.0
  0
VERTEX
  5
245E5
  8
1PHANTOM
 10
640.2233107518833
 20
-557.2335032958637
 30
0.0
  0
VERTEX
  5
245E6
  8
1PHANTOM
 10
640.2178220400916
 20
-557.2587616688098
 30
0.0
  0
VERTEX
  5
245E7
  8
1PHANTOM
 10
640.2120081651933
 20
-557.2839303552004
 30
0.0
  0
VERTEX
  5
245E8
  8
1PHANTOM
 10
640.2058724950742
 20
-557.3090045219141
 30
0.0
  0
VERTEX
  5
245E9
  8
1PHANTOM
 10
640.1994183976208
 20
-557.3339793358296
 30
0.0
  0
VERTEX
  5
245EA
  8
1PHANTOM
 10
640.1926490766614
 20
-557.3588499457585
 30
0.0
  0
VERTEX
  5
245EB
  8
1PHANTOM
 10
640.1855669043032
 20
-557.3836114089172
 30
0.0
  0
VERTEX
  5
245EC
  8
1PHANTOM
 10
640.1781739897142
 20
-557.4082587535659
 30
0.0
  0
VERTEX
  5
245ED
  8
1PHANTOM
 10
640.1704724419599
 20
-557.4327870079524
 30
0.0
  0
VERTEX
  5
245EE
  8
1PHANTOM
 10
640.1624643701053
 20
-557.4571912003256
 30
0.0
  0
VERTEX
  5
245EF
  8
1PHANTOM
 10
640.1541518771367
 20
-557.4814664920114
 30
0.0
  0
VERTEX
  5
245F0
  8
1PHANTOM
 10
640.145537017715
 20
-557.505609102043
 30
0.0
  0
VERTEX
  5
245F1
  8
1PHANTOM
 10
640.1366218234418
 20
-557.5296157541896
 30
0.0
  0
VERTEX
  5
245F2
  8
1PHANTOM
 10
640.1274083257761
 20
-557.5534831753378
 30
0.0
  0
VERTEX
  5
245F3
  8
1PHANTOM
 10
640.1178985561766
 20
-557.5772080923736
 30
0.0
  0
VERTEX
  5
245F4
  8
1PHANTOM
 10
640.1080945882492
 20
-557.6007872148429
 30
0.0
  0
VERTEX
  5
245F5
  8
1PHANTOM
 10
640.0979991304735
 20
-557.624216991086
 30
0.0
  0
VERTEX
  5
245F6
  8
1PHANTOM
 10
640.0876153822293
 20
-557.6474936674731
 30
0.0
  0
VERTEX
  5
245F7
  8
1PHANTOM
 10
640.0769465556505
 20
-557.6706134851269
 30
0.0
  0
VERTEX
  5
245F8
  8
1PHANTOM
 10
640.0659958628709
 20
-557.6935726851698
 30
0.0
  0
VERTEX
  5
245F9
  8
1PHANTOM
 10
640.054766516024
 20
-557.7163675087247
 30
0.0
  0
VERTEX
  5
245FA
  8
1PHANTOM
 10
640.0432617272438
 20
-557.7389941969141
 30
0.0
  0
VERTEX
  5
245FB
  8
1PHANTOM
 10
640.0314847086638
 20
-557.7614489908608
 30
0.0
  0
VERTEX
  5
245FC
  8
1PHANTOM
 10
640.019438672418
 20
-557.7837281316876
 30
0.0
  0
VERTEX
  5
245FD
  8
1PHANTOM
 10
640.0071268306401
 20
-557.8058278605167
 30
0.0
  0
VERTEX
  5
245FE
  8
1PHANTOM
 10
639.9945523954639
 20
-557.8277444184712
 30
0.0
  0
VERTEX
  5
245FF
  8
1PHANTOM
 10
639.9817185790229
 20
-557.8494740466735
 30
0.0
  0
VERTEX
  5
24600
  8
1PHANTOM
 10
639.968628593451
 20
-557.8710129862466
 30
0.0
  0
VERTEX
  5
24601
  8
1PHANTOM
 10
639.9552856508819
 20
-557.8923574783128
 30
0.0
  0
VERTEX
  5
24602
  8
1PHANTOM
 10
639.9416929634496
 20
-557.9135037639949
 30
0.0
  0
VERTEX
  5
24603
  8
1PHANTOM
 10
639.9278537526285
 20
-557.9344481381631
 30
0.0
  0
VERTEX
  5
24604
  8
1PHANTOM
 10
639.9137713882898
 20
-557.9551877495533
 30
0.0
  0
VERTEX
  5
24605
  8
1PHANTOM
 10
639.8994493591202
 20
-557.9757204305604
 30
0.0
  0
VERTEX
  5
24606
  8
1PHANTOM
 10
639.8848911571394
 20
-557.9960440327576
 30
0.0
  0
VERTEX
  5
24607
  8
1PHANTOM
 10
639.870100274367
 20
-558.016156407718
 30
0.0
  0
VERTEX
  5
24608
  8
1PHANTOM
 10
639.8550802028228
 20
-558.0360554070147
 30
0.0
  0
VERTEX
  5
24609
  8
1PHANTOM
 10
639.8398344345267
 20
-558.055738882221
 30
0.0
  0
VERTEX
  5
2460A
  8
1PHANTOM
 10
639.8243664614979
 20
-558.0752046849101
 30
0.0
  0
VERTEX
  5
2460B
  8
1PHANTOM
 10
639.8086797757566
 20
-558.094450666655
 30
0.0
  0
VERTEX
  5
2460C
  8
1PHANTOM
 10
639.7927778693221
 20
-558.113474679029
 30
0.0
  0
VERTEX
  5
2460D
  8
1PHANTOM
 10
639.7766642342144
 20
-558.1322745736051
 30
0.0
  0
VERTEX
  5
2460E
  8
1PHANTOM
 10
639.7603423624532
 20
-558.1508482019567
 30
0.0
  0
VERTEX
  5
2460F
  8
1PHANTOM
 10
639.743815746058
 20
-558.1691934156567
 30
0.0
  0
VERTEX
  5
24610
  8
1PHANTOM
 10
639.7270878770486
 20
-558.1873080662783
 30
0.0
  0
VERTEX
  5
24611
  8
1PHANTOM
 10
639.7101622474446
 20
-558.2051900053948
 30
0.0
  0
VERTEX
  5
24612
  8
1PHANTOM
 10
639.6930423492661
 20
-558.2228370845794
 30
0.0
  0
VERTEX
  5
24613
  8
1PHANTOM
 10
639.6757316735068
 20
-558.2402471588305
 30
0.0
  0
VERTEX
  5
24614
  8
1PHANTOM
 10
639.658233609945
 20
-558.2574184212959
 30
0.0
  0
VERTEX
  5
24615
  8
1PHANTOM
 10
639.6405513630065
 20
-558.2743496843541
 30
0.0
  0
VERTEX
  5
24616
  8
1PHANTOM
 10
639.6226881173094
 20
-558.2910398265598
 30
0.0
  0
VERTEX
  5
24617
  8
1PHANTOM
 10
639.6046470574712
 20
-558.3074877264678
 30
0.0
  0
VERTEX
  5
24618
  8
1PHANTOM
 10
639.58643136811
 20
-558.3236922626329
 30
0.0
  0
VERTEX
  5
24619
  8
1PHANTOM
 10
639.5680442338436
 20
-558.3396523136098
 30
0.0
  0
VERTEX
  5
2461A
  8
1PHANTOM
 10
639.5494888392897
 20
-558.3553667579533
 30
0.0
  0
VERTEX
  5
2461B
  8
1PHANTOM
 10
639.5307683690663
 20
-558.3708344742182
 30
0.0
  0
VERTEX
  5
2461C
  8
1PHANTOM
 10
639.5118860077912
 20
-558.3860543409593
 30
0.0
  0
VERTEX
  5
2461D
  8
1PHANTOM
 10
639.4928449400821
 20
-558.4010252367315
 30
0.0
  0
VERTEX
  5
2461E
  8
1PHANTOM
 10
639.4736483505573
 20
-558.4157460400892
 30
0.0
  0
VERTEX
  5
2461F
  8
1PHANTOM
 10
639.454299423834
 20
-558.4302156295875
 30
0.0
  0
VERTEX
  5
24620
  8
1PHANTOM
 10
639.4348013445306
 20
-558.444432883781
 30
0.0
  0
VERTEX
  5
24621
  8
1PHANTOM
 10
639.4151572972645
 20
-558.4583966812246
 30
0.0
  0
VERTEX
  5
24622
  8
1PHANTOM
 10
639.3953704666537
 20
-558.472105900473
 30
0.0
  0
VERTEX
  5
24623
  8
1PHANTOM
 10
639.375444037294
 20
-558.4855594201694
 30
0.0
  0
VERTEX
  5
24624
  8
1PHANTOM
 10
639.3553811612926
 20
-558.4987562471811
 30
0.0
  0
VERTEX
  5
24625
  8
1PHANTOM
 10
639.3351848932895
 20
-558.5116957730708
 30
0.0
  0
VERTEX
  5
24626
  8
1PHANTOM
 10
639.3148582697216
 20
-558.5243774612435
 30
0.0
  0
VERTEX
  5
24627
  8
1PHANTOM
 10
639.2944043270264
 20
-558.536800775104
 30
0.0
  0
VERTEX
  5
24628
  8
1PHANTOM
 10
639.2738261016407
 20
-558.5489651780568
 30
0.0
  0
VERTEX
  5
24629
  8
1PHANTOM
 10
639.2531266300018
 20
-558.5608701335074
 30
0.0
  0
VERTEX
  5
2462A
  8
1PHANTOM
 10
639.2323089485468
 20
-558.5725151048599
 30
0.0
  0
VERTEX
  5
2462B
  8
1PHANTOM
 10
639.2113760937128
 20
-558.5838995555195
 30
0.0
  0
VERTEX
  5
2462C
  8
1PHANTOM
 10
639.1903311019371
 20
-558.595022948891
 30
0.0
  0
VERTEX
  5
2462D
  8
1PHANTOM
 10
639.169177009657
 20
-558.6058847483791
 30
0.0
  0
VERTEX
  5
2462E
  8
1PHANTOM
 10
639.1479168533094
 20
-558.6164844173888
 30
0.0
  0
VERTEX
  5
2462F
  8
1PHANTOM
 10
639.1265536693315
 20
-558.6268214193249
 30
0.0
  0
VERTEX
  5
24630
  8
1PHANTOM
 10
639.1050904941607
 20
-558.6368952175922
 30
0.0
  0
VERTEX
  5
24631
  8
1PHANTOM
 10
639.0835303642338
 20
-558.6467052755953
 30
0.0
  0
VERTEX
  5
24632
  8
1PHANTOM
 10
639.0618763159883
 20
-558.6562510567392
 30
0.0
  0
VERTEX
  5
24633
  8
1PHANTOM
 10
639.0401313858612
 20
-558.6655320244289
 30
0.0
  0
VERTEX
  5
24634
  8
1PHANTOM
 10
639.0182986117809
 20
-558.6745476252228
 30
0.0
  0
VERTEX
  5
24635
  8
1PHANTOM
 10
638.9963810532212
 20
-558.6832970623121
 30
0.0
  0
VERTEX
  5
24636
  8
1PHANTOM
 10
638.9743817858555
 20
-558.6917793558957
 30
0.0
  0
VERTEX
  5
24637
  8
1PHANTOM
 10
638.9523038857524
 20
-558.6999935217096
 30
0.0
  0
VERTEX
  5
24638
  8
1PHANTOM
 10
638.9301504289805
 20
-558.7079385754905
 30
0.0
  0
VERTEX
  5
24639
  8
1PHANTOM
 10
638.9079244916087
 20
-558.7156135329741
 30
0.0
  0
VERTEX
  5
2463A
  8
1PHANTOM
 10
638.8856291497053
 20
-558.7230174098969
 30
0.0
  0
VERTEX
  5
2463B
  8
1PHANTOM
 10
638.8632674793391
 20
-558.7301492219954
 30
0.0
  0
VERTEX
  5
2463C
  8
1PHANTOM
 10
638.840842556143
 20
-558.7370079869021
 30
0.0
  0
VERTEX
  5
2463D
  8
1PHANTOM
 10
638.818357230436
 20
-558.7435937033113
 30
0.0
  0
VERTEX
  5
2463E
  8
1PHANTOM
 10
638.7958137596539
 20
-558.7499089514439
 30
0.0
  0
VERTEX
  5
2463F
  8
1PHANTOM
 10
638.7732143048709
 20
-558.7559567310976
 30
0.0
  0
VERTEX
  5
24640
  8
1PHANTOM
 10
638.750561027161
 20
-558.7617400420701
 30
0.0
  0
VERTEX
  5
24641
  8
1PHANTOM
 10
638.7278560875986
 20
-558.7672618841592
 30
0.0
  0
VERTEX
  5
24642
  8
1PHANTOM
 10
638.7051016472578
 20
-558.7725252571628
 30
0.0
  0
VERTEX
  5
24643
  8
1PHANTOM
 10
638.682299867213
 20
-558.7775331608783
 30
0.0
  0
VERTEX
  5
24644
  8
1PHANTOM
 10
638.6594529085381
 20
-558.782288595104
 30
0.0
  0
VERTEX
  5
24645
  8
1PHANTOM
 10
638.6365629188605
 20
-558.7867930293887
 30
0.0
  0
VERTEX
  5
24646
  8
1PHANTOM
 10
638.6136319655715
 20
-558.7910388025641
 30
0.0
  0
VERTEX
  5
24647
  8
1PHANTOM
 10
638.5906620864278
 20
-558.7950148811241
 30
0.0
  0
VERTEX
  5
24648
  8
1PHANTOM
 10
638.567655319139
 20
-558.7987102261839
 30
0.0
  0
VERTEX
  5
24649
  8
1PHANTOM
 10
638.5446137014151
 20
-558.8021137988578
 30
0.0
  0
VERTEX
  5
2464A
  8
1PHANTOM
 10
638.5215392709654
 20
-558.8052145602611
 30
0.0
  0
VERTEX
  5
2464B
  8
1PHANTOM
 10
638.4984340654996
 20
-558.8080014715088
 30
0.0
  0
VERTEX
  5
2464C
  8
1PHANTOM
 10
638.4753001227276
 20
-558.8104634937154
 30
0.0
  0
VERTEX
  5
2464D
  8
1PHANTOM
 10
638.452139493105
 20
-558.8125902516343
 30
0.0
  0
VERTEX
  5
2464E
  8
1PHANTOM
 10
638.4289546552103
 20
-558.8143936604016
 30
0.0
  0
VERTEX
  5
2464F
  8
1PHANTOM
 10
638.4057486076504
 20
-558.8159127106437
 30
0.0
  0
VERTEX
  5
24650
  8
1PHANTOM
 10
638.382524380377
 20
-558.8171880250069
 30
0.0
  0
VERTEX
  5
24651
  8
1PHANTOM
 10
638.3592850033427
 20
-558.8182602261377
 30
0.0
  0
VERTEX
  5
24652
  8
1PHANTOM
 10
638.3360335064997
 20
-558.8191699366826
 30
0.0
  0
VERTEX
  5
24653
  8
1PHANTOM
 10
638.3127729198
 20
-558.819957779288
 30
0.0
  0
VERTEX
  5
24654
  8
1PHANTOM
 10
638.289506273196
 20
-558.8206643766003
 30
0.0
  0
VERTEX
  5
24655
  8
1PHANTOM
 10
638.2662365966396
 20
-558.8213303512664
 30
0.0
  0
SEQEND
  5
24C12
  8
1PHANTOM
  0
CIRCLE
  5
23ABB
  8
1PHANTOM
 10
631.7162365966536
 20
-553.8213303512664
 30
0.0
 40
1.65
  0
LINE
  5
23AC0
  8
1PHANTOM
 10
624.1662365966677
 20
-538.8213303512664
 30
0.0
 11
639.2662365966396
 21
-538.8213303512664
 31
0.0
  0
POLYLINE
  5
23AC1
  8
1PHANTOM
 66
     1
 10
0.0
 20
0.0
 30
0.0
  0
VERTEX
  5
24656
  8
1PHANTOM
 10
124.5830712556182
 20
-558.7342841239158
 30
0.0
  0
VERTEX
  5
24657
  8
1PHANTOM
 10
124.5812581644783
 20
-558.7337492690318
 30
0.0
  0
VERTEX
  5
24658
  8
1PHANTOM
 10
124.5794461131178
 20
-558.7332108585065
 30
0.0
  0
VERTEX
  5
24659
  8
1PHANTOM
 10
124.5776351803623
 20
-558.7326688416346
 30
0.0
  0
VERTEX
  5
2465A
  8
1PHANTOM
 10
124.5758253967805
 20
-558.7321233437202
 30
0.0
  0
VERTEX
  5
2465B
  8
1PHANTOM
 10
124.5740167929412
 20
-558.7315744900675
 30
0.0
  0
VERTEX
  5
2465C
  8
1PHANTOM
 10
124.5722093994131
 20
-558.7310224059806
 30
0.0
  0
VERTEX
  5
2465D
  8
1PHANTOM
 10
124.570403246765
 20
-558.7304672167638
 30
0.0
  0
VERTEX
  5
2465E
  8
1PHANTOM
 10
124.5685983655656
 20
-558.7299090477209
 30
0.0
  0
VERTEX
  5
2465F
  8
1PHANTOM
 10
124.5667947863837
 20
-558.7293480241564
 30
0.0
  0
VERTEX
  5
24660
  8
1PHANTOM
 10
124.5649925397881
 20
-558.7287842713741
 30
0.0
  0
VERTEX
  5
24661
  8
1PHANTOM
 10
124.5631916563474
 20
-558.7282179146786
 30
0.0
  0
VERTEX
  5
24662
  8
1PHANTOM
 10
124.5613921666305
 20
-558.7276490793736
 30
0.0
  0
VERTEX
  5
24663
  8
1PHANTOM
 10
124.5595941012061
 20
-558.7270778907633
 30
0.0
  0
VERTEX
  5
24664
  8
1PHANTOM
 10
124.5577974906429
 20
-558.7265044741522
 30
0.0
  0
VERTEX
  5
24665
  8
1PHANTOM
 10
124.5560023655097
 20
-558.7259289548441
 30
0.0
  0
VERTEX
  5
24666
  8
1PHANTOM
 10
124.5542087563753
 20
-558.7253514581433
 30
0.0
  0
VERTEX
  5
24667
  8
1PHANTOM
 10
124.5524166938084
 20
-558.7247721093538
 30
0.0
  0
VERTEX
  5
24668
  8
1PHANTOM
 10
124.5506262083777
 20
-558.7241910337799
 30
0.0
  0
VERTEX
  5
24669
  8
1PHANTOM
 10
124.5488373306521
 20
-558.7236083567257
 30
0.0
  0
VERTEX
  5
2466A
  8
1PHANTOM
 10
124.54705008621
 20
-558.723024200967
 30
0.0
  0
VERTEX
  5
2466B
  8
1PHANTOM
 10
124.5452644383257
 20
-558.7224386577152
 30
0.0
  0
VERTEX
  5
2466C
  8
1PHANTOM
 10
124.5434803079388
 20
-558.7218517967339
 30
0.0
  0
VERTEX
  5
2466D
  8
1PHANTOM
 10
124.5416976151812
 20
-558.721263687377
 30
0.0
  0
VERTEX
  5
2466E
  8
1PHANTOM
 10
124.5399162801846
 20
-558.720674398999
 30
0.0
  0
VERTEX
  5
2466F
  8
1PHANTOM
 10
124.5381362230805
 20
-558.7200840009539
 30
0.0
  0
VERTEX
  5
24670
  8
1PHANTOM
 10
124.5363573640008
 20
-558.719492562596
 30
0.0
  0
VERTEX
  5
24671
  8
1PHANTOM
 10
124.5345796230772
 20
-558.7189001532795
 30
0.0
  0
VERTEX
  5
24672
  8
1PHANTOM
 10
124.5328029204414
 20
-558.7183068423585
 30
0.0
  0
VERTEX
  5
24673
  8
1PHANTOM
 10
124.5310271762251
 20
-558.7177126991871
 30
0.0
  0
VERTEX
  5
24674
  8
1PHANTOM
 10
124.5292523105599
 20
-558.7171177931198
 30
0.0
  0
VERTEX
  5
24675
  8
1PHANTOM
 10
124.5274782435777
 20
-558.7165221935105
 30
0.0
  0
VERTEX
  5
24676
  8
1PHANTOM
 10
124.5257048954101
 20
-558.7159259697135
 30
0.0
  0
VERTEX
  5
24677
  8
1PHANTOM
 10
124.5239321861888
 20
-558.7153291910829
 30
0.0
  0
VERTEX
  5
24678
  8
1PHANTOM
 10
124.5221600360455
 20
-558.7147319269732
 30
0.0
  0
VERTEX
  5
24679
  8
1PHANTOM
 10
124.520388365112
 20
-558.7141342467381
 30
0.0
  0
VERTEX
  5
2467A
  8
1PHANTOM
 10
124.5186170935199
 20
-558.7135362197323
 30
0.0
  0
VERTEX
  5
2467B
  8
1PHANTOM
 10
124.5168461414009
 20
-558.7129379153095
 30
0.0
  0
VERTEX
  5
2467C
  8
1PHANTOM
 10
124.5150754288869
 20
-558.7123394028242
 30
0.0
  0
VERTEX
  5
2467D
  8
1PHANTOM
 10
124.5133048761094
 20
-558.7117407516305
 30
0.0
  0
VERTEX
  5
2467E
  8
1PHANTOM
 10
124.5115344032002
 20
-558.7111420310827
 30
0.0
  0
SEQEND
  5
24C13
  8
1PHANTOM
  0
LINE
  5
23AC2
  8
1PHANTOM
 10
123.1662365966675
 20
-535.8213303512664
 30
0.0
 11
123.1662365966675
 21
-537.8213303512664
 31
0.0
  0
LINE
  5
23AC3
  8
1PHANTOM
 10
140.2662365966396
 20
-537.8213303512664
 30
0.0
 11
140.2662365966396
 21
-535.8213303512664
 31
0.0
  0
POLYLINE
  5
23AC4
  8
1PHANTOM
 66
     1
 10
0.0
 20
0.0
 30
0.0
  0
VERTEX
  5
2467F
  8
1PHANTOM
 10
123.1662365966677
 20
-537.8213303512664
 30
0.0
  0
VERTEX
  5
24680
  8
1PHANTOM
 10
123.166436464188
 20
-537.8410559874649
 30
0.0
  0
VERTEX
  5
24681
  8
1PHANTOM
 10
123.1670400279851
 20
-537.8609400329233
 30
0.0
  0
VERTEX
  5
24682
  8
1PHANTOM
 10
123.1680532299136
 20
-537.8809687580352
 30
0.0
  0
VERTEX
  5
24683
  8
1PHANTOM
 10
123.1694820118279
 20
-537.9011284331945
 30
0.0
  0
VERTEX
  5
24684
  8
1PHANTOM
 10
123.1713323155822
 20
-537.9214053287948
 30
0.0
  0
VERTEX
  5
24685
  8
1PHANTOM
 10
123.1736100830312
 20
-537.9417857152295
 30
0.0
  0
VERTEX
  5
24686
  8
1PHANTOM
 10
123.1763212560292
 20
-537.9622558628924
 30
0.0
  0
VERTEX
  5
24687
  8
1PHANTOM
 10
123.1794717764306
 20
-537.9828020421772
 30
0.0
  0
VERTEX
  5
24688
  8
1PHANTOM
 10
123.1830675860898
 20
-538.0034105234777
 30
0.0
  0
VERTEX
  5
24689
  8
1PHANTOM
 10
123.1871146268613
 20
-538.024067577187
 30
0.0
  0
VERTEX
  5
2468A
  8
1PHANTOM
 10
123.1916188405995
 20
-538.0447594736992
 30
0.0
  0
VERTEX
  5
2468B
  8
1PHANTOM
 10
123.1965861691587
 20
-538.0654724834078
 30
0.0
  0
VERTEX
  5
2468C
  8
1PHANTOM
 10
123.2020225543935
 20
-538.0861928767064
 30
0.0
  0
VERTEX
  5
2468D
  8
1PHANTOM
 10
123.2079339381583
 20
-538.1069069239888
 30
0.0
  0
VERTEX
  5
2468E
  8
1PHANTOM
 10
123.2143262623074
 20
-538.1276008956486
 30
0.0
  0
VERTEX
  5
2468F
  8
1PHANTOM
 10
123.2212054686953
 20
-538.1482610620793
 30
0.0
  0
VERTEX
  5
24690
  8
1PHANTOM
 10
123.2285774991764
 20
-538.1688736936746
 30
0.0
  0
VERTEX
  5
24691
  8
1PHANTOM
 10
123.2364482956051
 20
-538.1894250608283
 30
0.0
  0
VERTEX
  5
24692
  8
1PHANTOM
 10
123.2448247926458
 20
-538.2098939392555
 30
0.0
  0
VERTEX
  5
24693
  8
1PHANTOM
 10
123.2537056626699
 20
-538.2302573934946
 30
0.0
  0
VERTEX
  5
24694
  8
1PHANTOM
 10
123.2630844540924
 20
-538.2504991271743
 30
0.0
  0
VERTEX
  5
24695
  8
1PHANTOM
 10
123.2729547153284
 20
-538.2706028439223
 30
0.0
  0
VERTEX
  5
24696
  8
1PHANTOM
 10
123.283309994793
 20
-538.2905522473674
 30
0.0
  0
VERTEX
  5
24697
  8
1PHANTOM
 10
123.2941438409012
 20
-538.3103310411376
 30
0.0
  0
VERTEX
  5
24698
  8
1PHANTOM
 10
123.305449802068
 20
-538.3299229288615
 30
0.0
  0
VERTEX
  5
24699
  8
1PHANTOM
 10
123.3172214267086
 20
-538.3493116141672
 30
0.0
  0
VERTEX
  5
2469A
  8
1PHANTOM
 10
123.3294522632379
 20
-538.368480800683
 30
0.0
  0
VERTEX
  5
2469B
  8
1PHANTOM
 10
123.3421358600711
 20
-538.3874141920371
 30
0.0
  0
VERTEX
  5
2469C
  8
1PHANTOM
 10
123.3552657656231
 20
-538.4060954918582
 30
0.0
  0
VERTEX
  5
2469D
  8
1PHANTOM
 10
123.3688355283091
 20
-538.4245084037743
 30
0.0
  0
VERTEX
  5
2469E
  8
1PHANTOM
 10
123.3828386965441
 20
-538.4426366314138
 30
0.0
  0
VERTEX
  5
2469F
  8
1PHANTOM
 10
123.3972688187432
 20
-538.460463878405
 30
0.0
  0
VERTEX
  5
246A0
  8
1PHANTOM
 10
123.4121194433213
 20
-538.4779738483762
 30
0.0
  0
VERTEX
  5
246A1
  8
1PHANTOM
 10
123.4273841186937
 20
-538.4951502449558
 30
0.0
  0
VERTEX
  5
246A2
  8
1PHANTOM
 10
123.4430563932752
 20
-538.5119767717719
 30
0.0
  0
VERTEX
  5
246A3
  8
1PHANTOM
 10
123.459129815481
 20
-538.528437132453
 30
0.0
  0
VERTEX
  5
246A4
  8
1PHANTOM
 10
123.4755901761621
 20
-538.5445105546587
 30
0.0
  0
VERTEX
  5
246A5
  8
1PHANTOM
 10
123.4924167029782
 20
-538.5601828292404
 30
0.0
  0
VERTEX
  5
246A6
  8
1PHANTOM
 10
123.5095930995577
 20
-538.5754475046126
 30
0.0
  0
VERTEX
  5
246A7
  8
1PHANTOM
 10
123.5271030695289
 20
-538.5902981291908
 30
0.0
  0
VERTEX
  5
246A8
  8
1PHANTOM
 10
123.5449303165201
 20
-538.6047282513898
 30
0.0
  0
VERTEX
  5
246A9
  8
1PHANTOM
 10
123.5630585441596
 20
-538.6187314196249
 30
0.0
  0
VERTEX
  5
246AA
  8
1PHANTOM
 10
123.5814714560757
 20
-538.6323011823108
 30
0.0
  0
VERTEX
  5
246AB
  8
1PHANTOM
 10
123.6001527558968
 20
-538.6454310878629
 30
0.0
  0
VERTEX
  5
246AC
  8
1PHANTOM
 10
123.619086147251
 20
-538.658114684696
 30
0.0
  0
VERTEX
  5
246AD
  8
1PHANTOM
 10
123.6382553337668
 20
-538.6703455212254
 30
0.0
  0
VERTEX
  5
246AE
  8
1PHANTOM
 10
123.6576440190725
 20
-538.682117145866
 30
0.0
  0
VERTEX
  5
246AF
  8
1PHANTOM
 10
123.6772359067963
 20
-538.6934231070329
 30
0.0
  0
VERTEX
  5
246B0
  8
1PHANTOM
 10
123.6970147005666
 20
-538.704256953141
 30
0.0
  0
VERTEX
  5
246B1
  8
1PHANTOM
 10
123.7169641040116
 20
-538.7146122326056
 30
0.0
  0
VERTEX
  5
246B2
  8
1PHANTOM
 10
123.7370678207597
 20
-538.7244824938416
 30
0.0
  0
VERTEX
  5
246B3
  8
1PHANTOM
 10
123.7573095544392
 20
-538.7338612852642
 30
0.0
  0
VERTEX
  5
246B4
  8
1PHANTOM
 10
123.7776730086784
 20
-538.7427421552882
 30
0.0
  0
VERTEX
  5
246B5
  8
1PHANTOM
 10
123.7981418871057
 20
-538.751118652329
 30
0.0
  0
VERTEX
  5
246B6
  8
1PHANTOM
 10
123.8186932542593
 20
-538.7589894487577
 30
0.0
  0
VERTEX
  5
246B7
  8
1PHANTOM
 10
123.8393058858546
 20
-538.7663614792388
 30
0.0
  0
VERTEX
  5
246B8
  8
1PHANTOM
 10
123.8599660522854
 20
-538.7732406856265
 30
0.0
  0
VERTEX
  5
246B9
  8
1PHANTOM
 10
123.8806600239451
 20
-538.7796330097757
 30
0.0
  0
VERTEX
  5
246BA
  8
1PHANTOM
 10
123.9013740712275
 20
-538.7855443935405
 30
0.0
  0
VERTEX
  5
246BB
  8
1PHANTOM
 10
123.9220944645262
 20
-538.7909807787753
 30
0.0
  0
VERTEX
  5
246BC
  8
1PHANTOM
 10
123.9428074742348
 20
-538.7959481073345
 30
0.0
  0
VERTEX
  5
246BD
  8
1PHANTOM
 10
123.963499370747
 20
-538.8004523210727
 30
0.0
  0
VERTEX
  5
246BE
  8
1PHANTOM
 10
123.9841564244564
 20
-538.8044993618441
 30
0.0
  0
VERTEX
  5
246BF
  8
1PHANTOM
 10
124.0047649057567
 20
-538.8080951715035
 30
0.0
  0
VERTEX
  5
246C0
  8
1PHANTOM
 10
124.0253110850415
 20
-538.8112456919048
 30
0.0
  0
VERTEX
  5
246C1
  8
1PHANTOM
 10
124.0457812327045
 20
-538.8139568649028
 30
0.0
  0
VERTEX
  5
246C2
  8
1PHANTOM
 10
124.0661616191392
 20
-538.8162346323518
 30
0.0
  0
VERTEX
  5
246C3
  8
1PHANTOM
 10
124.0864385147394
 20
-538.8180849361062
 30
0.0
  0
VERTEX
  5
246C4
  8
1PHANTOM
 10
124.1065981898987
 20
-538.8195137180204
 30
0.0
  0
VERTEX
  5
246C5
  8
1PHANTOM
 10
124.1266269150107
 20
-538.8205269199489
 30
0.0
  0
VERTEX
  5
246C6
  8
1PHANTOM
 10
124.1465109604691
 20
-538.8211304837461
 30
0.0
  0
VERTEX
  5
246C7
  8
1PHANTOM
 10
124.1662365966675
 20
-538.8213303512664
 30
0.0
  0
SEQEND
  5
24C14
  8
1PHANTOM
  0
POLYLINE
  5
23AC5
  8
1PHANTOM
 66
     1
 10
0.0
 20
0.0
 30
0.0
  0
VERTEX
  5
246C8
  8
1PHANTOM
 10
139.2662365966395
 20
-538.8213303512664
 30
0.0
  0
VERTEX
  5
246C9
  8
1PHANTOM
 10
139.2859622328379
 20
-538.8211304837461
 30
0.0
  0
VERTEX
  5
246CA
  8
1PHANTOM
 10
139.3058462782963
 20
-538.8205269199489
 30
0.0
  0
VERTEX
  5
246CB
  8
1PHANTOM
 10
139.3258750034083
 20
-538.8195137180204
 30
0.0
  0
VERTEX
  5
246CC
  8
1PHANTOM
 10
139.3460346785676
 20
-538.8180849361062
 30
0.0
  0
VERTEX
  5
246CD
  8
1PHANTOM
 10
139.3663115741678
 20
-538.8162346323518
 30
0.0
  0
VERTEX
  5
246CE
  8
1PHANTOM
 10
139.3866919606025
 20
-538.8139568649028
 30
0.0
  0
VERTEX
  5
246CF
  8
1PHANTOM
 10
139.4071621082655
 20
-538.8112456919048
 30
0.0
  0
VERTEX
  5
246D0
  8
1PHANTOM
 10
139.4277082875503
 20
-538.8080951715035
 30
0.0
  0
VERTEX
  5
246D1
  8
1PHANTOM
 10
139.4483167688506
 20
-538.8044993618441
 30
0.0
  0
VERTEX
  5
246D2
  8
1PHANTOM
 10
139.46897382256
 20
-538.8004523210727
 30
0.0
  0
VERTEX
  5
246D3
  8
1PHANTOM
 10
139.4896657190722
 20
-538.7959481073345
 30
0.0
  0
VERTEX
  5
246D4
  8
1PHANTOM
 10
139.5103787287808
 20
-538.7909807787753
 30
0.0
  0
VERTEX
  5
246D5
  8
1PHANTOM
 10
139.5310991220795
 20
-538.7855443935405
 30
0.0
  0
VERTEX
  5
246D6
  8
1PHANTOM
 10
139.5518131693619
 20
-538.7796330097757
 30
0.0
  0
VERTEX
  5
246D7
  8
1PHANTOM
 10
139.5725071410216
 20
-538.7732406856265
 30
0.0
  0
VERTEX
  5
246D8
  8
1PHANTOM
 10
139.5931673074523
 20
-538.7663614792388
 30
0.0
  0
VERTEX
  5
246D9
  8
1PHANTOM
 10
139.6137799390476
 20
-538.7589894487577
 30
0.0
  0
VERTEX
  5
246DA
  8
1PHANTOM
 10
139.6343313062013
 20
-538.751118652329
 30
0.0
  0
VERTEX
  5
246DB
  8
1PHANTOM
 10
139.6548001846285
 20
-538.7427421552882
 30
0.0
  0
VERTEX
  5
246DC
  8
1PHANTOM
 10
139.6751636388676
 20
-538.7338612852642
 30
0.0
  0
VERTEX
  5
246DD
  8
1PHANTOM
 10
139.6954053725472
 20
-538.7244824938416
 30
0.0
  0
VERTEX
  5
246DE
  8
1PHANTOM
 10
139.7155090892953
 20
-538.7146122326056
 30
0.0
  0
VERTEX
  5
246DF
  8
1PHANTOM
 10
139.7354584927403
 20
-538.704256953141
 30
0.0
  0
VERTEX
  5
246E0
  8
1PHANTOM
 10
139.7552372865106
 20
-538.6934231070329
 30
0.0
  0
VERTEX
  5
246E1
  8
1PHANTOM
 10
139.7748291742344
 20
-538.682117145866
 30
0.0
  0
VERTEX
  5
246E2
  8
1PHANTOM
 10
139.7942178595401
 20
-538.6703455212254
 30
0.0
  0
VERTEX
  5
246E3
  8
1PHANTOM
 10
139.8133870460559
 20
-538.658114684696
 30
0.0
  0
VERTEX
  5
246E4
  8
1PHANTOM
 10
139.8323204374102
 20
-538.6454310878629
 30
0.0
  0
VERTEX
  5
246E5
  8
1PHANTOM
 10
139.8510017372312
 20
-538.6323011823108
 30
0.0
  0
VERTEX
  5
246E6
  8
1PHANTOM
 10
139.8694146491473
 20
-538.6187314196249
 30
0.0
  0
VERTEX
  5
246E7
  8
1PHANTOM
 10
139.8875428767869
 20
-538.6047282513898
 30
0.0
  0
VERTEX
  5
246E8
  8
1PHANTOM
 10
139.9053701237781
 20
-538.5902981291908
 30
0.0
  0
VERTEX
  5
246E9
  8
1PHANTOM
 10
139.9228800937493
 20
-538.5754475046126
 30
0.0
  0
VERTEX
  5
246EA
  8
1PHANTOM
 10
139.9400564903288
 20
-538.5601828292404
 30
0.0
  0
VERTEX
  5
246EB
  8
1PHANTOM
 10
139.9568830171449
 20
-538.5445105546587
 30
0.0
  0
VERTEX
  5
246EC
  8
1PHANTOM
 10
139.973343377826
 20
-538.528437132453
 30
0.0
  0
VERTEX
  5
246ED
  8
1PHANTOM
 10
139.9894168000318
 20
-538.5119767717719
 30
0.0
  0
VERTEX
  5
246EE
  8
1PHANTOM
 10
140.0050890746133
 20
-538.4951502449558
 30
0.0
  0
VERTEX
  5
246EF
  8
1PHANTOM
 10
140.0203537499856
 20
-538.4779738483762
 30
0.0
  0
VERTEX
  5
246F0
  8
1PHANTOM
 10
140.0352043745638
 20
-538.460463878405
 30
0.0
  0
VERTEX
  5
246F1
  8
1PHANTOM
 10
140.0496344967628
 20
-538.4426366314138
 30
0.0
  0
VERTEX
  5
246F2
  8
1PHANTOM
 10
140.0636376649978
 20
-538.4245084037743
 30
0.0
  0
VERTEX
  5
246F3
  8
1PHANTOM
 10
140.0772074276838
 20
-538.4060954918582
 30
0.0
  0
VERTEX
  5
246F4
  8
1PHANTOM
 10
140.0903373332359
 20
-538.3874141920371
 30
0.0
  0
VERTEX
  5
246F5
  8
1PHANTOM
 10
140.103020930069
 20
-538.368480800683
 30
0.0
  0
VERTEX
  5
246F6
  8
1PHANTOM
 10
140.1152517665984
 20
-538.3493116141672
 30
0.0
  0
VERTEX
  5
246F7
  8
1PHANTOM
 10
140.127023391239
 20
-538.3299229288615
 30
0.0
  0
VERTEX
  5
246F8
  8
1PHANTOM
 10
140.1383293524058
 20
-538.3103310411376
 30
0.0
  0
VERTEX
  5
246F9
  8
1PHANTOM
 10
140.149163198514
 20
-538.2905522473674
 30
0.0
  0
VERTEX
  5
246FA
  8
1PHANTOM
 10
140.1595184779785
 20
-538.2706028439223
 30
0.0
  0
VERTEX
  5
246FB
  8
1PHANTOM
 10
140.1693887392146
 20
-538.2504991271743
 30
0.0
  0
VERTEX
  5
246FC
  8
1PHANTOM
 10
140.1787675306371
 20
-538.2302573934946
 30
0.0
  0
VERTEX
  5
246FD
  8
1PHANTOM
 10
140.1876484006612
 20
-538.2098939392555
 30
0.0
  0
VERTEX
  5
246FE
  8
1PHANTOM
 10
140.1960248977019
 20
-538.1894250608283
 30
0.0
  0
VERTEX
  5
246FF
  8
1PHANTOM
 10
140.2038956941306
 20
-538.1688736936746
 30
0.0
  0
VERTEX
  5
24700
  8
1PHANTOM
 10
140.2112677246117
 20
-538.1482610620793
 30
0.0
  0
VERTEX
  5
24701
  8
1PHANTOM
 10
140.2181469309996
 20
-538.1276008956486
 30
0.0
  0
VERTEX
  5
24702
  8
1PHANTOM
 10
140.2245392551487
 20
-538.1069069239888
 30
0.0
  0
VERTEX
  5
24703
  8
1PHANTOM
 10
140.2304506389135
 20
-538.0861928767064
 30
0.0
  0
VERTEX
  5
24704
  8
1PHANTOM
 10
140.2358870241483
 20
-538.0654724834078
 30
0.0
  0
VERTEX
  5
24705
  8
1PHANTOM
 10
140.2408543527076
 20
-538.0447594736992
 30
0.0
  0
VERTEX
  5
24706
  8
1PHANTOM
 10
140.2453585664457
 20
-538.024067577187
 30
0.0
  0
VERTEX
  5
24707
  8
1PHANTOM
 10
140.2494056072172
 20
-538.0034105234777
 30
0.0
  0
VERTEX
  5
24708
  8
1PHANTOM
 10
140.2530014168765
 20
-537.9828020421772
 30
0.0
  0
VERTEX
  5
24709
  8
1PHANTOM
 10
140.2561519372779
 20
-537.9622558628924
 30
0.0
  0
VERTEX
  5
2470A
  8
1PHANTOM
 10
140.2588631102759
 20
-537.9417857152295
 30
0.0
  0
VERTEX
  5
2470B
  8
1PHANTOM
 10
140.2611408777249
 20
-537.9214053287948
 30
0.0
  0
VERTEX
  5
2470C
  8
1PHANTOM
 10
140.2629911814793
 20
-537.9011284331945
 30
0.0
  0
VERTEX
  5
2470D
  8
1PHANTOM
 10
140.2644199633935
 20
-537.8809687580352
 30
0.0
  0
VERTEX
  5
2470E
  8
1PHANTOM
 10
140.2654331653221
 20
-537.8609400329233
 30
0.0
  0
VERTEX
  5
2470F
  8
1PHANTOM
 10
140.2660367291193
 20
-537.8410559874649
 30
0.0
  0
VERTEX
  5
24710
  8
1PHANTOM
 10
140.2662365966396
 20
-537.8213303512664
 30
0.0
  0
SEQEND
  5
24C15
  8
1PHANTOM
  0
LINE
  5
23AC6
  8
1PHANTOM
 10
125.1662365966675
 20
-558.8213303512664
 30
0.0
 11
138.2662365966396
 21
-558.8213303512664
 31
0.0
  0
LINE
  5
23AC7
  8
1PHANTOM
 10
123.1662365966677
 20
-537.8213303512664
 30
0.0
 11
123.1662365966675
 21
-556.8213303512664
 31
0.0
  0
LINE
  5
23AC8
  8
1PHANTOM
 10
140.2662365966396
 20
-556.8213303512664
 30
0.0
 11
140.2662365966396
 21
-537.8213303512664
 31
0.0
  0
POLYLINE
  5
23AC9
  8
1PHANTOM
 66
     1
 10
0.0
 20
0.0
 30
0.0
  0
VERTEX
  5
24711
  8
1PHANTOM
 10
138.2662365966396
 20
-558.8213303512664
 30
0.0
  0
VERTEX
  5
24712
  8
1PHANTOM
 10
138.2927947441287
 20
-558.8208771643029
 30
0.0
  0
VERTEX
  5
24713
  8
1PHANTOM
 10
138.319349556689
 20
-558.820319958514
 30
0.0
  0
VERTEX
  5
24714
  8
1PHANTOM
 10
138.3458976993918
 20
-558.8195547150737
 30
0.0
  0
VERTEX
  5
24715
  8
1PHANTOM
 10
138.3724358373082
 20
-558.8184774151566
 30
0.0
  0
VERTEX
  5
24716
  8
1PHANTOM
 10
138.3989605704642
 20
-558.8169935363211
 30
0.0
  0
VERTEX
  5
24717
  8
1PHANTOM
 10
138.4254679632636
 20
-558.8150867551578
 30
0.0
  0
VERTEX
  5
24718
  8
1PHANTOM
 10
138.4519538167415
 20
-558.8127791991883
 30
0.0
  0
VERTEX
  5
24719
  8
1PHANTOM
 10
138.4784139301009
 20
-558.8100932633955
 30
0.0
  0
VERTEX
  5
2471A
  8
1PHANTOM
 10
138.5048441025452
 20
-558.8070513427621
 30
0.0
  0
VERTEX
  5
2471B
  8
1PHANTOM
 10
138.5312402752689
 20
-558.80367298095
 30
0.0
  0
VERTEX
  5
2471C
  8
1PHANTOM
 10
138.5575992724999
 20
-558.7999599895129
 30
0.0
  0
VERTEX
  5
2471D
  8
1PHANTOM
 10
138.5839182573845
 20
-558.795907374207
 30
0.0
  0
VERTEX
  5
2471E
  8
1PHANTOM
 10
138.6101943937675
 20
-558.7915101267693
 30
0.0
  0
VERTEX
  5
2471F
  8
1PHANTOM
 10
138.6364248454934
 20
-558.7867632389368
 30
0.0
  0
VERTEX
  5
24720
  8
1PHANTOM
 10
138.6626067699997
 20
-558.7816617173552
 30
0.0
  0
VERTEX
  5
24721
  8
1PHANTOM
 10
138.6887364292284
 20
-558.7762026523291
 30
0.0
  0
VERTEX
  5
24722
  8
1PHANTOM
 10
138.7148082772079
 20
-558.7703873408594
 30
0.0
  0
VERTEX
  5
24723
  8
1PHANTOM
 10
138.7408165503236
 20
-558.7642175863627
 30
0.0
  0
VERTEX
  5
24724
  8
1PHANTOM
 10
138.7667554849612
 20
-558.757695192256
 30
0.0
  0
VERTEX
  5
24725
  8
1PHANTOM
 10
138.7926193175064
 20
-558.750821961956
 30
0.0
  0
VERTEX
  5
24726
  8
1PHANTOM
 10
138.8184022843446
 20
-558.7435996988794
 30
0.0
  0
VERTEX
  5
24727
  8
1PHANTOM
 10
138.8440986218615
 20
-558.7360302064428
 30
0.0
  0
VERTEX
  5
24728
  8
1PHANTOM
 10
138.8697031662413
 20
-558.7281148989719
 30
0.0
  0
VERTEX
  5
24729
  8
1PHANTOM
 10
138.8952132698277
 20
-558.7198535585509
 30
0.0
  0
VERTEX
  5
2472A
  8
1PHANTOM
 10
138.920626944657
 20
-558.7112455393195
 30
0.0
  0
VERTEX
  5
2472B
  8
1PHANTOM
 10
138.9459422027682
 20
-558.7022901954157
 30
0.0
  0
VERTEX
  5
2472C
  8
1PHANTOM
 10
138.9711570562002
 20
-558.6929868809773
 30
0.0
  0
VERTEX
  5
2472D
  8
1PHANTOM
 10
138.9962695169922
 20
-558.6833349501422
 30
0.0
  0
VERTEX
  5
2472E
  8
1PHANTOM
 10
139.0212775971829
 20
-558.6733337570485
 30
0.0
  0
VERTEX
  5
2472F
  8
1PHANTOM
 10
139.0461792070338
 20
-558.6629827147121
 30
0.0
  0
VERTEX
  5
24730
  8
1PHANTOM
 10
139.0709706452348
 20
-558.6522821684421
 30
0.0
  0
VERTEX
  5
24731
  8
1PHANTOM
 10
139.0956469229065
 20
-558.641233208405
 30
0.0
  0
VERTEX
  5
24732
  8
1PHANTOM
 10
139.1202030152174
 20
-558.6298369455653
 30
0.0
  0
VERTEX
  5
24733
  8
1PHANTOM
 10
139.1446338973361
 20
-558.6180944908882
 30
0.0
  0
VERTEX
  5
24734
  8
1PHANTOM
 10
139.1689345444313
 20
-558.6060069553382
 30
0.0
  0
VERTEX
  5
24735
  8
1PHANTOM
 10
139.1930999316714
 20
-558.5935754498802
 30
0.0
  0
VERTEX
  5
24736
  8
1PHANTOM
 10
139.2171250342249
 20
-558.5808010854788
 30
0.0
  0
VERTEX
  5
24737
  8
1PHANTOM
 10
139.2410048272606
 20
-558.567684973099
 30
0.0
  0
VERTEX
  5
24738
  8
1PHANTOM
 10
139.2647342859469
 20
-558.5542282237052
 30
0.0
  0
VERTEX
  5
24739
  8
1PHANTOM
 10
139.2883083854525
 20
-558.5404319482627
 30
0.0
  0
VERTEX
  5
2473A
  8
1PHANTOM
 10
139.3117221009459
 20
-558.5262972577359
 30
0.0
  0
VERTEX
  5
2473B
  8
1PHANTOM
 10
139.3349704075956
 20
-558.5118252630897
 30
0.0
  0
VERTEX
  5
2473C
  8
1PHANTOM
 10
139.3580482805703
 20
-558.4970170752887
 30
0.0
  0
VERTEX
  5
2473D
  8
1PHANTOM
 10
139.3809506950385
 20
-558.4818738052979
 30
0.0
  0
VERTEX
  5
2473E
  8
1PHANTOM
 10
139.4036726285515
 20
-558.4663965671873
 30
0.0
  0
VERTEX
  5
2473F
  8
1PHANTOM
 10
139.4262091978902
 20
-558.4505866564739
 30
0.0
  0
VERTEX
  5
24740
  8
1PHANTOM
 10
139.4485557335191
 20
-558.4344456471517
 30
0.0
  0
VERTEX
  5
24741
  8
1PHANTOM
 10
139.4707075840385
 20
-558.4179751368499
 30
0.0
  0
VERTEX
  5
24742
  8
1PHANTOM
 10
139.4926600980483
 20
-558.4011767231972
 30
0.0
  0
VERTEX
  5
24743
  8
1PHANTOM
 10
139.5144086241487
 20
-558.3840520038226
 30
0.0
  0
VERTEX
  5
24744
  8
1PHANTOM
 10
139.5359485109399
 20
-558.3666025763551
 30
0.0
  0
VERTEX
  5
24745
  8
1PHANTOM
 10
139.557275107022
 20
-558.3488300384236
 30
0.0
  0
VERTEX
  5
24746
  8
1PHANTOM
 10
139.5783837609952
 20
-558.330735987657
 30
0.0
  0
VERTEX
  5
24747
  8
1PHANTOM
 10
139.5992698214594
 20
-558.3123220216842
 30
0.0
  0
VERTEX
  5
24748
  8
1PHANTOM
 10
139.619928637015
 20
-558.2935897381342
 30
0.0
  0
VERTEX
  5
24749
  8
1PHANTOM
 10
139.6403555562621
 20
-558.2745407346357
 30
0.0
  0
VERTEX
  5
2474A
  8
1PHANTOM
 10
139.6605459278006
 20
-558.2551766088179
 30
0.0
  0
VERTEX
  5
2474B
  8
1PHANTOM
 10
139.6804951002309
 20
-558.2354989583097
 30
0.0
  0
VERTEX
  5
2474C
  8
1PHANTOM
 10
139.7001983441057
 20
-558.2155096685623
 30
0.0
  0
VERTEX
  5
2474D
  8
1PHANTOM
 10
139.719650619904
 20
-558.1952117685153
 30
0.0
  0
VERTEX
  5
2474E
  8
1PHANTOM
 10
139.7388468111119
 20
-558.1746085710427
 30
0.0
  0
VERTEX
  5
2474F
  8
1PHANTOM
 10
139.7577818012153
 20
-558.1537033890185
 30
0.0
  0
VERTEX
  5
24750
  8
1PHANTOM
 10
139.7764504737002
 20
-558.1324995353167
 30
0.0
  0
VERTEX
  5
24751
  8
1PHANTOM
 10
139.7948477120527
 20
-558.1110003228115
 30
0.0
  0
VERTEX
  5
24752
  8
1PHANTOM
 10
139.8129683997586
 20
-558.089209064377
 30
0.0
  0
VERTEX
  5
24753
  8
1PHANTOM
 10
139.830807420304
 20
-558.067129072887
 30
0.0
  0
VERTEX
  5
24754
  8
1PHANTOM
 10
139.8483596571748
 20
-558.0447636612158
 30
0.0
  0
VERTEX
  5
24755
  8
1PHANTOM
 10
139.8656199938571
 20
-558.0221161422373
 30
0.0
  0
VERTEX
  5
24756
  8
1PHANTOM
 10
139.8825833138367
 20
-557.9991898288257
 30
0.0
  0
VERTEX
  5
24757
  8
1PHANTOM
 10
139.8992445005998
 20
-557.9759880338548
 30
0.0
  0
VERTEX
  5
24758
  8
1PHANTOM
 10
139.9155984376323
 20
-557.952514070199
 30
0.0
  0
VERTEX
  5
24759
  8
1PHANTOM
 10
139.9316400084201
 20
-557.9287712507321
 30
0.0
  0
VERTEX
  5
2475A
  8
1PHANTOM
 10
139.947364084879
 20
-557.9047630093895
 30
0.0
  0
VERTEX
  5
2475B
  8
1PHANTOM
 10
139.9627654302872
 20
-557.8804939167861
 30
0.0
  0
VERTEX
  5
2475C
  8
1PHANTOM
 10
139.9778387484363
 20
-557.8559691659557
 30
0.0
  0
VERTEX
  5
2475D
  8
1PHANTOM
 10
139.9925787425094
 20
-557.8311939562935
 30
0.0
  0
VERTEX
  5
2475E
  8
1PHANTOM
 10
140.0069801156898
 20
-557.8061734871959
 30
0.0
  0
VERTEX
  5
2475F
  8
1PHANTOM
 10
140.0210375711607
 20
-557.7809129580585
 30
0.0
  0
VERTEX
  5
24760
  8
1PHANTOM
 10
140.0347458121053
 20
-557.7554175682772
 30
0.0
  0
VERTEX
  5
24761
  8
1PHANTOM
 10
140.048099541707
 20
-557.7296925172478
 30
0.0
  0
VERTEX
  5
24762
  8
1PHANTOM
 10
140.0610934631489
 20
-557.7037430043662
 30
0.0
  0
VERTEX
  5
24763
  8
1PHANTOM
 10
140.0737222796143
 20
-557.6775742290282
 30
0.0
  0
VERTEX
  5
24764
  8
1PHANTOM
 10
140.0859806942864
 20
-557.6511913906296
 30
0.0
  0
VERTEX
  5
24765
  8
1PHANTOM
 10
140.0978634103485
 20
-557.6245996885663
 30
0.0
  0
VERTEX
  5
24766
  8
1PHANTOM
 10
140.1093651309837
 20
-557.5978043222342
 30
0.0
  0
VERTEX
  5
24767
  8
1PHANTOM
 10
140.1204807588425
 20
-557.5708105327371
 30
0.0
  0
VERTEX
  5
24768
  8
1PHANTOM
 10
140.1312083321831
 20
-557.5436242168265
 30
0.0
  0
VERTEX
  5
24769
  8
1PHANTOM
 10
140.1415483826937
 20
-557.5162517926237
 30
0.0
  0
VERTEX
  5
2476A
  8
1PHANTOM
 10
140.1515015109756
 20
-557.4886996926596
 30
0.0
  0
VERTEX
  5
2476B
  8
1PHANTOM
 10
140.1610683176303
 20
-557.4609743494649
 30
0.0
  0
VERTEX
  5
2476C
  8
1PHANTOM
 10
140.170249403259
 20
-557.4330821955707
 30
0.0
  0
VERTEX
  5
2476D
  8
1PHANTOM
 10
140.1790453684633
 20
-557.4050296635078
 30
0.0
  0
VERTEX
  5
2476E
  8
1PHANTOM
 10
140.1874568138444
 20
-557.376823185807
 30
0.0
  0
VERTEX
  5
2476F
  8
1PHANTOM
 10
140.1954843400038
 20
-557.348469194999
 30
0.0
  0
VERTEX
  5
24770
  8
1PHANTOM
 10
140.2031279686338
 20
-557.3199741583237
 30
0.0
  0
VERTEX
  5
24771
  8
1PHANTOM
 10
140.2103775398493
 20
-557.291345153463
 30
0.0
  0
VERTEX
  5
24772
  8
1PHANTOM
 10
140.2172141980516
 20
-557.262589779455
 30
0.0
  0
VERTEX
  5
24773
  8
1PHANTOM
 10
140.2236188082259
 20
-557.2337156520906
 30
0.0
  0
VERTEX
  5
24774
  8
1PHANTOM
 10
140.2295722353571
 20
-557.2047303871607
 30
0.0
  0
VERTEX
  5
24775
  8
1PHANTOM
 10
140.2350553444305
 20
-557.1756416004558
 30
0.0
  0
VERTEX
  5
24776
  8
1PHANTOM
 10
140.2400490004312
 20
-557.1464569077671
 30
0.0
  0
VERTEX
  5
24777
  8
1PHANTOM
 10
140.2445340683442
 20
-557.1171839248851
 30
0.0
  0
VERTEX
  5
24778
  8
1PHANTOM
 10
140.2484914131547
 20
-557.0878302676007
 30
0.0
  0
VERTEX
  5
24779
  8
1PHANTOM
 10
140.2519062812182
 20
-557.0584035792241
 30
0.0
  0
VERTEX
  5
2477A
  8
1PHANTOM
 10
140.2548120955161
 20
-557.0289118056627
 30
0.0
  0
VERTEX
  5
2477B
  8
1PHANTOM
 10
140.257272099866
 20
-556.9993630801279
 30
0.0
  0
VERTEX
  5
2477C
  8
1PHANTOM
 10
140.2593499814032
 20
-556.9697655386159
 30
0.0
  0
VERTEX
  5
2477D
  8
1PHANTOM
 10
140.2611094272631
 20
-556.9401273171231
 30
0.0
  0
VERTEX
  5
2477E
  8
1PHANTOM
 10
140.2626141245813
 20
-556.9104565516456
 30
0.0
  0
VERTEX
  5
2477F
  8
1PHANTOM
 10
140.2639277604931
 20
-556.8807613781794
 30
0.0
  0
VERTEX
  5
24780
  8
1PHANTOM
 10
140.2651140221341
 20
-556.851049932721
 30
0.0
  0
VERTEX
  5
24781
  8
1PHANTOM
 10
140.2662365966396
 20
-556.8213303512664
 30
0.0
  0
SEQEND
  5
24C16
  8
1PHANTOM
  0
POLYLINE
  5
23ACA
  8
1PHANTOM
 66
     1
 10
0.0
 20
0.0
 30
0.0
  0
VERTEX
  5
24782
  8
1PHANTOM
 10
123.1662365966677
 20
-556.8213303512664
 30
0.0
  0
VERTEX
  5
24783
  8
1PHANTOM
 10
123.1667328272906
 20
-556.8473227232168
 30
0.0
  0
VERTEX
  5
24784
  8
1PHANTOM
 10
123.1673155610542
 20
-556.8733095721635
 30
0.0
  0
VERTEX
  5
24785
  8
1PHANTOM
 10
123.1680713010991
 20
-556.8992853751029
 30
0.0
  0
VERTEX
  5
24786
  8
1PHANTOM
 10
123.1690865505658
 20
-556.9252446090313
 30
0.0
  0
VERTEX
  5
24787
  8
1PHANTOM
 10
123.1704478069015
 20
-556.9511817509554
 30
0.0
  0
VERTEX
  5
24788
  8
1PHANTOM
 10
123.1722192439182
 20
-556.9770913177041
 30
0.0
  0
VERTEX
  5
24789
  8
1PHANTOM
 10
123.1743920824326
 20
-557.0029679562473
 30
0.0
  0
VERTEX
  5
2478A
  8
1PHANTOM
 10
123.1769426646625
 20
-557.0288063400959
 30
0.0
  0
VERTEX
  5
2478B
  8
1PHANTOM
 10
123.179847332826
 20
-557.0546011427615
 30
0.0
  0
VERTEX
  5
2478C
  8
1PHANTOM
 10
123.1830824309879
 20
-557.0803470377656
 30
0.0
  0
VERTEX
  5
2478D
  8
1PHANTOM
 10
123.1866301262613
 20
-557.1060387326544
 30
0.0
  0
VERTEX
  5
2478E
  8
1PHANTOM
 10
123.1904913097449
 20
-557.1316710443759
 30
0.0
  0
VERTEX
  5
2478F
  8
1PHANTOM
 10
123.1946706285569
 20
-557.1572388118248
 30
0.0
  0
VERTEX
  5
24790
  8
1PHANTOM
 10
123.1991727298157
 20
-557.1827368738955
 30
0.0
  0
VERTEX
  5
24791
  8
1PHANTOM
 10
123.204002260625
 20
-557.208160069483
 30
0.0
  0
VERTEX
  5
24792
  8
1PHANTOM
 10
123.2091624414238
 20
-557.2335032958637
 30
0.0
  0
VERTEX
  5
24793
  8
1PHANTOM
 10
123.2146511532155
 20
-557.2587616688098
 30
0.0
  0
VERTEX
  5
24794
  8
1PHANTOM
 10
123.2204650281139
 20
-557.2839303552004
 30
0.0
  0
VERTEX
  5
24795
  8
1PHANTOM
 10
123.2266006982329
 20
-557.3090045219141
 30
0.0
  0
VERTEX
  5
24796
  8
1PHANTOM
 10
123.2330547956863
 20
-557.3339793358296
 30
0.0
  0
VERTEX
  5
24797
  8
1PHANTOM
 10
123.2398241166457
 20
-557.3588499457585
 30
0.0
  0
VERTEX
  5
24798
  8
1PHANTOM
 10
123.2469062890039
 20
-557.3836114089172
 30
0.0
  0
VERTEX
  5
24799
  8
1PHANTOM
 10
123.2542992035929
 20
-557.4082587535659
 30
0.0
  0
VERTEX
  5
2479A
  8
1PHANTOM
 10
123.2620007513474
 20
-557.4327870079524
 30
0.0
  0
VERTEX
  5
2479B
  8
1PHANTOM
 10
123.2700088232017
 20
-557.4571912003256
 30
0.0
  0
VERTEX
  5
2479C
  8
1PHANTOM
 10
123.2783213161704
 20
-557.4814664920114
 30
0.0
  0
VERTEX
  5
2479D
  8
1PHANTOM
 10
123.2869361755921
 20
-557.505609102043
 30
0.0
  0
VERTEX
  5
2479E
  8
1PHANTOM
 10
123.2958513698653
 20
-557.5296157541896
 30
0.0
  0
VERTEX
  5
2479F
  8
1PHANTOM
 10
123.3050648675311
 20
-557.5534831753378
 30
0.0
  0
VERTEX
  5
247A0
  8
1PHANTOM
 10
123.3145746371306
 20
-557.5772080923736
 30
0.0
  0
VERTEX
  5
247A1
  8
1PHANTOM
 10
123.324378605058
 20
-557.6007872148429
 30
0.0
  0
VERTEX
  5
247A2
  8
1PHANTOM
 10
123.3344740628337
 20
-557.624216991086
 30
0.0
  0
VERTEX
  5
247A3
  8
1PHANTOM
 10
123.3448578110778
 20
-557.6474936674731
 30
0.0
  0
VERTEX
  5
247A4
  8
1PHANTOM
 10
123.3555266376566
 20
-557.6706134851269
 30
0.0
  0
VERTEX
  5
247A5
  8
1PHANTOM
 10
123.3664773304363
 20
-557.6935726851698
 30
0.0
  0
VERTEX
  5
247A6
  8
1PHANTOM
 10
123.3777066772831
 20
-557.7163675087247
 30
0.0
  0
VERTEX
  5
247A7
  8
1PHANTOM
 10
123.3892114660634
 20
-557.7389941969142
 30
0.0
  0
VERTEX
  5
247A8
  8
1PHANTOM
 10
123.4009884846433
 20
-557.7614489908609
 30
0.0
  0
VERTEX
  5
247A9
  8
1PHANTOM
 10
123.4130345208891
 20
-557.7837281316876
 30
0.0
  0
VERTEX
  5
247AA
  8
1PHANTOM
 10
123.425346362667
 20
-557.8058278605168
 30
0.0
  0
VERTEX
  5
247AB
  8
1PHANTOM
 10
123.4379207978433
 20
-557.8277444184713
 30
0.0
  0
VERTEX
  5
247AC
  8
1PHANTOM
 10
123.4507546142843
 20
-557.8494740466737
 30
0.0
  0
VERTEX
  5
247AD
  8
1PHANTOM
 10
123.4638445998562
 20
-557.8710129862467
 30
0.0
  0
VERTEX
  5
247AE
  8
1PHANTOM
 10
123.4771875424252
 20
-557.8923574783129
 30
0.0
  0
VERTEX
  5
247AF
  8
1PHANTOM
 10
123.4907802298576
 20
-557.9135037639949
 30
0.0
  0
VERTEX
  5
247B0
  8
1PHANTOM
 10
123.5046194406787
 20
-557.9344481381631
 30
0.0
  0
VERTEX
  5
247B1
  8
1PHANTOM
 10
123.5187018050174
 20
-557.9551877495534
 30
0.0
  0
VERTEX
  5
247B2
  8
1PHANTOM
 10
123.533023834187
 20
-557.9757204305604
 30
0.0
  0
VERTEX
  5
247B3
  8
1PHANTOM
 10
123.5475820361678
 20
-557.9960440327576
 30
0.0
  0
VERTEX
  5
247B4
  8
1PHANTOM
 10
123.5623729189401
 20
-558.016156407718
 30
0.0
  0
VERTEX
  5
247B5
  8
1PHANTOM
 10
123.5773929904843
 20
-558.0360554070148
 30
0.0
  0
VERTEX
  5
247B6
  8
1PHANTOM
 10
123.5926387587805
 20
-558.0557388822211
 30
0.0
  0
VERTEX
  5
247B7
  8
1PHANTOM
 10
123.6081067318092
 20
-558.0752046849102
 30
0.0
  0
VERTEX
  5
247B8
  8
1PHANTOM
 10
123.6237934175506
 20
-558.094450666655
 30
0.0
  0
VERTEX
  5
247B9
  8
1PHANTOM
 10
123.639695323985
 20
-558.1134746790291
 30
0.0
  0
VERTEX
  5
247BA
  8
1PHANTOM
 10
123.6558089590927
 20
-558.1322745736052
 30
0.0
  0
VERTEX
  5
247BB
  8
1PHANTOM
 10
123.672130830854
 20
-558.1508482019567
 30
0.0
  0
VERTEX
  5
247BC
  8
1PHANTOM
 10
123.6886574472492
 20
-558.1691934156567
 30
0.0
  0
VERTEX
  5
247BD
  8
1PHANTOM
 10
123.7053853162586
 20
-558.1873080662783
 30
0.0
  0
VERTEX
  5
247BE
  8
1PHANTOM
 10
123.7223109458625
 20
-558.2051900053949
 30
0.0
  0
VERTEX
  5
247BF
  8
1PHANTOM
 10
123.7394308440412
 20
-558.2228370845794
 30
0.0
  0
VERTEX
  5
247C0
  8
1PHANTOM
 10
123.7567415198003
 20
-558.2402471588305
 30
0.0
  0
VERTEX
  5
247C1
  8
1PHANTOM
 10
123.7742395833622
 20
-558.2574184212959
 30
0.0
  0
VERTEX
  5
247C2
  8
1PHANTOM
 10
123.7919218303006
 20
-558.2743496843541
 30
0.0
  0
VERTEX
  5
247C3
  8
1PHANTOM
 10
123.8097850759978
 20
-558.2910398265598
 30
0.0
  0
VERTEX
  5
247C4
  8
1PHANTOM
 10
123.827826135836
 20
-558.3074877264678
 30
0.0
  0
VERTEX
  5
247C5
  8
1PHANTOM
 10
123.8460418251972
 20
-558.3236922626329
 30
0.0
  0
VERTEX
  5
247C6
  8
1PHANTOM
 10
123.8644289594636
 20
-558.3396523136098
 30
0.0
  0
VERTEX
  5
247C7
  8
1PHANTOM
 10
123.8829843540174
 20
-558.3553667579533
 30
0.0
  0
VERTEX
  5
247C8
  8
1PHANTOM
 10
123.9017048242408
 20
-558.3708344742182
 30
0.0
  0
VERTEX
  5
247C9
  8
1PHANTOM
 10
123.920587185516
 20
-558.3860543409593
 30
0.0
  0
VERTEX
  5
247CA
  8
1PHANTOM
 10
123.9396282532249
 20
-558.4010252367315
 30
0.0
  0
VERTEX
  5
247CB
  8
1PHANTOM
 10
123.9588248427499
 20
-558.4157460400892
 30
0.0
  0
VERTEX
  5
247CC
  8
1PHANTOM
 10
123.9781737694731
 20
-558.4302156295875
 30
0.0
  0
VERTEX
  5
247CD
  8
1PHANTOM
 10
123.9976718487766
 20
-558.444432883781
 30
0.0
  0
VERTEX
  5
247CE
  8
1PHANTOM
 10
124.0173158960427
 20
-558.4583966812246
 30
0.0
  0
VERTEX
  5
247CF
  8
1PHANTOM
 10
124.0371027266534
 20
-558.472105900473
 30
0.0
  0
VERTEX
  5
247D0
  8
1PHANTOM
 10
124.0570291560133
 20
-558.4855594201694
 30
0.0
  0
VERTEX
  5
247D1
  8
1PHANTOM
 10
124.0770920320145
 20
-558.4987562471811
 30
0.0
  0
VERTEX
  5
247D2
  8
1PHANTOM
 10
124.0972883000176
 20
-558.5116957730708
 30
0.0
  0
VERTEX
  5
247D3
  8
1PHANTOM
 10
124.1176149235854
 20
-558.5243774612435
 30
0.0
  0
VERTEX
  5
247D4
  8
1PHANTOM
 10
124.1380688662807
 20
-558.536800775104
 30
0.0
  0
VERTEX
  5
247D5
  8
1PHANTOM
 10
124.1586470916665
 20
-558.5489651780568
 30
0.0
  0
VERTEX
  5
247D6
  8
1PHANTOM
 10
124.1793465633054
 20
-558.5608701335074
 30
0.0
  0
VERTEX
  5
247D7
  8
1PHANTOM
 10
124.2001642447604
 20
-558.5725151048599
 30
0.0
  0
VERTEX
  5
247D8
  8
1PHANTOM
 10
124.2210970995943
 20
-558.5838995555195
 30
0.0
  0
VERTEX
  5
247D9
  8
1PHANTOM
 10
124.24214209137
 20
-558.595022948891
 30
0.0
  0
VERTEX
  5
247DA
  8
1PHANTOM
 10
124.2632961836501
 20
-558.6058847483791
 30
0.0
  0
VERTEX
  5
247DB
  8
1PHANTOM
 10
124.2845563399977
 20
-558.6164844173888
 30
0.0
  0
VERTEX
  5
247DC
  8
1PHANTOM
 10
124.3059195239756
 20
-558.6268214193249
 30
0.0
  0
VERTEX
  5
247DD
  8
1PHANTOM
 10
124.3273826991465
 20
-558.6368952175922
 30
0.0
  0
VERTEX
  5
247DE
  8
1PHANTOM
 10
124.3489428290733
 20
-558.6467052755953
 30
0.0
  0
VERTEX
  5
247DF
  8
1PHANTOM
 10
124.3705968773189
 20
-558.6562510567392
 30
0.0
  0
VERTEX
  5
247E0
  8
1PHANTOM
 10
124.392341807446
 20
-558.6655320244289
 30
0.0
  0
VERTEX
  5
247E1
  8
1PHANTOM
 10
124.4141745815262
 20
-558.6745476252228
 30
0.0
  0
VERTEX
  5
247E2
  8
1PHANTOM
 10
124.436092140086
 20
-558.6832970623121
 30
0.0
  0
VERTEX
  5
247E3
  8
1PHANTOM
 10
124.4580914074517
 20
-558.6917793558957
 30
0.0
  0
VERTEX
  5
247E4
  8
1PHANTOM
 10
124.4801693075548
 20
-558.6999935217096
 30
0.0
  0
VERTEX
  5
247E5
  8
1PHANTOM
 10
124.5023227643266
 20
-558.7079385754905
 30
0.0
  0
VERTEX
  5
247E6
  8
1PHANTOM
 10
124.5245487016985
 20
-558.7156135329741
 30
0.0
  0
VERTEX
  5
247E7
  8
1PHANTOM
 10
124.5468440436019
 20
-558.7230174098969
 30
0.0
  0
VERTEX
  5
247E8
  8
1PHANTOM
 10
124.5692057139681
 20
-558.7301492219954
 30
0.0
  0
VERTEX
  5
247E9
  8
1PHANTOM
 10
124.5916306371641
 20
-558.7370079869021
 30
0.0
  0
VERTEX
  5
247EA
  8
1PHANTOM
 10
124.6141159628711
 20
-558.7435937033113
 30
0.0
  0
VERTEX
  5
247EB
  8
1PHANTOM
 10
124.6366594336532
 20
-558.7499089514439
 30
0.0
  0
VERTEX
  5
247EC
  8
1PHANTOM
 10
124.6592588884363
 20
-558.7559567310976
 30
0.0
  0
VERTEX
  5
247ED
  8
1PHANTOM
 10
124.6819121661461
 20
-558.7617400420701
 30
0.0
  0
VERTEX
  5
247EE
  8
1PHANTOM
 10
124.7046171057085
 20
-558.7672618841592
 30
0.0
  0
VERTEX
  5
247EF
  8
1PHANTOM
 10
124.7273715460492
 20
-558.7725252571628
 30
0.0
  0
VERTEX
  5
247F0
  8
1PHANTOM
 10
124.7501733260941
 20
-558.7775331608783
 30
0.0
  0
VERTEX
  5
247F1
  8
1PHANTOM
 10
124.773020284769
 20
-558.782288595104
 30
0.0
  0
VERTEX
  5
247F2
  8
1PHANTOM
 10
124.7959102744465
 20
-558.7867930293887
 30
0.0
  0
VERTEX
  5
247F3
  8
1PHANTOM
 10
124.8188412277357
 20
-558.7910388025641
 30
0.0
  0
VERTEX
  5
247F4
  8
1PHANTOM
 10
124.8418111068794
 20
-558.7950148811241
 30
0.0
  0
VERTEX
  5
247F5
  8
1PHANTOM
 10
124.8648178741681
 20
-558.7987102261839
 30
0.0
  0
VERTEX
  5
247F6
  8
1PHANTOM
 10
124.8878594918921
 20
-558.8021137988578
 30
0.0
  0
VERTEX
  5
247F7
  8
1PHANTOM
 10
124.9109339223418
 20
-558.8052145602611
 30
0.0
  0
VERTEX
  5
247F8
  8
1PHANTOM
 10
124.9340391278075
 20
-558.8080014715088
 30
0.0
  0
VERTEX
  5
247F9
  8
1PHANTOM
 10
124.9571730705796
 20
-558.8104634937154
 30
0.0
  0
VERTEX
  5
247FA
  8
1PHANTOM
 10
124.9803337002022
 20
-558.8125902516343
 30
0.0
  0
VERTEX
  5
247FB
  8
1PHANTOM
 10
125.0035185380968
 20
-558.8143936604016
 30
0.0
  0
VERTEX
  5
247FC
  8
1PHANTOM
 10
125.0267245856569
 20
-558.8159127106437
 30
0.0
  0
VERTEX
  5
247FD
  8
1PHANTOM
 10
125.0499488129301
 20
-558.8171880250069
 30
0.0
  0
VERTEX
  5
247FE
  8
1PHANTOM
 10
125.0731881899644
 20
-558.8182602261377
 30
0.0
  0
VERTEX
  5
247FF
  8
1PHANTOM
 10
125.0964396868075
 20
-558.8191699366826
 30
0.0
  0
VERTEX
  5
24800
  8
1PHANTOM
 10
125.1197002735072
 20
-558.819957779288
 30
0.0
  0
VERTEX
  5
24801
  8
1PHANTOM
 10
125.1429669201112
 20
-558.8206643766003
 30
0.0
  0
VERTEX
  5
24802
  8
1PHANTOM
 10
125.1662365966676
 20
-558.8213303512664
 30
0.0
  0
SEQEND
  5
24C17
  8
1PHANTOM
  0
CIRCLE
  5
23ACB
  8
1PHANTOM
 10
131.7162365966535
 20
-553.8213303512664
 30
0.0
 40
1.65
  0
LINE
  5
23ACC
  8
1PHANTOM
 10
139.2662365966395
 20
-538.8213303512664
 30
0.0
 11
124.1662365966675
 21
-538.8213303512664
 31
0.0
  0
LINE
  5
23B3B
  8
01
 10
607.2162416153652
 20
-667.1213303512664
 30
0.0
 11
631.7162416153652
 21
-667.1213303512664
 31
0.0
  0
LINE
  5
23B3C
  8
01
 10
631.7162416153652
 20
-644.5213303512662
 30
0.0
 11
607.2162416153652
 21
-644.5213303512662
 31
0.0
  0
ARC
  5
23B3D
  8
01
 10
607.2162416153652
 20
-645.0213303512662
 30
0.0
 40
0.5000000000000568
 50
90.0
 51
180.0
  0
ARC
  5
23B3E
  8
01
 10
607.2162416153652
 20
-666.6213303512664
 30
0.0
 40
0.5000000000000568
 50
180.0
 51
270.0
  0
ARC
  5
23B51
  8
01
 10
631.7162416153652
 20
-655.8213303512664
 30
0.0
 40
11.30000000000007
 50
270.0000000000011
 51
90.0
  0
LINE
  5
23B52
  8
01
 10
606.7162416153652
 20
-655.8213303512664
 30
0.0
 11
606.7162416153652
 21
-666.6213303512664
 31
0.0
  0
LINE
  5
23B53
  8
01
 10
606.7162416153652
 20
-645.0213303512662
 30
0.0
 11
606.7162416153652
 21
-655.8213303512664
 31
0.0
  0
LINE
  5
23CAD
  8
01
  6
CONTINUOUS
 10
630.7162416153653
 20
-652.5713303512664
 30
0.0
 11
632.7162416153653
 21
-652.5713303512664
 31
0.0
  0
LINE
  5
23CB8
  8
1CENTER
 10
627.4662416153653
 20
-654.8213303428971
 30
0.0
 11
635.9662416153653
 21
-654.8213303512664
 31
0.0
  0
LINE
  5
23CBC
  8
01
  6
CONTINUOUS
 10
630.7162416153653
 20
-657.0713303512664
 30
0.0
 11
632.7162416153653
 21
-657.0713303512664
 31
0.0
  0
ARC
  5
23CBE
  8
01
 10
632.7162416153653
 20
-654.8213303512664
 30
0.0
 40
2.25
 50
0.0
 51
90.0
  0
ARC
  5
23CBF
  8
01
 10
632.7162416153653
 20
-654.8213303512664
 30
0.0
 40
2.25
 50
270.0
 51
0.0
  0
ARC
  5
23CC0
  8
01
 10
630.7162416153653
 20
-654.8213303512664
 30
0.0
 40
2.25
 50
90.0
 51
180.0
  0
ARC
  5
23CC1
  8
01
 10
630.7162416153653
 20
-654.8213303512664
 30
0.0
 40
2.25
 50
180.0
 51
270.0
  0
LINE
  5
23D7A
  8
1CENTER
 10
631.7162416153653
 20
-651.5713303512664
 30
0.0
 11
631.7162416153653
 21
-658.0713303512664
 31
0.0
  0
LINE
  5
23D7B
  8
01
 10
156.2162315779419
 20
-667.1213303512664
 30
0.0
 11
131.7162315779419
 21
-667.1213303512664
 31
0.0
  0
LINE
  5
23D7C
  8
01
 10
131.7162315779419
 20
-644.5213303512662
 30
0.0
 11
156.2162315779419
 21
-644.5213303512662
 31
0.0
  0
ARC
  5
23D7D
  8
01
 10
156.2162315779419
 20
-645.0213303512662
 30
0.0
 40
0.5000000000000568
 50
0.0
 51
90.0
  0
ARC
  5
23D7E
  8
01
 10
156.2162315779419
 20
-666.6213303512664
 30
0.0
 40
0.5000000000000568
 50
270.0
 51
0.0
  0
ARC
  5
23D7F
  8
01
 10
131.7162315779419
 20
-655.8213303512664
 30
0.0
 40
11.30000000000007
 50
90.0
 51
269.9999999999989
  0
LINE
  5
23D80
  8
01
 10
156.7162315779419
 20
-655.8213303512664
 30
0.0
 11
156.7162315779419
 21
-666.6213303512664
 31
0.0
  0
LINE
  5
23D81
  8
01
 10
156.7162315779419
 20
-645.0213303512662
 30
0.0
 11
156.7162315779419
 21
-655.8213303512664
 31
0.0
  0
LINE
  5
23D82
  8
01
  6
CONTINUOUS
 10
132.7162315779418
 20
-652.5713303512664
 30
0.0
 11
130.7162315779418
 21
-652.5713303512664
 31
0.0
  0
LINE
  5
23D83
  8
1CENTER
 10
135.9662315779418
 20
-654.8213303428972
 30
0.0
 11
127.4662315779418
 21
-654.8213303512664
 31
0.0
  0
LINE
  5
23D85
  8
01
  6
CONTINUOUS
 10
132.7162315779418
 20
-657.0713303512664
 30
0.0
 11
130.7162315779418
 21
-657.0713303512664
 31
0.0
  0
ARC
  5
23D87
  8
01
 10
130.7162315779418
 20
-654.8213303512664
 30
0.0
 40
2.25
 50
90.0
 51
180.0
  0
ARC
  5
23D88
  8
01
 10
130.7162315779418
 20
-654.8213303512664
 30
0.0
 40
2.25
 50
180.0
 51
270.0
  0
ARC
  5
23D89
  8
01
 10
132.7162315779418
 20
-654.8213303512664
 30
0.0
 40
2.25
 50
0.0
 51
90.0
  0
ARC
  5
23D8A
  8
01
 10
132.7162315779418
 20
-654.8213303512664
 30
0.0
 40
2.25
 50
270.0
 51
0.0
  0
LINE
  5
23D8B
  8
1CENTER
 10
131.7162315779418
 20
-651.5713303512664
 30
0.0
 11
131.7162315779418
 21
-658.0713303512664
 31
0.0
  0
LINE
  5
23D8C
  8
01
 10
156.7162445955976
 20
-666.8213302916618
 30
0.0
 11
156.7162445955976
 21
-644.821330410871
 31
0.0
  0
LINE
  5
23D8D
  8
01
 10
606.7162416153652
 20
-644.821330410871
 30
0.0
 11
606.7162416153652
 21
-666.8213302916618
 31
0.0
  0
LINE
  5
23D8E
  8
01
 10
606.7162416153652
 20
-644.821330410871
 30
0.0
 11
156.7162445955976
 21
-644.821330410871
 31
0.0
  0
LINE
  5
23D8F
  8
01
 10
156.7162445955976
 20
-666.8213302916618
 30
0.0
 11
606.7162416153652
 21
-666.8213302916618
 31
0.0
  0
LINE
  5
23DD5
  8
01
 10
763.0162416153653
 20
-644.5213303512652
 30
0.0
 11
717.0162416153653
 21
-644.5213303512652
 31
0.0
  0
LINE
  5
23DD6
  8
01
 10
747.9662416153651
 20
-667.1213303512653
 30
0.0
 11
763.0162416153653
 21
-667.1213303512653
 31
0.0
  0
LINE
  5
23DD7
  8
01
 10
717.0162416153653
 20
-667.1213303512653
 30
0.0
 11
741.4669116130467
 21
-667.1213303512653
 31
0.0
  0
POLYLINE
  5
23DD8
  8
01
 66
     1
 10
0.0
 20
0.0
 30
0.0
  0
VERTEX
  5
24803
  8
01
 10
747.9662416153651
 20
-667.1213303512653
 30
0.0
  0
VERTEX
  5
24804
  8
01
 10
747.9660468531241
 20
-667.1212742543521
 30
0.0
  0
VERTEX
  5
24805
  8
01
 10
747.9658389110773
 20
-667.1212143745504
 30
0.0
  0
VERTEX
  5
24806
  8
01
 10
747.9656046094186
 20
-667.1211469289718
 30
0.0
  0
VERTEX
  5
24807
  8
01
 10
747.9653307683421
 20
-667.1210681347278
 30
0.0
  0
VERTEX
  5
24808
  8
01
 10
747.9650042080419
 20
-667.1209742089299
 30
0.0
  0
VERTEX
  5
24809
  8
01
 10
747.9646117487122
 20
-667.1208613686896
 30
0.0
  0
VERTEX
  5
2480A
  8
01
 10
747.9641402105468
 20
-667.1207258311186
 30
0.0
  0
VERTEX
  5
2480B
  8
01
 10
747.9635764137399
 20
-667.1205638133284
 30
0.0
  0
VERTEX
  5
2480C
  8
01
 10
747.9629099817398
 20
-667.1203723399036
 30
0.0
  0
VERTEX
  5
2480D
  8
01
 10
747.9621416868112
 20
-667.120151646829
 30
0.0
  0
VERTEX
  5
2480E
  8
01
 10
747.9612750724656
 20
-667.119902768343
 30
0.0
  0
VERTEX
  5
2480F
  8
01
 10
747.9603136822147
 20
-667.119626738684
 30
0.0
  0
VERTEX
  5
24810
  8
01
 10
747.9592610595698
 20
-667.1193245920902
 30
0.0
  0
VERTEX
  5
24811
  8
01
 10
747.9581207480427
 20
-667.1189973627996
 30
0.0
  0
VERTEX
  5
24812
  8
01
 10
747.9568962911446
 20
-667.118646085051
 30
0.0
  0
VERTEX
  5
24813
  8
01
 10
747.9555912323873
 20
-667.1182717930824
 30
0.0
  0
VERTEX
  5
24814
  8
01
 10
747.9542083740213
 20
-667.1178753120632
 30
0.0
  0
VERTEX
  5
24815
  8
01
 10
747.9527475870783
 20
-667.1174566404276
 30
0.0
  0
VERTEX
  5
24816
  8
01
 10
747.9512080181446
 20
-667.1170155722831
 30
0.0
  0
VERTEX
  5
24817
  8
01
 10
747.9495888138061
 20
-667.1165519017377
 30
0.0
  0
VERTEX
  5
24818
  8
01
 10
747.9478891206496
 20
-667.116065422899
 30
0.0
  0
VERTEX
  5
24819
  8
01
 10
747.9461080852609
 20
-667.1155559298749
 30
0.0
  0
VERTEX
  5
2481A
  8
01
 10
747.9442448542263
 20
-667.115023216773
 30
0.0
  0
VERTEX
  5
2481B
  8
01
 10
747.9422985741322
 20
-667.1144670777013
 30
0.0
  0
VERTEX
  5
2481C
  8
01
 10
747.9402685554235
 20
-667.11388735401
 30
0.0
  0
VERTEX
  5
2481D
  8
01
 10
747.9381548738206
 20
-667.1132841076881
 30
0.0
  0
VERTEX
  5
2481E
  8
01
 10
747.9359578282758
 20
-667.1126574650849
 30
0.0
  0
VERTEX
  5
2481F
  8
01
 10
747.9336777177668
 20
-667.1120075525574
 30
0.0
  0
VERTEX
  5
24820
  8
01
 10
747.9313148412717
 20
-667.1113344964626
 30
0.0
  0
VERTEX
  5
24821
  8
01
 10
747.9288694977686
 20
-667.1106384231571
 30
0.0
  0
VERTEX
  5
24822
  8
01
 10
747.9263419862352
 20
-667.1099194589979
 30
0.0
  0
VERTEX
  5
24823
  8
01
 10
747.92373260565
 20
-667.1091777303421
 30
0.0
  0
VERTEX
  5
24824
  8
01
 10
747.9210416268501
 20
-667.108413358408
 30
0.0
  0
VERTEX
  5
24825
  8
01
 10
747.9182691651907
 20
-667.1076264360229
 30
0.0
  0
VERTEX
  5
24826
  8
01
 10
747.9154152826236
 20
-667.106817046263
 30
0.0
  0
VERTEX
  5
24827
  8
01
 10
747.9124800410524
 20
-667.1059852721953
 30
0.0
  0
VERTEX
  5
24828
  8
01
 10
747.9094635023804
 20
-667.1051311968872
 30
0.0
  0
VERTEX
  5
24829
  8
01
 10
747.9063657285111
 20
-667.1042549034056
 30
0.0
  0
VERTEX
  5
2482A
  8
01
 10
747.903186781348
 20
-667.1033564748177
 30
0.0
  0
VERTEX
  5
2482B
  8
01
 10
747.8999267227947
 20
-667.1024359941908
 30
0.0
  0
VERTEX
  5
2482C
  8
01
 10
747.8965856169259
 20
-667.1014935452606
 30
0.0
  0
VERTEX
  5
2482D
  8
01
 10
747.8931635538596
 20
-667.1005292197807
 30
0.0
  0
VERTEX
  5
2482E
  8
01
 10
747.889660640903
 20
-667.0995431147968
 30
0.0
  0
VERTEX
  5
2482F
  8
01
 10
747.8860769856677
 20
-667.0985353274484
 30
0.0
  0
VERTEX
  5
24830
  8
01
 10
747.8824126957654
 20
-667.097505954875
 30
0.0
  0
VERTEX
  5
24831
  8
01
 10
747.8786678788075
 20
-667.0964550942164
 30
0.0
  0
VERTEX
  5
24832
  8
01
 10
747.8748426424057
 20
-667.0953828426115
 30
0.0
  0
VERTEX
  5
24833
  8
01
 10
747.8709370941717
 20
-667.0942892972002
 30
0.0
  0
VERTEX
  5
24834
  8
01
 10
747.866951342366
 20
-667.0931745555941
 30
0.0
  0
VERTEX
  5
24835
  8
01
 10
747.8628855173406
 20
-667.0920387314718
 30
0.0
  0
VERTEX
  5
24836
  8
01
 10
747.8587397764483
 20
-667.0908819581502
 30
0.0
  0
VERTEX
  5
24837
  8
01
 10
747.8545142786855
 20
-667.0897043701419
 30
0.0
  0
VERTEX
  5
24838
  8
01
 10
747.8502091830492
 20
-667.0885061019593
 30
0.0
  0
VERTEX
  5
24839
  8
01
 10
747.8458246485357
 20
-667.0872872881147
 30
0.0
  0
VERTEX
  5
2483A
  8
01
 10
747.8413608341414
 20
-667.0860480631206
 30
0.0
  0
VERTEX
  5
2483B
  8
01
 10
747.8368178988632
 20
-667.0847885614896
 30
0.0
  0
VERTEX
  5
2483C
  8
01
 10
747.8321960016876
 20
-667.0835089177315
 30
0.0
  0
VERTEX
  5
2483D
  8
01
 10
747.8274952947859
 20
-667.0822092647472
 30
0.0
  0
VERTEX
  5
2483E
  8
01
 10
747.8227159116084
 20
-667.080889731017
 30
0.0
  0
VERTEX
  5
2483F
  8
01
 10
747.8178579824198
 20
-667.0795504442689
 30
0.0
  0
VERTEX
  5
24840
  8
01
 10
747.8129216374848
 20
-667.0781915322308
 30
0.0
  0
VERTEX
  5
24841
  8
01
 10
747.8079070070679
 20
-667.0768131226307
 30
0.0
  0
VERTEX
  5
24842
  8
01
 10
747.8028142214337
 20
-667.0754153431966
 30
0.0
  0
VERTEX
  5
24843
  8
01
 10
747.7976434108466
 20
-667.0739983216565
 30
0.0
  0
VERTEX
  5
24844
  8
01
 10
747.7923947055715
 20
-667.0725621857384
 30
0.0
  0
VERTEX
  5
24845
  8
01
 10
747.7870682418571
 20
-667.071107066705
 30
0.0
  0
VERTEX
  5
24846
  8
01
 10
747.7816641960534
 20
-667.0696331195064
 30
0.0
  0
VERTEX
  5
24847
  8
01
 10
747.776182760987
 20
-667.0681405088246
 30
0.0
  0
VERTEX
  5
24848
  8
01
 10
747.770624129535
 20
-667.0666293993721
 30
0.0
  0
VERTEX
  5
24849
  8
01
 10
747.7649884945745
 20
-667.0650999558609
 30
0.0
  0
VERTEX
  5
2484A
  8
01
 10
747.7592760489827
 20
-667.0635523430032
 30
0.0
  0
VERTEX
  5
2484B
  8
01
 10
747.7534869856368
 20
-667.0619867255111
 30
0.0
  0
VERTEX
  5
2484C
  8
01
 10
747.7476214974137
 20
-667.0604032680969
 30
0.0
  0
VERTEX
  5
2484D
  8
01
 10
747.7416797739022
 20
-667.0588021346874
 30
0.0
  0
VERTEX
  5
2484E
  8
01
 10
747.7356619828179
 20
-667.0571834839853
 30
0.0
  0
VERTEX
  5
2484F
  8
01
 10
747.729568282949
 20
-667.0555474725609
 30
0.0
  0
VERTEX
  5
24850
  8
01
 10
747.7233988330573
 20
-667.0538942569783
 30
0.0
  0
VERTEX
  5
24851
  8
01
 10
747.7171537919046
 20
-667.0522239938016
 30
0.0
  0
VERTEX
  5
24852
  8
01
 10
747.7108333182529
 20
-667.0505368395951
 30
0.0
  0
VERTEX
  5
24853
  8
01
 10
747.704437570864
 20
-667.0488329509229
 30
0.0
  0
VERTEX
  5
24854
  8
01
 10
747.6979667084997
 20
-667.0471124843491
 30
0.0
  0
VERTEX
  5
24855
  8
01
 10
747.6914208956046
 20
-667.0453755995084
 30
0.0
  0
VERTEX
  5
24856
  8
01
 10
747.6848003341449
 20
-667.0436224763091
 30
0.0
  0
VERTEX
  5
24857
  8
01
 10
747.6781052412997
 20
-667.0418533028801
 30
0.0
  0
VERTEX
  5
24858
  8
01
 10
747.6713358342914
 20
-667.0400682673727
 30
0.0
  0
VERTEX
  5
24859
  8
01
 10
747.6644923303421
 20
-667.0382675579391
 30
0.0
  0
VERTEX
  5
2485A
  8
01
 10
747.6575749466742
 20
-667.036451362731
 30
0.0
  0
VERTEX
  5
2485B
  8
01
 10
747.6505839005102
 20
-667.0346198699001
 30
0.0
  0
VERTEX
  5
2485C
  8
01
 10
747.6435194090724
 20
-667.0327732675985
 30
0.0
  0
VERTEX
  5
2485D
  8
01
 10
747.6363816868109
 20
-667.0309117433984
 30
0.0
  0
VERTEX
  5
2485E
  8
01
 10
747.6291709265856
 20
-667.0290354803604
 30
0.0
  0
VERTEX
  5
2485F
  8
01
 10
747.6218873111319
 20
-667.0271446594292
 30
0.0
  0
VERTEX
  5
24860
  8
01
 10
747.6145310231266
 20
-667.0252394615368
 30
0.0
  0
VERTEX
  5
24861
  8
01
 10
747.6071022452463
 20
-667.0233200676159
 30
0.0
  0
VERTEX
  5
24862
  8
01
 10
747.5996011601683
 20
-667.0213866585985
 30
0.0
  0
VERTEX
  5
24863
  8
01
 10
747.5920279505692
 20
-667.0194394154174
 30
0.0
  0
VERTEX
  5
24864
  8
01
 10
747.5843827991259
 20
-667.0174785190046
 30
0.0
  0
VERTEX
  5
24865
  8
01
 10
747.5766658920203
 20
-667.0155041519898
 30
0.0
  0
VERTEX
  5
24866
  8
01
 10
747.5688774478367
 20
-667.0135165126919
 30
0.0
  0
VERTEX
  5
24867
  8
01
 10
747.5610177026844
 20
-667.0115158079154
 30
0.0
  0
VERTEX
  5
24868
  8
01
 10
747.5530868928436
 20
-667.0095022445481
 30
0.0
  0
VERTEX
  5
24869
  8
01
 10
747.5450852545956
 20
-667.0074760294777
 30
0.0
  0
VERTEX
  5
2486A
  8
01
 10
747.537013024221
 20
-667.0054373695918
 30
0.0
  0
VERTEX
  5
2486B
  8
01
 10
747.5288704380006
 20
-667.0033864717783
 30
0.0
  0
VERTEX
  5
2486C
  8
01
 10
747.520657732215
 20
-667.0013235429245
 30
0.0
  0
VERTEX
  5
2486D
  8
01
 10
747.5123751424064
 20
-666.9992487897902
 30
0.0
  0
VERTEX
  5
2486E
  8
01
 10
747.5040228881114
 20
-666.9971624163535
 30
0.0
  0
VERTEX
  5
2486F
  8
01
 10
747.4956011733931
 20
-666.9950646239046
 30
0.0
  0
VERTEX
  5
24870
  8
01
 10
747.487110201681
 20
-666.9929556136232
 30
0.0
  0
VERTEX
  5
24871
  8
01
 10
747.4785501764057
 20
-666.9908355866896
 30
0.0
  0
VERTEX
  5
24872
  8
01
 10
747.4699213009969
 20
-666.9887047442835
 30
0.0
  0
VERTEX
  5
24873
  8
01
 10
747.4612237788849
 20
-666.9865632875851
 30
0.0
  0
VERTEX
  5
24874
  8
01
 10
747.4524578134997
 20
-666.9844114177743
 30
0.0
  0
VERTEX
  5
24875
  8
01
 10
747.4436236084716
 20
-666.982249336114
 30
0.0
  0
VERTEX
  5
24876
  8
01
 10
747.4347213837568
 20
-666.9800772506259
 30
0.0
  0
VERTEX
  5
24877
  8
01
 10
747.4257513874505
 20
-666.9778953809815
 30
0.0
  0
VERTEX
  5
24878
  8
01
 10
747.416713870434
 20
-666.9757039480056
 30
0.0
  0
VERTEX
  5
24879
  8
01
 10
747.4076090835887
 20
-666.9735031725229
 30
0.0
  0
VERTEX
  5
2487A
  8
01
 10
747.3984372777956
 20
-666.9712932753581
 30
0.0
  0
VERTEX
  5
2487B
  8
01
 10
747.3891987039358
 20
-666.9690744773361
 30
0.0
  0
VERTEX
  5
2487C
  8
01
 10
747.3798936128903
 20
-666.9668469992814
 30
0.0
  0
VERTEX
  5
2487D
  8
01
 10
747.3705222555407
 20
-666.9646110620189
 30
0.0
  0
VERTEX
  5
2487E
  8
01
 10
747.361084877606
 20
-666.9623668856962
 30
0.0
  0
VERTEX
  5
2487F
  8
01
 10
747.3515817052478
 20
-666.9601146878954
 30
0.0
  0
VERTEX
  5
24880
  8
01
 10
747.342012959996
 20
-666.9578546855913
 30
0.0
  0
VERTEX
  5
24881
  8
01
 10
747.3323788633812
 20
-666.9555870957586
 30
0.0
  0
VERTEX
  5
24882
  8
01
 10
747.3226796369336
 20
-666.9533121353719
 30
0.0
  0
VERTEX
  5
24883
  8
01
 10
747.312915502183
 20
-666.9510300214059
 30
0.0
  0
VERTEX
  5
24884
  8
01
 10
747.30308668066
 20
-666.9487409708353
 30
0.0
  0
VERTEX
  5
24885
  8
01
 10
747.2931933938946
 20
-666.9464452006348
 30
0.0
  0
VERTEX
  5
24886
  8
01
 10
747.2832358662683
 20
-666.9441429286687
 30
0.0
  0
VERTEX
  5
24887
  8
01
 10
747.2732143476222
 20
-666.9418343807439
 30
0.0
  0
VERTEX
  5
24888
  8
01
 10
747.2631291011842
 20
-666.9395197868442
 30
0.0
  0
VERTEX
  5
24889
  8
01
 10
747.2529803903014
 20
-666.9371993769906
 30
0.0
  0
VERTEX
  5
2488A
  8
01
 10
747.2427684783212
 20
-666.9348733812038
 30
0.0
  0
VERTEX
  5
2488B
  8
01
 10
747.2324936285904
 20
-666.9325420295044
 30
0.0
  0
VERTEX
  5
2488C
  8
01
 10
747.2221561044565
 20
-666.9302055519134
 30
0.0
  0
VERTEX
  5
2488D
  8
01
 10
747.2117561692666
 20
-666.9278641784518
 30
0.0
  0
VERTEX
  5
2488E
  8
01
 10
747.2012940856097
 20
-666.9255181390781
 30
0.0
  0
VERTEX
  5
2488F
  8
01
 10
747.1907701022659
 20
-666.9231676626233
 30
0.0
  0
VERTEX
  5
24890
  8
01
 10
747.1801844559673
 20
-666.9208129769337
 30
0.0
  0
VERTEX
  5
24891
  8
01
 10
747.1695373830404
 20
-666.9184543098224
 30
0.0
  0
VERTEX
  5
24892
  8
01
 10
747.1588291198127
 20
-666.9160918891029
 30
0.0
  0
VERTEX
  5
24893
  8
01
 10
747.148059902611
 20
-666.913725942588
 30
0.0
  0
VERTEX
  5
24894
  8
01
 10
747.1372299677627
 20
-666.9113566980916
 30
0.0
  0
VERTEX
  5
24895
  8
01
 10
747.1263395515945
 20
-666.9089843834265
 30
0.0
  0
VERTEX
  5
24896
  8
01
 10
747.1153888907547
 20
-666.906609226462
 30
0.0
  0
VERTEX
  5
24897
  8
01
 10
747.1043782376972
 20
-666.9042314578238
 30
0.0
  0
VERTEX
  5
24898
  8
01
 10
747.0933078675738
 20
-666.901851312095
 30
0.0
  0
VERTEX
  5
24899
  8
01
 10
747.0821780572917
 20
-666.8994690241653
 30
0.0
  0
VERTEX
  5
2489A
  8
01
 10
747.0709890837586
 20
-666.8970848289243
 30
0.0
  0
VERTEX
  5
2489B
  8
01
 10
747.0597412238822
 20
-666.8946989612617
 30
0.0
  0
VERTEX
  5
2489C
  8
01
 10
747.0484347545699
 20
-666.892311656067
 30
0.0
  0
VERTEX
  5
2489D
  8
01
 10
747.0370699527294
 20
-666.8899231482296
 30
0.0
  0
VERTEX
  5
2489E
  8
01
 10
747.0256470952614
 20
-666.8875336726395
 30
0.0
  0
VERTEX
  5
2489F
  8
01
 10
747.0141664530776
 20
-666.8851434640387
 30
0.0
  0
VERTEX
  5
248A0
  8
01
 10
747.0026282801642
 20
-666.8827527567557
 30
0.0
  0
VERTEX
  5
248A1
  8
01
 10
746.9910328275378
 20
-666.880361785045
 30
0.0
  0
VERTEX
  5
248A2
  8
01
 10
746.9793803462151
 20
-666.8779707831621
 30
0.0
  0
VERTEX
  5
248A3
  8
01
 10
746.9676710872131
 20
-666.8755799853618
 30
0.0
  0
VERTEX
  5
248A4
  8
01
 10
746.9559053015485
 20
-666.8731896258995
 30
0.0
  0
VERTEX
  5
248A5
  8
01
 10
746.9440832402378
 20
-666.8707999390299
 30
0.0
  0
VERTEX
  5
248A6
  8
01
 10
746.9322051542982
 20
-666.8684111590085
 30
0.0
  0
VERTEX
  5
248A7
  8
01
 10
746.9202712992859
 20
-666.8660235201869
 30
0.0
  0
VERTEX
  5
248A8
  8
01
 10
746.908281957492
 20
-666.8636372574879
 30
0.0
  0
VERTEX
  5
248A9
  8
01
 10
746.8962374209606
 20
-666.8612526060425
 30
0.0
  0
VERTEX
  5
248AA
  8
01
 10
746.8841379817493
 20
-666.8588698009819
 30
0.0
  0
VERTEX
  5
248AB
  8
01
 10
746.8719839319168
 20
-666.8564890774369
 30
0.0
  0
VERTEX
  5
248AC
  8
01
 10
746.8597755635211
 20
-666.8541106705391
 30
0.0
  0
VERTEX
  5
248AD
  8
01
 10
746.8475131686204
 20
-666.8517348154195
 30
0.0
  0
VERTEX
  5
248AE
  8
01
 10
746.8351970392729
 20
-666.8493617472093
 30
0.0
  0
VERTEX
  5
248AF
  8
01
 10
746.8228274671825
 20
-666.8469917010605
 30
0.0
  0
VERTEX
  5
248B0
  8
01
 10
746.8104047339085
 20
-666.8446249127221
 30
0.0
  0
VERTEX
  5
248B1
  8
01
 10
746.7979291096128
 20
-666.8422616186142
 30
0.0
  0
VERTEX
  5
248B2
  8
01
 10
746.7854008638519
 20
-666.8399020551922
 30
0.0
  0
VERTEX
  5
248B3
  8
01
 10
746.7728202661821
 20
-666.8375464589117
 30
0.0
  0
VERTEX
  5
248B4
  8
01
 10
746.7601875861598
 20
-666.8351950662282
 30
0.0
  0
VERTEX
  5
248B5
  8
01
 10
746.747503093341
 20
-666.8328481135975
 30
0.0
  0
VERTEX
  5
248B6
  8
01
 10
746.7347670572825
 20
-666.8305058374748
 30
0.0
  0
VERTEX
  5
248B7
  8
01
 10
746.7219797475407
 20
-666.8281684743158
 30
0.0
  0
VERTEX
  5
248B8
  8
01
 10
746.7091414410415
 20
-666.825836259366
 30
0.0
  0
VERTEX
  5
248B9
  8
01
 10
746.6962524409737
 20
-666.8235094235582
 30
0.0
  0
VERTEX
  5
248BA
  8
01
 10
746.6833130563741
 20
-666.821188196865
 30
0.0
  0
VERTEX
  5
248BB
  8
01
 10
746.6703235962797
 20
-666.818872809259
 30
0.0
  0
VERTEX
  5
248BC
  8
01
 10
746.6572843697274
 20
-666.8165634907128
 30
0.0
  0
VERTEX
  5
248BD
  8
01
 10
746.6441956857543
 20
-666.8142604711988
 30
0.0
  0
VERTEX
  5
248BE
  8
01
 10
746.6310578533974
 20
-666.8119639806899
 30
0.0
  0
VERTEX
  5
248BF
  8
01
 10
746.6178711816934
 20
-666.8096742491585
 30
0.0
  0
VERTEX
  5
248C0
  8
01
 10
746.6046359791926
 20
-666.8073915066832
 30
0.0
  0
VERTEX
  5
248C1
  8
01
 10
746.5913525459405
 20
-666.8051159851926
 30
0.0
  0
VERTEX
  5
248C2
  8
01
 10
746.5780211747508
 20
-666.8028479181893
 30
0.0
  0
VERTEX
  5
248C3
  8
01
 10
746.5646421582072
 20
-666.8005875392255
 30
0.0
  0
VERTEX
  5
248C4
  8
01
 10
746.5512157888934
 20
-666.7983350818535
 30
0.0
  0
VERTEX
  5
248C5
  8
01
 10
746.5377423593928
 20
-666.7960907796256
 30
0.0
  0
VERTEX
  5
248C6
  8
01
 10
746.524222162289
 20
-666.7938548660942
 30
0.0
  0
VERTEX
  5
248C7
  8
01
 10
746.5106554901656
 20
-666.7916275748119
 30
0.0
  0
VERTEX
  5
248C8
  8
01
 10
746.4970426356101
 20
-666.7894091393291
 30
0.0
  0
VERTEX
  5
248C9
  8
01
 10
746.4833838991071
 20
-666.787199790094
 30
0.0
  0
VERTEX
  5
248CA
  8
01
 10
746.4696796056198
 20
-666.7849997479376
 30
0.0
  0
VERTEX
  5
248CB
  8
01
 10
746.4559300848384
 20
-666.7828092318332
 30
0.0
  0
VERTEX
  5
248CC
  8
01
 10
746.4421356664542
 20
-666.7806284607543
 30
0.0
  0
VERTEX
  5
248CD
  8
01
 10
746.4282966801576
 20
-666.7784576536743
 30
0.0
  0
VERTEX
  5
248CE
  8
01
 10
746.4144134556394
 20
-666.7762970295666
 30
0.0
  0
VERTEX
  5
248CF
  8
01
 10
746.4004863225902
 20
-666.7741468074045
 30
0.0
  0
VERTEX
  5
248D0
  8
01
 10
746.3865156107009
 20
-666.7720072061612
 30
0.0
  0
VERTEX
  5
248D1
  8
01
 10
746.3725016487584
 20
-666.7698784451894
 30
0.0
  0
VERTEX
  5
248D2
  8
01
 10
746.35844475744
 20
-666.7677607472401
 30
0.0
  0
VERTEX
  5
248D3
  8
01
 10
746.3443452531404
 20
-666.7656543368593
 30
0.0
  0
VERTEX
  5
248D4
  8
01
 10
746.3302034522164
 20
-666.763559438609
 30
0.0
  0
VERTEX
  5
248D5
  8
01
 10
746.3160196710247
 20
-666.7614762770519
 30
0.0
  0
VERTEX
  5
248D6
  8
01
 10
746.3017942259215
 20
-666.7594050767498
 30
0.0
  0
VERTEX
  5
248D7
  8
01
 10
746.2875274332636
 20
-666.757346062265
 30
0.0
  0
VERTEX
  5
248D8
  8
01
 10
746.2732196094073
 20
-666.7552994581597
 30
0.0
  0
VERTEX
  5
248D9
  8
01
 10
746.2588710711206
 20
-666.7532654887623
 30
0.0
  0
VERTEX
  5
248DA
  8
01
 10
746.244482151526
 20
-666.7512443691007
 30
0.0
  0
VERTEX
  5
248DB
  8
01
 10
746.2300532052095
 20
-666.7492363019985
 30
0.0
  0
VERTEX
  5
248DC
  8
01
 10
746.2155845882145
 20
-666.7472414894502
 30
0.0
  0
VERTEX
  5
248DD
  8
01
 10
746.2010766565832
 20
-666.7452601334506
 30
0.0
  0
VERTEX
  5
248DE
  8
01
 10
746.1865297663584
 20
-666.7432924359948
 30
0.0
  0
VERTEX
  5
248DF
  8
01
 10
746.1719442735828
 20
-666.7413385990776
 30
0.0
  0
VERTEX
  5
248E0
  8
01
 10
746.1573205342992
 20
-666.7393988246939
 30
0.0
  0
VERTEX
  5
248E1
  8
01
 10
746.1426589045502
 20
-666.7374733148384
 30
0.0
  0
VERTEX
  5
248E2
  8
01
 10
746.1279597382822
 20
-666.7355622726449
 30
0.0
  0
VERTEX
  5
248E3
  8
01
 10
746.1132233808431
 20
-666.7336659059183
 30
0.0
  0
VERTEX
  5
248E4
  8
01
 10
746.0984501753755
 20
-666.7317844236613
 30
0.0
  0
VERTEX
  5
248E5
  8
01
 10
746.083640465023
 20
-666.7299180348767
 30
0.0
  0
VERTEX
  5
248E6
  8
01
 10
746.0687945929283
 20
-666.7280669485666
 30
0.0
  0
VERTEX
  5
248E7
  8
01
 10
746.0539129022347
 20
-666.7262313737339
 30
0.0
  0
VERTEX
  5
248E8
  8
01
 10
746.0389957360856
 20
-666.7244115193811
 30
0.0
  0
VERTEX
  5
248E9
  8
01
 10
746.0240434376236
 20
-666.7226075945109
 30
0.0
  0
VERTEX
  5
248EA
  8
01
 10
746.0090563513779
 20
-666.7208198070582
 30
0.0
  0
VERTEX
  5
248EB
  8
01
 10
745.9940348437053
 20
-666.7190483481417
 30
0.0
  0
VERTEX
  5
248EC
  8
01
 10
745.9789792983444
 20
-666.7172933954894
 30
0.0
  0
VERTEX
  5
248ED
  8
01
 10
745.963890099515
 20
-666.7155551264582
 30
0.0
  0
VERTEX
  5
248EE
  8
01
 10
745.9487676314375
 20
-666.7138337184049
 30
0.0
  0
VERTEX
  5
248EF
  8
01
 10
745.933612278332
 20
-666.7121293486863
 30
0.0
  0
VERTEX
  5
248F0
  8
01
 10
745.9184244244187
 20
-666.7104421946597
 30
0.0
  0
VERTEX
  5
248F1
  8
01
 10
745.9032044539177
 20
-666.7087724336814
 30
0.0
  0
VERTEX
  5
248F2
  8
01
 10
745.8879527510492
 20
-666.7071202431085
 30
0.0
  0
VERTEX
  5
248F3
  8
01
 10
745.8726696985361
 20
-666.7054858016405
 30
0.0
  0
VERTEX
  5
248F4
  8
01
 10
745.8573556729393
 20
-666.703869293502
 30
0.0
  0
VERTEX
  5
248F5
  8
01
 10
745.8420110492344
 20
-666.7022709043396
 30
0.0
  0
VERTEX
  5
248F6
  8
01
 10
745.8266362023969
 20
-666.7006908197991
 30
0.0
  0
VERTEX
  5
248F7
  8
01
 10
745.8112315074025
 20
-666.6991292255275
 30
0.0
  0
VERTEX
  5
248F8
  8
01
 10
745.7957973392265
 20
-666.6975863071707
 30
0.0
  0
VERTEX
  5
248F9
  8
01
 10
745.7803340728448
 20
-666.696062250375
 30
0.0
  0
VERTEX
  5
248FA
  8
01
 10
745.7648420832327
 20
-666.6945572407868
 30
0.0
  0
VERTEX
  5
248FB
  8
01
 10
745.7493217457195
 20
-666.6930714636302
 30
0.0
  0
VERTEX
  5
248FC
  8
01
 10
745.7337734498936
 20
-666.6916050870948
 30
0.0
  0
VERTEX
  5
248FD
  8
01
 10
745.7181976041694
 20
-666.6901582568803
 30
0.0
  0
VERTEX
  5
248FE
  8
01
 10
745.7025946182512
 20
-666.6887311171466
 30
0.0
  0
VERTEX
  5
248FF
  8
01
 10
745.6869649018422
 20
-666.6873238120535
 30
0.0
  0
VERTEX
  5
24900
  8
01
 10
745.6713088646464
 20
-666.6859364857607
 30
0.0
  0
VERTEX
  5
24901
  8
01
 10
745.6556269163679
 20
-666.6845692824279
 30
0.0
  0
VERTEX
  5
24902
  8
01
 10
745.6399194667098
 20
-666.683222346215
 30
0.0
  0
VERTEX
  5
24903
  8
01
 10
745.6241869253765
 20
-666.6818958212815
 30
0.0
  0
VERTEX
  5
24904
  8
01
 10
745.6084297021599
 20
-666.6805898523797
 30
0.0
  0
VERTEX
  5
24905
  8
01
 10
745.5926482076788
 20
-666.6793045897969
 30
0.0
  0
VERTEX
  5
24906
  8
01
 10
745.5768428530024
 20
-666.6780401868393
 30
0.0
  0
VERTEX
  5
24907
  8
01
 10
745.5610140492047
 20
-666.6767967968442
 30
0.0
  0
VERTEX
  5
24908
  8
01
 10
745.5451622073596
 20
-666.6755745731487
 30
0.0
  0
VERTEX
  5
24909
  8
01
 10
745.5292877385411
 20
-666.6743736690897
 30
0.0
  0
VERTEX
  5
2490A
  8
01
 10
745.5133910538232
 20
-666.6731942380042
 30
0.0
  0
VERTEX
  5
2490B
  8
01
 10
745.4974725642796
 20
-666.6720364332294
 30
0.0
  0
VERTEX
  5
2490C
  8
01
 10
745.4815326809853
 20
-666.6709004081002
 30
0.0
  0
VERTEX
  5
2490D
  8
01
 10
745.4655718187288
 20
-666.6697863059773
 30
0.0
  0
VERTEX
  5
2490E
  8
01
 10
745.4495904045704
 20
-666.6686942372659
 30
0.0
  0
VERTEX
  5
2490F
  8
01
 10
745.4335888681004
 20
-666.667624305574
 30
0.0
  0
VERTEX
  5
24910
  8
01
 10
745.41756763891
 20
-666.6665766145098
 30
0.0
  0
VERTEX
  5
24911
  8
01
 10
745.4015271465901
 20
-666.6655512676816
 30
0.0
  0
VERTEX
  5
24912
  8
01
 10
745.3854678207314
 20
-666.6645483686974
 30
0.0
  0
VERTEX
  5
24913
  8
01
 10
745.369390090925
 20
-666.6635680211654
 30
0.0
  0
VERTEX
  5
24914
  8
01
 10
745.3532943867614
 20
-666.6626103286937
 30
0.0
  0
VERTEX
  5
24915
  8
01
 10
745.3371811381828
 20
-666.6616753965033
 30
0.0
  0
VERTEX
  5
24916
  8
01
 10
745.3210507768121
 20
-666.6607633375337
 30
0.0
  0
VERTEX
  5
24917
  8
01
 10
745.3049037347743
 20
-666.6598742670323
 30
0.0
  0
VERTEX
  5
24918
  8
01
 10
745.2887404441947
 20
-666.6590083002462
 30
0.0
  0
VERTEX
  5
24919
  8
01
 10
745.2725613371986
 20
-666.6581655524229
 30
0.0
  0
VERTEX
  5
2491A
  8
01
 10
745.2563668459112
 20
-666.6573461388098
 30
0.0
  0
VERTEX
  5
2491B
  8
01
 10
745.2401574024577
 20
-666.6565501746544
 30
0.0
  0
VERTEX
  5
2491C
  8
01
 10
745.2239334389633
 20
-666.6557777752037
 30
0.0
  0
VERTEX
  5
2491D
  8
01
 10
745.2076953893356
 20
-666.6550290507571
 30
0.0
  0
VERTEX
  5
2491E
  8
01
 10
745.1914436999754
 20
-666.6543040769304
 30
0.0
  0
VERTEX
  5
2491F
  8
01
 10
745.1751788226269
 20
-666.6536029145036
 30
0.0
  0
VERTEX
  5
24920
  8
01
 10
745.1589012090551
 20
-666.6529256241997
 30
0.0
  0
VERTEX
  5
24921
  8
01
 10
745.1426113110248
 20
-666.6522722667428
 30
0.0
  0
VERTEX
  5
24922
  8
01
 10
745.1263095803007
 20
-666.651642902856
 30
0.0
  0
VERTEX
  5
24923
  8
01
 10
745.1099964686475
 20
-666.651037593263
 30
0.0
  0
VERTEX
  5
24924
  8
01
 10
745.0936724278304
 20
-666.6504563986873
 30
0.0
  0
VERTEX
  5
24925
  8
01
 10
745.0773379094459
 20
-666.6498993803201
 30
0.0
  0
VERTEX
  5
24926
  8
01
 10
745.0609933628793
 20
-666.649366605509
 30
0.0
  0
VERTEX
  5
24927
  8
01
 10
745.0446392359565
 20
-666.6488581459433
 30
0.0
  0
VERTEX
  5
24928
  8
01
 10
745.0282759764704
 20
-666.6483740734038
 30
0.0
  0
VERTEX
  5
24929
  8
01
 10
745.0119040322138
 20
-666.647914459671
 30
0.0
  0
VERTEX
  5
2492A
  8
01
 10
744.9955238509799
 20
-666.6474793765254
 30
0.0
  0
VERTEX
  5
2492B
  8
01
 10
744.9791358805617
 20
-666.6470688957477
 30
0.0
  0
VERTEX
  5
2492C
  8
01
 10
744.9627405687519
 20
-666.6466830891184
 30
0.0
  0
VERTEX
  5
2492D
  8
01
 10
744.94633836355
 20
-666.646322027524
 30
0.0
  0
VERTEX
  5
2492E
  8
01
 10
744.9299297190394
 20
-666.6459857554819
 30
0.0
  0
VERTEX
  5
2492F
  8
01
 10
744.9135150962418
 20
-666.6456742874401
 30
0.0
  0
VERTEX
  5
24930
  8
01
 10
744.8970949565569
 20
-666.6453876362087
 30
0.0
  0
VERTEX
  5
24931
  8
01
 10
744.8806697613841
 20
-666.6451258145977
 30
0.0
  0
VERTEX
  5
24932
  8
01
 10
744.864239972123
 20
-666.6448888354171
 30
0.0
  0
VERTEX
  5
24933
  8
01
 10
744.8478060501731
 20
-666.644676711477
 30
0.0
  0
VERTEX
  5
24934
  8
01
 10
744.8313684569341
 20
-666.6444894555875
 30
0.0
  0
VERTEX
  5
24935
  8
01
 10
744.8149276538054
 20
-666.6443270805594
 30
0.0
  0
VERTEX
  5
24936
  8
01
 10
744.7984841015773
 20
-666.64418960144
 30
0.0
  0
VERTEX
  5
24937
  8
01
 10
744.782038259097
 20
-666.6440770404125
 30
0.0
  0
VERTEX
  5
24938
  8
01
 10
744.7655905848255
 20
-666.6439894210796
 30
0.0
  0
VERTEX
  5
24939
  8
01
 10
744.7491415372234
 20
-666.6439267670445
 30
0.0
  0
VERTEX
  5
2493A
  8
01
 10
744.7326915747514
 20
-666.6438891019101
 30
0.0
  0
VERTEX
  5
2493B
  8
01
 10
744.7162411558703
 20
-666.6438764492794
 30
0.0
  0
VERTEX
  5
2493C
  8
01
 10
744.6997907390408
 20
-666.6438888327557
 30
0.0
  0
VERTEX
  5
2493D
  8
01
 10
744.6833407827236
 20
-666.6439262759417
 30
0.0
  0
VERTEX
  5
2493E
  8
01
 10
744.6668917452936
 20
-666.6439887989459
 30
0.0
  0
VERTEX
  5
2493F
  8
01
 10
744.6504440842447
 20
-666.6440763860356
 30
0.0
  0
VERTEX
  5
24940
  8
01
 10
744.6339982565536
 20
-666.6441890004414
 30
0.0
  0
VERTEX
  5
24941
  8
01
 10
744.6175547191903
 20
-666.6443266051259
 30
0.0
  0
VERTEX
  5
24942
  8
01
 10
744.6011139291252
 20
-666.6444891630518
 30
0.0
  0
VERTEX
  5
24943
  8
01
 10
744.5846763433286
 20
-666.6446766371821
 30
0.0
  0
VERTEX
  5
24944
  8
01
 10
744.5682424187704
 20
-666.6448889904789
 30
0.0
  0
VERTEX
  5
24945
  8
01
 10
744.5518126124213
 20
-666.6451261859054
 30
0.0
  0
VERTEX
  5
24946
  8
01
 10
744.5353873812694
 20
-666.6453881864531
 30
0.0
  0
VERTEX
  5
24947
  8
01
 10
744.5189671843223
 20
-666.6456749582667
 30
0.0
  0
VERTEX
  5
24948
  8
01
 10
744.5025524843846
 20
-666.6459864734231
 30
0.0
  0
VERTEX
  5
24949
  8
01
 10
744.486143744681
 20
-666.6463227046554
 30
0.0
  0
VERTEX
  5
2494A
  8
01
 10
744.469741428436
 20
-666.6466836246964
 30
0.0
  0
VERTEX
  5
2494B
  8
01
 10
744.453345998874
 20
-666.6470692062788
 30
0.0
  0
VERTEX
  5
2494C
  8
01
 10
744.4369579192199
 20
-666.6474794221359
 30
0.0
  0
VERTEX
  5
2494D
  8
01
 10
744.4205776526982
 20
-666.6479142450002
 30
0.0
  0
VERTEX
  5
2494E
  8
01
 10
744.4042056625334
 20
-666.6483736476047
 30
0.0
  0
VERTEX
  5
2494F
  8
01
 10
744.3878424097829
 20
-666.6488575974067
 30
0.0
  0
VERTEX
  5
24950
  8
01
 10
744.371488340533
 20
-666.6493660254195
 30
0.0
  0
VERTEX
  5
24951
  8
01
 10
744.3551438945482
 20
-666.6498988472664
 30
0.0
  0
VERTEX
  5
24952
  8
01
 10
744.3388095115703
 20
-666.650455978517
 30
0.0
  0
VERTEX
  5
24953
  8
01
 10
744.3224856313416
 20
-666.6510373347404
 30
0.0
  0
VERTEX
  5
24954
  8
01
 10
744.3061726936039
 20
-666.6516428315058
 30
0.0
  0
VERTEX
  5
24955
  8
01
 10
744.2898711380993
 20
-666.6522723843825
 30
0.0
  0
VERTEX
  5
24956
  8
01
 10
744.27358140457
 20
-666.6529259089398
 30
0.0
  0
VERTEX
  5
24957
  8
01
 10
744.2573039339693
 20
-666.6536033224141
 30
0.0
  0
VERTEX
  5
24958
  8
01
 10
744.2410391728212
 20
-666.6543045497075
 30
0.0
  0
VERTEX
  5
24959
  8
01
 10
744.2247875692492
 20
-666.6550295179234
 30
0.0
  0
VERTEX
  5
2495A
  8
01
 10
744.2085495713771
 20
-666.6557781541651
 30
0.0
  0
VERTEX
  5
2495B
  8
01
 10
744.1923256273286
 20
-666.6565503855367
 30
0.0
  0
VERTEX
  5
2495C
  8
01
 10
744.1761161852273
 20
-666.6573461391415
 30
0.0
  0
VERTEX
  5
2495D
  8
01
 10
744.159921693197
 20
-666.6581653420832
 30
0.0
  0
VERTEX
  5
2495E
  8
01
 10
744.143742599359
 20
-666.6590079214599
 30
0.0
  0
VERTEX
  5
2495F
  8
01
 10
744.1275793472862
 20
-666.659873793395
 30
0.0
  0
VERTEX
  5
24960
  8
01
 10
744.1114323664739
 20
-666.6607628400495
 30
0.0
  0
VERTEX
  5
24961
  8
01
 10
744.0953020837026
 20
-666.6616749370334
 30
0.0
  0
VERTEX
  5
24962
  8
01
 10
744.0791889257531
 20
-666.6626099599572
 30
0.0
  0
VERTEX
  5
24963
  8
01
 10
744.0630933194058
 20
-666.6635677844312
 30
0.0
  0
VERTEX
  5
24964
  8
01
 10
744.0470156914412
 20
-666.6645482860661
 30
0.0
  0
VERTEX
  5
24965
  8
01
 10
744.03095646864
 20
-666.665551340472
 30
0.0
  0
VERTEX
  5
24966
  8
01
 10
744.0149160777834
 20
-666.6665768232673
 30
0.0
  0
VERTEX
  5
24967
  8
01
 10
743.9988949458096
 20
-666.6676246127198
 30
0.0
  0
VERTEX
  5
24968
  8
01
 10
743.982893500046
 20
-666.6686945936373
 30
0.0
  0
VERTEX
  5
24969
  8
01
 10
743.9669121678785
 20
-666.6697866518177
 30
0.0
  0
VERTEX
  5
2496A
  8
01
 10
743.9509513766933
 20
-666.6709006730591
 30
0.0
  0
VERTEX
  5
2496B
  8
01
 10
743.9350115538763
 20
-666.6720365431596
 30
0.0
  0
VERTEX
  5
2496C
  8
01
 10
743.9190931268134
 20
-666.6731941479173
 30
0.0
  0
VERTEX
  5
2496D
  8
01
 10
743.9031965228911
 20
-666.6743733731303
 30
0.0
  0
VERTEX
  5
2496E
  8
01
 10
743.8873221694363
 20
-666.6755741044883
 30
0.0
  0
VERTEX
  5
2496F
  8
01
 10
743.8714704861015
 20
-666.6767962135551
 30
0.0
  0
VERTEX
  5
24970
  8
01
 10
743.855641877329
 20
-666.6780395438984
 30
0.0
  0
VERTEX
  5
24971
  8
01
 10
743.83983674577
 20
-666.6793039357888
 30
0.0
  0
VERTEX
  5
24972
  8
01
 10
743.8240554940754
 20
-666.6805892294974
 30
0.0
  0
VERTEX
  5
24973
  8
01
 10
743.8082985248966
 20
-666.6818952652952
 30
0.0
  0
VERTEX
  5
24974
  8
01
 10
743.7925662408846
 20
-666.6832218834534
 30
0.0
  0
VERTEX
  5
24975
  8
01
 10
743.7768590446909
 20
-666.6845689242425
 30
0.0
  0
VERTEX
  5
24976
  8
01
 10
743.7611773389674
 20
-666.685936227939
 30
0.0
  0
VERTEX
  5
24977
  8
01
 10
743.7455215268528
 20
-666.6873236371127
 30
0.0
  0
VERTEX
  5
24978
  8
01
 10
743.7298920127267
 20
-666.6887310001878
 30
0.0
  0
VERTEX
  5
24979
  8
01
 10
743.7142892011641
 20
-666.6901581665097
 30
0.0
  0
VERTEX
  5
2497A
  8
01
 10
743.6987134967397
 20
-666.6916049854235
 30
0.0
  0
VERTEX
  5
2497B
  8
01
 10
743.6831653040286
 20
-666.6930713062746
 30
0.0
  0
VERTEX
  5
2497C
  8
01
 10
743.6676450276055
 20
-666.6945569784083
 30
0.0
  0
VERTEX
  5
2497D
  8
01
 10
743.6521530720454
 20
-666.6960618511696
 30
0.0
  0
VERTEX
  5
2497E
  8
01
 10
743.6366898419219
 20
-666.6975857739027
 30
0.0
  0
VERTEX
  5
2497F
  8
01
 10
743.6212557353755
 20
-666.6991285883678
 30
0.0
  0
VERTEX
  5
24980
  8
01
 10
743.6058511291786
 20
-666.7006901111383
 30
0.0
  0
VERTEX
  5
24981
  8
01
 10
743.5904763956731
 20
-666.7022701535645
 30
0.0
  0
VERTEX
  5
24982
  8
01
 10
743.5751319072008
 20
-666.7038685269968
 30
0.0
  0
VERTEX
  5
24983
  8
01
 10
743.5598180361034
 20
-666.7054850427851
 30
0.0
  0
VERTEX
  5
24984
  8
01
 10
743.5445351547226
 20
-666.70711951228
 30
0.0
  0
VERTEX
  5
24985
  8
01
 10
743.5292836354001
 20
-666.7087717468315
 30
0.0
  0
VERTEX
  5
24986
  8
01
 10
743.5140638504779
 20
-666.7104415577904
 30
0.0
  0
VERTEX
  5
24987
  8
01
 10
743.4988761732957
 20
-666.7121287574874
 30
0.0
  0
VERTEX
  5
24988
  8
01
 10
743.4837209823497
 20
-666.7138331633212
 30
0.0
  0
VERTEX
  5
24989
  8
01
 10
743.468598657797
 20
-666.7155545943219
 30
0.0
  0
VERTEX
  5
2498A
  8
01
 10
743.4535095797954
 20
-666.7172928695211
 30
0.0
  0
VERTEX
  5
2498B
  8
01
 10
743.4384541285025
 20
-666.7190478079496
 30
0.0
  0
VERTEX
  5
2498C
  8
01
 10
743.4234326840763
 20
-666.7208192286386
 30
0.0
  0
VERTEX
  5
2498D
  8
01
 10
743.4084456266744
 20
-666.7226069506193
 30
0.0
  0
VERTEX
  5
2498E
  8
01
 10
743.3934933364543
 20
-666.724410792923
 30
0.0
  0
VERTEX
  5
2498F
  8
01
 10
743.3785761906674
 20
-666.7262305723776
 30
0.0
  0
VERTEX
  5
24990
  8
01
 10
743.3636945427188
 20
-666.728066087737
 30
0.0
  0
VERTEX
  5
24991
  8
01
 10
743.3488487343243
 20
-666.7299171288951
 30
0.0
  0
VERTEX
  5
24992
  8
01
 10
743.3340391071198
 20
-666.7317834856851
 30
0.0
  0
VERTEX
  5
24993
  8
01
 10
743.3192660027407
 20
-666.7336649479405
 30
0.0
  0
VERTEX
  5
24994
  8
01
 10
743.3045297628231
 20
-666.7355613054942
 30
0.0
  0
VERTEX
  5
24995
  8
01
 10
743.2898307290023
 20
-666.7374723481794
 30
0.0
  0
VERTEX
  5
24996
  8
01
 10
743.2751692429143
 20
-666.7393978658291
 30
0.0
  0
VERTEX
  5
24997
  8
01
 10
743.2605456471355
 20
-666.741337648835
 30
0.0
  0
VERTEX
  5
24998
  8
01
 10
743.2459602913781
 20
-666.743291491821
 30
0.0
  0
VERTEX
  5
24999
  8
01
 10
743.2314135286265
 20
-666.7452591913517
 30
0.0
  0
VERTEX
  5
2499A
  8
01
 10
743.2169057118813
 20
-666.7472405440018
 30
0.0
  0
VERTEX
  5
2499B
  8
01
 10
743.202437194144
 20
-666.7492353463465
 30
0.0
  0
VERTEX
  5
2499C
  8
01
 10
743.1880083284153
 20
-666.7512433949604
 30
0.0
  0
VERTEX
  5
2499D
  8
01
 10
743.1736194676965
 20
-666.7532644864183
 30
0.0
  0
VERTEX
  5
2499E
  8
01
 10
743.1592709649887
 20
-666.7552984172951
 30
0.0
  0
VERTEX
  5
2499F
  8
01
 10
743.1449631700306
 20
-666.75734498223
 30
0.0
  0
VERTEX
  5
249A0
  8
01
 10
743.1306964096525
 20
-666.7594039622687
 30
0.0
  0
VERTEX
  5
249A1
  8
01
 10
743.1164710008678
 20
-666.7614751326322
 30
0.0
  0
VERTEX
  5
249A2
  8
01
 10
743.1022872606527
 20
-666.7635582685186
 30
0.0
  0
VERTEX
  5
249A3
  8
01
 10
743.0881455059831
 20
-666.765653145127
 30
0.0
  0
VERTEX
  5
249A4
  8
01
 10
743.0740460538353
 20
-666.7677595376557
 30
0.0
  0
VERTEX
  5
249A5
  8
01
 10
743.0599892211852
 20
-666.7698772213034
 30
0.0
  0
VERTEX
  5
249A6
  8
01
 10
743.0459753250091
 20
-666.7720059712688
 30
0.0
  0
VERTEX
  5
249A7
  8
01
 10
743.0320046831962
 20
-666.7741455631942
 30
0.0
  0
VERTEX
  5
249A8
  8
01
 10
743.0180776206579
 20
-666.7762957761365
 30
0.0
  0
VERTEX
  5
249A9
  8
01
 10
743.0041944655635
 20
-666.7784563907358
 30
0.0
  0
VERTEX
  5
249AA
  8
01
 10
742.9903555460999
 20
-666.780627187641
 30
0.0
  0
VERTEX
  5
249AB
  8
01
 10
742.9765611904535
 20
-666.7828079475009
 30
0.0
  0
VERTEX
  5
249AC
  8
01
 10
742.9628117268115
 20
-666.7849984509647
 30
0.0
  0
VERTEX
  5
249AD
  8
01
 10
742.9491074833608
 20
-666.7871984786811
 30
0.0
  0
VERTEX
  5
249AE
  8
01
 10
742.9354487882879
 20
-666.7894078112993
 30
0.0
  0
VERTEX
  5
249AF
  8
01
 10
742.9218359672553
 20
-666.7916262284365
 30
0.0
  0
VERTEX
  5
249B0
  8
01
 10
742.90826932463
 20
-666.7938535010115
 30
0.0
  0
VERTEX
  5
249B1
  8
01
 10
742.8947491540955
 20
-666.796089395579
 30
0.0
  0
VERTEX
  5
249B2
  8
01
 10
742.8812757492548
 20
-666.7983336786605
 30
0.0
  0
VERTEX
  5
249B3
  8
01
 10
742.8678494037111
 20
-666.8005861167777
 30
0.0
  0
VERTEX
  5
249B4
  8
01
 10
742.8544704110677
 20
-666.8028464764524
 30
0.0
  0
VERTEX
  5
249B5
  8
01
 10
742.8411390649276
 20
-666.805114524206
 30
0.0
  0
VERTEX
  5
249B6
  8
01
 10
742.8278556588941
 20
-666.8073900265606
 30
0.0
  0
VERTEX
  5
249B7
  8
01
 10
742.8146204870144
 20
-666.8096727501515
 30
0.0
  0
VERTEX
  5
249B8
  8
01
 10
742.8014338508688
 20
-666.8119624635466
 30
0.0
  0
VERTEX
  5
249B9
  8
01
 10
742.7882960583269
 20
-666.814258936927
 30
0.0
  0
VERTEX
  5
249BA
  8
01
 10
742.7752074174514
 20
-666.8165619405232
 30
0.0
  0
VERTEX
  5
249BB
  8
01
 10
742.7621682363049
 20
-666.8188712445658
 30
0.0
  0
VERTEX
  5
249BC
  8
01
 10
742.7491788229501
 20
-666.8211866192853
 30
0.0
  0
VERTEX
  5
249BD
  8
01
 10
742.7362394854497
 20
-666.8235078349123
 30
0.0
  0
VERTEX
  5
249BE
  8
01
 10
742.723350531866
 20
-666.8258346616774
 30
0.0
  0
VERTEX
  5
249BF
  8
01
 10
742.7105122699328
 20
-666.8281668697495
 30
0.0
  0
VERTEX
  5
249C0
  8
01
 10
742.6977249928153
 20
-666.8305042265778
 30
0.0
  0
VERTEX
  5
249C1
  8
01
 10
742.6849889736595
 20
-666.8328464958736
 30
0.0
  0
VERTEX
  5
249C2
  8
01
 10
742.6723044841576
 20
-666.8351934410765
 30
0.0
  0
VERTEX
  5
249C3
  8
01
 10
742.6596717960014
 20
-666.8375448256265
 30
0.0
  0
VERTEX
  5
249C4
  8
01
 10
742.6470911808829
 20
-666.8399004129633
 30
0.0
  0
VERTEX
  5
249C5
  8
01
 10
742.6345629104941
 20
-666.8422599665266
 30
0.0
  0
VERTEX
  5
249C6
  8
01
 10
742.6220872565268
 20
-666.8446232497562
 30
0.0
  0
VERTEX
  5
249C7
  8
01
 10
742.609664490681
 20
-666.8469900260926
 30
0.0
  0
VERTEX
  5
249C8
  8
01
 10
742.5972948893341
 20
-666.8493600594027
 30
0.0
  0
VERTEX
  5
249C9
  8
01
 10
742.5849787414833
 20
-666.8517331147038
 30
0.0
  0
VERTEX
  5
249CA
  8
01
 10
742.5727163382314
 20
-666.8541089572052
 30
0.0
  0
VERTEX
  5
249CB
  8
01
 10
742.5605079706822
 20
-666.8564873521161
 30
0.0
  0
VERTEX
  5
249CC
  8
01
 10
742.5483539299391
 20
-666.8588680646459
 30
0.0
  0
VERTEX
  5
249CD
  8
01
 10
742.5362545071054
 20
-666.8612508600037
 30
0.0
  0
VERTEX
  5
249CE
  8
01
 10
742.5242099932842
 20
-666.863635503399
 30
0.0
  0
VERTEX
  5
249CF
  8
01
 10
742.5122206795792
 20
-666.8660217600409
 30
0.0
  0
VERTEX
  5
249D0
  8
01
 10
742.5002868527073
 20
-666.8684093951489
 30
0.0
  0
VERTEX
  5
249D1
  8
01
 10
742.4884087747652
 20
-666.8707981739972
 30
0.0
  0
VERTEX
  5
249D2
  8
01
 10
742.4765866992645
 20
-666.87318786188
 30
0.0
  0
VERTEX
  5
249D3
  8
01
 10
742.464820879708
 20
-666.8755782240916
 30
0.0
  0
VERTEX
  5
249D4
  8
01
 10
742.4531115695983
 20
-666.8779690259255
 30
0.0
  0
VERTEX
  5
249D5
  8
01
 10
742.4414590224383
 20
-666.8803600326761
 30
0.0
  0
VERTEX
  5
249D6
  8
01
 10
742.4298634917307
 20
-666.8827510096373
 30
0.0
  0
VERTEX
  5
249D7
  8
01
 10
742.4183252309782
 20
-666.8851417221031
 30
0.0
  0
VERTEX
  5
249D8
  8
01
 10
742.4068444945719
 20
-666.8875319353627
 30
0.0
  0
VERTEX
  5
249D9
  8
01
 10
742.3954215495097
 20
-666.8899214146372
 30
0.0
  0
VERTEX
  5
249DA
  8
01
 10
742.3840566721558
 20
-666.8923099250972
 30
0.0
  0
VERTEX
  5
249DB
  8
01
 10
742.3727501390972
 20
-666.8946972319112
 30
0.0
  0
VERTEX
  5
249DC
  8
01
 10
742.3615022269204
 20
-666.8970831002491
 30
0.0
  0
VERTEX
  5
249DD
  8
01
 10
742.3503132122123
 20
-666.8994672952796
 30
0.0
  0
VERTEX
  5
249DE
  8
01
 10
742.3391833715596
 20
-666.901849582172
 30
0.0
  0
VERTEX
  5
249DF
  8
01
 10
742.3281129815489
 20
-666.9042297260954
 30
0.0
  0
VERTEX
  5
249E0
  8
01
 10
742.3171023185142
 20
-666.9066074922616
 30
0.0
  0
VERTEX
  5
249E1
  8
01
 10
742.3061516442278
 20
-666.9089826483307
 30
0.0
  0
VERTEX
  5
249E2
  8
01
 10
742.2952611982329
 20
-666.9113549657004
 30
0.0
  0
VERTEX
  5
249E3
  8
01
 10
742.2844312182
 20
-666.9137242160834
 30
0.0
  0
VERTEX
  5
249E4
  8
01
 10
742.2736619417998
 20
-666.9160901711925
 30
0.0
  0
VERTEX
  5
249E5
  8
01
 10
742.2629536067027
 20
-666.9184526027402
 30
0.0
  0
VERTEX
  5
249E6
  8
01
 10
742.2523064505795
 20
-666.9208112824392
 30
0.0
  0
VERTEX
  5
249E7
  8
01
 10
742.2417207111005
 20
-666.9231659820023
 30
0.0
  0
VERTEX
  5
249E8
  8
01
 10
742.2311966259363
 20
-666.925516473142
 30
0.0
  0
VERTEX
  5
249E9
  8
01
 10
742.2207344371549
 20
-666.9278625272474
 30
0.0
  0
VERTEX
  5
249EA
  8
01
 10
742.210334403981
 20
-666.9302039144441
 30
0.0
  0
VERTEX
  5
249EB
  8
01
 10
742.1999967898245
 20
-666.9325404045499
 30
0.0
  0
VERTEX
  5
249EC
  8
01
 10
742.1897218580941
 20
-666.9348717673826
 30
0.0
  0
VERTEX
  5
249ED
  8
01
 10
742.1795098721994
 20
-666.9371977727596
 30
0.0
  0
VERTEX
  5
249EE
  8
01
 10
742.1693610955496
 20
-666.9395181904991
 30
0.0
  0
VERTEX
  5
249EF
  8
01
 10
742.159275791554
 20
-666.9418327904186
 30
0.0
  0
VERTEX
  5
249F0
  8
01
 10
742.149254223622
 20
-666.9441413423357
 30
0.0
  0
VERTEX
  5
249F1
  8
01
 10
742.1392966530209
 20
-666.9464436167386
 30
0.0
  0
VERTEX
  5
249F2
  8
01
 10
742.1294033170745
 20
-666.9487393916095
 30
0.0
  0
VERTEX
  5
249F3
  8
01
 10
742.1195744381012
 20
-666.9510284496273
 30
0.0
  0
VERTEX
  5
249F4
  8
01
 10
742.1098102381877
 20
-666.9533105735433
 30
0.0
  0
VERTEX
  5
249F5
  8
01
 10
742.1001109394213
 20
-666.9555855461083
 30
0.0
  0
VERTEX
  5
249F6
  8
01
 10
742.090476763889
 20
-666.9578531500739
 30
0.0
  0
VERTEX
  5
249F7
  8
01
 10
742.0809079336777
 20
-666.9601131681911
 30
0.0
  0
VERTEX
  5
249F8
  8
01
 10
742.0714046708748
 20
-666.9623653832111
 30
0.0
  0
VERTEX
  5
249F9
  8
01
 10
742.0619671975899
 20
-666.9646095778821
 30
0.0
  0
VERTEX
  5
249FA
  8
01
 10
742.0525957435111
 20
-666.9668455339813
 30
0.0
  0
VERTEX
  5
249FB
  8
01
 10
742.0432905568322
 20
-666.9690730309137
 30
0.0
  0
VERTEX
  5
249FC
  8
01
 10
742.0340518885189
 20
-666.9712918477289
 30
0.0
  0
VERTEX
  5
249FD
  8
01
 10
742.0248799895371
 20
-666.973501763477
 30
0.0
  0
VERTEX
  5
249FE
  8
01
 10
742.0157751108525
 20
-666.9757025572073
 30
0.0
  0
VERTEX
  5
249FF
  8
01
 10
742.0067375034307
 20
-666.9778940079702
 30
0.0
  0
VERTEX
  5
24A00
  8
01
 10
741.9977674182379
 20
-666.9800758948151
 30
0.0
  0
VERTEX
  5
24A01
  8
01
 10
741.9888651062395
 20
-666.9822479967919
 30
0.0
  0
VERTEX
  5
24A02
  8
01
 10
741.9800308161233
 20
-666.9844100939067
 30
0.0
  0
VERTEX
  5
24A03
  8
01
 10
741.9712647692963
 20
-666.9865619776159
 30
0.0
  0
VERTEX
  5
24A04
  8
01
 10
741.9625671691786
 20
-666.988703446926
 30
0.0
  0
VERTEX
  5
24A05
  8
01
 10
741.953938218872
 20
-666.9908343009771
 30
0.0
  0
VERTEX
  5
24A06
  8
01
 10
741.9453781214787
 20
-666.992954338909
 30
0.0
  0
VERTEX
  5
24A07
  8
01
 10
741.9368870801006
 20
-666.9950633598615
 30
0.0
  0
VERTEX
  5
24A08
  8
01
 10
741.92846529784
 20
-666.9971611629744
 30
0.0
  0
VERTEX
  5
24A09
  8
01
 10
741.9201129777988
 20
-666.9992475473877
 30
0.0
  0
VERTEX
  5
24A0A
  8
01
 10
741.9118303230828
 20
-667.0013223122405
 30
0.0
  0
VERTEX
  5
24A0B
  8
01
 10
741.9036175439297
 20
-667.003385255449
 30
0.0
  0
VERTEX
  5
24A0C
  8
01
 10
741.8954748726316
 20
-667.005436171147
 30
0.0
  0
VERTEX
  5
24A0D
  8
01
 10
741.8874025457297
 20
-667.0074748527396
 30
0.0
  0
VERTEX
  5
24A0E
  8
01
 10
741.8794007997657
 20
-667.0095010936317
 30
0.0
  0
VERTEX
  5
24A0F
  8
01
 10
741.871469871281
 20
-667.0115146872284
 30
0.0
  0
VERTEX
  5
24A10
  8
01
 10
741.863609996817
 20
-667.0135154269348
 30
0.0
  0
VERTEX
  5
24A11
  8
01
 10
741.8558214129155
 20
-667.0155031061558
 30
0.0
  0
VERTEX
  5
24A12
  8
01
 10
741.8481043561177
 20
-667.0174775182967
 30
0.0
  0
VERTEX
  5
24A13
  8
01
 10
741.84045906169
 20
-667.0194384573813
 30
0.0
  0
VERTEX
  5
24A14
  8
01
 10
741.8328857374529
 20
-667.0213857307575
 30
0.0
  0
VERTEX
  5
24A15
  8
01
 10
741.8253845647888
 20
-667.023319158608
 30
0.0
  0
VERTEX
  5
24A16
  8
01
 10
741.8179557240069
 20
-667.0252385616367
 30
0.0
  0
VERTEX
  5
24A17
  8
01
 10
741.810599395416
 20
-667.0271437605469
 30
0.0
  0
VERTEX
  5
24A18
  8
01
 10
741.8033157593253
 20
-667.0290345760427
 30
0.0
  0
VERTEX
  5
24A19
  8
01
 10
741.7961049960437
 20
-667.0309108288275
 30
0.0
  0
VERTEX
  5
24A1A
  8
01
 10
741.7889672858801
 20
-667.0327723396051
 30
0.0
  0
VERTEX
  5
24A1B
  8
01
 10
741.7819028091947
 20
-667.0346189290684
 30
0.0
  0
VERTEX
  5
24A1C
  8
01
 10
741.7749117566532
 20
-667.0364504157105
 30
0.0
  0
VERTEX
  5
24A1D
  8
01
 10
741.7679943416388
 20
-667.0382666131759
 30
0.0
  0
VERTEX
  5
24A1E
  8
01
 10
741.7611507805665
 20
-667.0400673344619
 30
0.0
  0
VERTEX
  5
24A1F
  8
01
 10
741.7543812898512
 20
-667.0418523925659
 30
0.0
  0
VERTEX
  5
24A20
  8
01
 10
741.7476860859078
 20
-667.0436216004853
 30
0.0
  0
VERTEX
  5
24A21
  8
01
 10
741.7410653851514
 20
-667.0453747712173
 30
0.0
  0
VERTEX
  5
24A22
  8
01
 10
741.7345194039968
 20
-667.0471117177595
 30
0.0
  0
VERTEX
  5
24A23
  8
01
 10
741.7280483588592
 20
-667.0488322531091
 30
0.0
  0
VERTEX
  5
24A24
  8
01
 10
741.7216524589372
 20
-667.0505361942124
 30
0.0
  0
VERTEX
  5
24A25
  8
01
 10
741.7153318737091
 20
-667.0522233797512
 30
0.0
  0
VERTEX
  5
24A26
  8
01
 10
741.7090867590598
 20
-667.0538936558463
 30
0.0
  0
VERTEX
  5
24A27
  8
01
 10
741.7029172708624
 20
-667.0555468686248
 30
0.0
  0
VERTEX
  5
24A28
  8
01
 10
741.6968235649894
 20
-667.0571828642135
 30
0.0
  0
VERTEX
  5
24A29
  8
01
 10
741.6908057973137
 20
-667.0588014887397
 30
0.0
  0
VERTEX
  5
24A2A
  8
01
 10
741.6848641237084
 20
-667.0604025883308
 30
0.0
  0
VERTEX
  5
24A2B
  8
01
 10
741.6789987000461
 20
-667.0619860091135
 30
0.0
  0
VERTEX
  5
24A2C
  8
01
 10
741.6732096830283
 20
-667.0635515970197
 30
0.0
  0
VERTEX
  5
24A2D
  8
01
 10
741.6674972464458
 20
-667.0650991939453
 30
0.0
  0
VERTEX
  5
24A2E
  8
01
 10
741.6618615801524
 20
-667.0666286379942
 30
0.0
  0
VERTEX
  5
24A2F
  8
01
 10
741.6563028746253
 20
-667.0681397671225
 30
0.0
  0
VERTEX
  5
24A30
  8
01
 10
741.6508213203415
 20
-667.0696324192869
 30
0.0
  0
VERTEX
  5
24A31
  8
01
 10
741.6454171077781
 20
-667.0711064324435
 30
0.0
  0
VERTEX
  5
24A32
  8
01
 10
741.6400904274122
 20
-667.0725616445487
 30
0.0
  0
VERTEX
  5
24A33
  8
01
 10
741.6348414697208
 20
-667.0739978935588
 30
0.0
  0
VERTEX
  5
24A34
  8
01
 10
741.6296704251422
 20
-667.0754150174537
 30
0.0
  0
VERTEX
  5
24A35
  8
01
 10
741.6245774677899
 20
-667.0768128640133
 30
0.0
  0
VERTEX
  5
24A36
  8
01
 10
741.6195627301935
 20
-667.0781913059812
 30
0.0
  0
VERTEX
  5
24A37
  8
01
 10
741.6146263383588
 20
-667.0795502200183
 30
0.0
  0
VERTEX
  5
24A38
  8
01
 10
741.6097684182917
 20
-667.0808894827846
 30
0.0
  0
VERTEX
  5
24A39
  8
01
 10
741.6049890959976
 20
-667.0822089709407
 30
0.0
  0
VERTEX
  5
24A3A
  8
01
 10
741.6002884974824
 20
-667.083508561147
 30
0.0
  0
VERTEX
  5
24A3B
  8
01
 10
741.595666748752
 20
-667.084788130064
 30
0.0
  0
VERTEX
  5
24A3C
  8
01
 10
741.591123975812
 20
-667.086047554352
 30
0.0
  0
VERTEX
  5
24A3D
  8
01
 10
741.5866603054461
 20
-667.0872867104927
 30
0.0
  0
VERTEX
  5
24A3E
  8
01
 10
741.582275876643
 20
-667.0885054721605
 30
0.0
  0
VERTEX
  5
24A3F
  8
01
 10
741.5779708380821
 20
-667.0897037108018
 30
0.0
  0
VERTEX
  5
24A40
  8
01
 10
741.5737453387096
 20
-667.0908812978012
 30
0.0
  0
VERTEX
  5
24A41
  8
01
 10
741.5695995274721
 20
-667.092038104543
 30
0.0
  0
VERTEX
  5
24A42
  8
01
 10
741.5655335533156
 20
-667.0931740024123
 30
0.0
  0
VERTEX
  5
24A43
  8
01
 10
741.561547565187
 20
-667.0942888627936
 30
0.0
  0
VERTEX
  5
24A44
  8
01
 10
741.5576417120324
 20
-667.0953825570715
 30
0.0
  0
VERTEX
  5
24A45
  8
01
 10
741.5538161427982
 20
-667.0964549566307
 30
0.0
  0
VERTEX
  5
24A46
  8
01
 10
741.5500710017095
 20
-667.0975059384926
 30
0.0
  0
VERTEX
  5
24A47
  8
01
 10
741.5464064153773
 20
-667.0985354007081
 30
0.0
  0
VERTEX
  5
24A48
  8
01
 10
741.5428225063051
 20
-667.0995432462323
 30
0.0
  0
VERTEX
  5
24A49
  8
01
 10
741.5393193969966
 20
-667.1005293780197
 30
0.0
  0
VERTEX
  5
24A4A
  8
01
 10
741.535897209955
 20
-667.1014936990252
 30
0.0
  0
VERTEX
  5
24A4B
  8
01
 10
741.5325560676843
 20
-667.1024361122036
 30
0.0
  0
VERTEX
  5
24A4C
  8
01
 10
741.5292960926878
 20
-667.1033565205096
 30
0.0
  0
VERTEX
  5
24A4D
  8
01
 10
741.5261174074692
 20
-667.104254826898
 30
0.0
  0
VERTEX
  5
24A4E
  8
01
 10
741.5230201330521
 20
-667.1051309347617
 30
0.0
  0
VERTEX
  5
24A4F
  8
01
 10
741.5200043291297
 20
-667.10598476565
 30
0.0
  0
VERTEX
  5
24A50
  8
01
 10
741.517069973454
 20
-667.1068162653698
 30
0.0
  0
VERTEX
  5
24A51
  8
01
 10
741.5142170380658
 20
-667.107625381419
 30
0.0
  0
VERTEX
  5
24A52
  8
01
 10
741.5114454950065
 20
-667.1084120612953
 30
0.0
  0
VERTEX
  5
24A53
  8
01
 10
741.508755316317
 20
-667.1091762524966
 30
0.0
  0
VERTEX
  5
24A54
  8
01
 10
741.5061464740381
 20
-667.1099179025205
 30
0.0
  0
VERTEX
  5
24A55
  8
01
 10
741.5036189402114
 20
-667.1106369588647
 30
0.0
  0
VERTEX
  5
24A56
  8
01
 10
741.5011726868775
 20
-667.1113333690271
 30
0.0
  0
VERTEX
  5
24A57
  8
01
 10
741.4988077346125
 20
-667.1120070684192
 30
0.0
  0
VERTEX
  5
24A58
  8
01
 10
741.4965245188187
 20
-667.1126578891538
 30
0.0
  0
VERTEX
  5
24A59
  8
01
 10
741.4943236853069
 20
-667.113285610948
 30
0.0
  0
VERTEX
  5
24A5A
  8
01
 10
741.4922058815349
 20
-667.1138900131086
 30
0.0
  0
VERTEX
  5
24A5B
  8
01
 10
741.4901717549595
 20
-667.1144708749428
 30
0.0
  0
VERTEX
  5
24A5C
  8
01
 10
741.4882219530385
 20
-667.1150279757577
 30
0.0
  0
VERTEX
  5
24A5D
  8
01
 10
741.4863571232288
 20
-667.1155610948604
 30
0.0
  0
VERTEX
  5
24A5E
  8
01
 10
741.4845779129881
 20
-667.116070011558
 30
0.0
  0
VERTEX
  5
24A5F
  8
01
 10
741.4828847913129
 20
-667.1165545564663
 30
0.0
  0
VERTEX
  5
24A60
  8
01
 10
741.4812765084378
 20
-667.1170150543606
 30
0.0
  0
VERTEX
  5
24A61
  8
01
 10
741.4797508542
 20
-667.1174521061384
 30
0.0
  0
VERTEX
  5
24A62
  8
01
 10
741.4783056079496
 20
-667.1178663157124
 30
0.0
  0
VERTEX
  5
24A63
  8
01
 10
741.4769385490366
 20
-667.1182582869949
 30
0.0
  0
VERTEX
  5
24A64
  8
01
 10
741.4756474568115
 20
-667.1186286238988
 30
0.0
  0
VERTEX
  5
24A65
  8
01
 10
741.4744301106242
 20
-667.1189779303369
 30
0.0
  0
VERTEX
  5
24A66
  8
01
 10
741.4732842898248
 20
-667.1193068102215
 30
0.0
  0
VERTEX
  5
24A67
  8
01
 10
741.4722083467835
 20
-667.1196157041119
 30
0.0
  0
VERTEX
  5
24A68
  8
01
 10
741.471206878318
 20
-667.1199032724312
 30
0.0
  0
VERTEX
  5
24A69
  8
01
 10
741.470288320408
 20
-667.1201670811542
 30
0.0
  0
VERTEX
  5
24A6A
  8
01
 10
741.4694611650192
 20
-667.1204046802949
 30
0.0
  0
VERTEX
  5
24A6B
  8
01
 10
741.4687339041171
 20
-667.1206136198676
 30
0.0
  0
VERTEX
  5
24A6C
  8
01
 10
741.4681150296673
 20
-667.1207914498867
 30
0.0
  0
VERTEX
  5
24A6D
  8
01
 10
741.4676130336353
 20
-667.1209357203663
 30
0.0
  0
VERTEX
  5
24A6E
  8
01
 10
741.467236407987
 20
-667.1210439813208
 30
0.0
  0
VERTEX
  5
24A6F
  8
01
 10
741.4669923223461
 20
-667.1211141630637
 30
0.0
  0
VERTEX
  5
24A70
  8
01
 10
741.4668674503434
 20
-667.1211500904611
 30
0.0
  0
VERTEX
  5
24A71
  8
01
 10
741.4668323166361
 20
-667.1211602327489
 30
0.0
  0
VERTEX
  5
24A72
  8
01
 10
741.4668570084589
 20
-667.1211531849639
 30
0.0
  0
VERTEX
  5
24A73
  8
01
 10
741.4669116130467
 20
-667.121137542142
 30
0.0
  0
SEQEND
  5
24C18
  8
01
  0
LINE
  5
23DD9
  8
01
 10
763.0162416153653
 20
-644.5213303512652
 30
0.0
 11
763.0162416153653
 21
-667.1213303512653
 31
0.0
  0
ARC
  5
23DDA
  8
01
 10
717.0162416153653
 20
-655.8213303512654
 30
0.0
 40
11.30000000000007
 50
90.0
 51
270.0000000000011
  0
LINE
  5
23E7B
  8
1PHANTOM
 10
760.0162416192402
 20
-648.5563928084097
 30
0.0
 11
760.0162416164925
 21
-653.8213303517654
 31
0.0
  0
LINE
  5
23E7C
  8
1PHANTOM
 10
759.0162416164924
 20
-654.8213303512672
 30
0.0
 11
742.0162416153655
 21
-654.8213303512659
 31
0.0
  0
LINE
  5
23E7D
  8
1PHANTOM
 10
740.0162416153653
 20
-656.8213303512659
 30
0.0
 11
740.0162416153653
 21
-662.6213303512653
 31
0.0
  0
LINE
  5
23E7E
  8
1PHANTOM
 10
742.0162416153653
 20
-664.6213303512653
 30
0.0
 11
763.0162416153653
 21
-664.6213303512653
 31
0.0
  0
LINE
  5
23E7F
  8
1PHANTOM
 10
763.0162416153653
 20
-647.5213303512508
 30
0.0
 11
760.9987892127888
 21
-647.5565451139558
 31
0.0
  0
ARC
  5
23E80
  8
1PHANTOM
 10
761.0162416192402
 20
-648.556392809112
 30
0.0
 40
0.9999999999999996
 50
91.00000000080959
 51
179.9999999597579
  0
ARC
  5
23E81
  8
1PHANTOM
 10
742.0162416153653
 20
-656.8213303512659
 30
0.0
 40
1.999999999999999
 50
89.99999999999349
 51
180.0
  0
ARC
  5
23E82
  8
1PHANTOM
 10
742.0162416153653
 20
-662.6213303512653
 30
0.0
 40
1.999999999999999
 50
180.0
 51
270.0
  0
ARC
  5
23E83
  8
1PHANTOM
 10
759.0162416164925
 20
-653.8213303512672
 30
0.0
 40
0.9999999999999996
 50
269.9999999999935
 51
359.9999999714566
  0
LINE
  5
2412B
  8
1HATCH
 10
743.3662424158937
 20
-664.7213311617941
 30
0.0
 11
743.0162424158935
 21
-665.071330987719
 31
0.0
  0
LINE
  5
2412D
  8
1HATCH
 10
742.0162424158935
 20
-666.0713311517936
 30
0.0
 11
748.0162424158935
 21
-666.0713311517936
 31
0.0
  0
LINE
  5
2412E
  8
1HATCH
 10
743.0162424158935
 20
-658.7213311617941
 30
0.0
 11
747.0162424158935
 21
-658.7213311617941
 31
0.0
  0
LINE
  5
24130
  8
1HATCH
 10
746.6662424158936
 20
-658.3713311617937
 30
0.0
 11
746.6662424158936
 21
-664.7213311617941
 31
0.0
  0
LINE
  5
24131
  8
1HATCH
 10
743.3662424158937
 20
-658.3713311617937
 30
0.0
 11
743.3662424158937
 21
-664.7213311617941
 31
0.0
  0
LINE
  5
24132
  8
1CENTER
 10
745.0162424158935
 20
-656.3713311617937
 30
0.0
 11
745.0162424158935
 21
-668.3713311617937
 31
0.0
  0
LINE
  5
24352
  8
1HATCH
 10
746.6662424158934
 20
-664.7213311617941
 30
0.0
 11
747.0162424158935
 21
-665.071330987719
 31
0.0
  0
TEXT
  5
24354
  8
01
  6
CONTINUOUS
 10
769.7537571261878
 20
-611.3902613041461
 30
0.0
 40
3.5
  1
PB
  0
TEXT
  5
24355
  8
01
  6
CONTINUOUS
 10
782.889175271353
 20
-611.3902613041461
 30
0.0
 40
3.5
  1
合板9mm以上
  0
LINE
  5
24356
  8
01
 10
743.0162424158937
 20
-658.7213311617938
 30
0.0
 11
743.0162424158937
 21
-665.0713309877199
 31
0.0
  0
LINE
  5
24357
  8
01
 10
743.0162424158937
 20
-665.0713309877199
 30
0.0
 11
742.0162424158937
 21
-666.0713310617939
 31
0.0
  0
LINE
  5
24358
  8
01
 10
742.0162424158937
 20
-666.0713310617939
 30
0.0
 11
742.0162424158937
 21
-666.3713311617939
 31
0.0
  0
LINE
  5
24359
  8
01
 10
742.0162424158937
 20
-666.3713311617939
 30
0.0
 11
748.0162424158937
 21
-666.3713311617939
 31
0.0
  0
LINE
  5
2435A
  8
01
 10
748.0162424158937
 20
-666.0713311517939
 30
0.0
 11
748.0162424158937
 21
-666.3713311617939
 31
0.0
  0
LINE
  5
2435B
  8
01
 10
747.0162424158937
 20
-665.0713309877199
 30
0.0
 11
748.0162424608936
 21
-666.0713311067939
 31
0.0
  0
LINE
  5
2435C
  8
01
 10
747.0162424158937
 20
-658.7213311617938
 30
0.0
 11
747.0162424158937
 21
-665.0713309877199
 31
0.0
  0
LINE
  5
2435D
  8
01
 10
746.6662424158935
 20
-658.3713311617939
 30
0.0
 11
747.0162424158937
 21
-658.7213311617938
 31
0.0
  0
LINE
  5
2435E
  8
01
 10
743.3662424158937
 20
-658.3713311617939
 30
0.0
 11
746.6662424158935
 21
-658.3713311617939
 31
0.0
  0
LINE
  5
2435F
  8
01
 10
743.0162424158937
 20
-658.7213311617938
 30
0.0
 11
743.3662424158937
 21
-658.3713311617939
 31
0.0
  0
LINE
  5
24360
  8
1DIM1
 10
131.7162315779418
 20
-658.0713303512664
 30
0.0
 11
131.7162315779418
 21
-704.4213303512674
 31
0.0
1001
ACAD
1000
DSTYLE
1002
{
1070
    40
1040
3.0
1070
    45
1040
0.5
1002
}
  0
LINE
  5
24361
  8
1DIM1
 10
631.7162416153653
 20
-658.0713303512664
 30
0.0
 11
631.7162416153653
 21
-704.4213303512674
 31
0.0
1001
ACAD
1000
DSTYLE
1002
{
1070
    40
1040
3.0
1070
    45
1040
0.5
1002
}
  0
LINE
  5
24362
  8
1DIM1
 10
137.7162315779418
 20
-701.4213303512674
 30
0.0
 11
625.7162416153653
 21
-701.4213303512674
 31
0.0
1001
ACAD
1000
DSTYLE
1002
{
1070
    40
1040
3.0
1070
    45
1040
0.5
1002
}
  0
SOLID
  5
24366
  8
1DIM
 10
591.5377303133877
 20
-643.1714145881024
 30
0.0
 11
592.7162416153652
 21
-644.821330410871
 31
0.0
 12
591.0663257925966
 22
-643.6428191088935
 32
0.0
 13
591.0663257925966
 23
-643.6428191088935
 33
0.0
1001
ACAD
1000
DSTYLE
1002
{
1070
    45
1040
0.5
1002
}
  0
LINE
  5
24367
  8
1DIM
 10
591.3020280529921
 20
-643.4071168484979
 30
0.0
 11
578.7162416153652
 21
-630.821330410871
 31
0.0
1001
ACAD
1000
DSTYLE
1002
{
1070
    45
1040
0.5
1002
}
  0
LINE
  5
24368
  8
1DIM
 10
578.7162416153652
 20
-630.821330410871
 30
0.0
 11
555.9495749486986
 21
-630.821330410871
 31
0.0
1001
ACAD
1000
DSTYLE
1002
{
1070
    45
1040
0.5
1002
}
  0
TEXT
  5
24369
  8
1DIM
  6
CONTINUOUS
 10
556.4162416153652
 20
-630.321330410871
 30
0.0
 40
3.5
  1
材質：真鍮
  0
LINE
  5
2436A
  8
1DIM
 10
534.7188985148118
 20
-592.8213302916618
 30
0.0
 11
545.2458307863246
 21
-592.8213302916618
 31
0.0
1001
ACAD
1000
DSTYLE
1002
{
1070
    45
1040
0.5
1002
}
  0
LINE
  5
2436B
  8
1DIM
 10
534.7188985148118
 20
-570.821330410871
 30
0.0
 11
545.2458307863246
 21
-570.821330410871
 31
0.0
1001
ACAD
1000
DSTYLE
1002
{
1070
    45
1040
0.5
1002
}
  0
LINE
  5
2436C
  8
1DIM
 10
544.2458307863246
 20
-570.821330410871
 30
0.0
 11
544.2458307863246
 21
-557.9879970775376
 31
0.0
1001
ACAD
1000
DSTYLE
1002
{
1070
    45
1040
0.5
1002
}
  0
LINE
  5
2436D
  8
1DIM
 10
544.2458307863246
 20
-590.8213302916618
 30
0.0
 11
544.2458307863246
 21
-572.821330410871
 31
0.0
1001
ACAD
1000
DSTYLE
1002
{
1070
    45
1040
0.5
1002
}
  0
LINE
  5
24371
  8
1DIM
 10
705.7162416153652
 20
-655.8213303512654
 30
0.0
 11
705.7162416153652
 21
-686.4931567659847
 31
0.0
1001
ACAD
1000
DSTYLE
1002
{
1070
    45
1040
0.5
1002
}
  0
LINE
  5
24372
  8
1DIM
 10
763.0162416153653
 20
-667.1213303512653
 30
0.0
 11
763.0162416153653
 21
-686.4931567659847
 31
0.0
1001
ACAD
1000
DSTYLE
1002
{
1070
    45
1040
0.5
1002
}
  0
LINE
  5
24373
  8
1DIM
 10
707.7162416153652
 20
-685.4931567659847
 30
0.0
 11
761.0162416153653
 21
-685.4931567659847
 31
0.0
1001
ACAD
1000
DSTYLE
1002
{
1070
    45
1040
0.5
1002
}
  0
LINE
  5
24377
  8
1DIM
 10
763.0162416153653
 20
-675.4931567659847
 30
0.0
 11
763.0162416153653
 21
-674.4931567659847
 31
0.0
1001
ACAD
1000
DSTYLE
1002
{
1070
    45
1040
0.5
1002
}
  0
LINE
  5
24378
  8
1DIM
 10
745.0162424158935
 20
-668.3713311617937
 30
0.0
 11
745.0162424158935
 21
-676.4931567659847
 31
0.0
1001
ACAD
1000
DSTYLE
1002
{
1070
    45
1040
0.5
1002
}
  0
LINE
  5
24379
  8
1DIM
 10
761.0162416153653
 20
-675.4931567659847
 30
0.0
 11
747.0162424158935
 21
-675.4931567659847
 31
0.0
1001
ACAD
1000
DSTYLE
1002
{
1070
    45
1040
0.5
1002
}
  0
LINE
  5
2437D
  8
1DIM
 10
795.4470365337955
 20
-654.8213303481621
 30
0.0
 11
805.5162416153653
 21
-654.8213303481621
 31
0.0
1001
ACAD
1000
DSTYLE
1002
{
1070
    45
1040
0.5
1070
   271
1070
     0
1002
}
  0
LINE
  5
2437E
  8
1DIM
 10
763.0162416153653
 20
-644.5213303512652
 30
0.0
 11
805.5162416153653
 21
-644.5213303512652
 31
0.0
1001
ACAD
1000
DSTYLE
1002
{
1070
    45
1040
0.5
1070
   271
1070
     0
1002
}
  0
LINE
  5
2437F
  8
1DIM
 10
804.5162416153653
 20
-652.8213303481621
 30
0.0
 11
804.5162416153653
 21
-646.5213303512652
 31
0.0
1001
ACAD
1000
DSTYLE
1002
{
1070
    45
1040
0.5
1070
   271
1070
     0
1002
}
  0
LINE
  5
24383
  8
1DIM1
 10
120.4162315779419
 20
-655.8213303512664
 30
0.0
 11
120.4162315779419
 21
-734.4213303512677
 31
0.0
1001
ACAD
1000
DSTYLE
1002
{
1070
    40
1040
3.0
1070
    45
1040
0.5
1002
}
  0
LINE
  5
24384
  8
1DIM1
 10
643.0162416153653
 20
-655.8213303512664
 30
0.0
 11
643.0162416153653
 21
-734.4213303512677
 31
0.0
1001
ACAD
1000
DSTYLE
1002
{
1070
    40
1040
3.0
1070
    45
1040
0.5
1002
}
  0
LINE
  5
24385
  8
1DIM1
 10
126.4162315779419
 20
-731.4213303512677
 30
0.0
 11
637.0162416153653
 21
-731.4213303512677
 31
0.0
1001
ACAD
1000
DSTYLE
1002
{
1070
    40
1040
3.0
1070
    45
1040
0.5
1002
}
  0
LINE
  5
24389
  8
1DIM
 10
763.0162416153653
 20
-667.1213303512653
 30
0.0
 11
815.5162416153653
 21
-667.1213303512653
 31
0.0
1001
ACAD
1000
DSTYLE
1002
{
1070
    70
1070
     0
1070
    69
1070
     0
1070
    45
1040
0.5
1002
}
  0
LINE
  5
2438A
  8
1DIM
 10
763.0162416153653
 20
-644.5213303512652
 30
0.0
 11
815.5162416153653
 21
-644.5213303512652
 31
0.0
1001
ACAD
1000
DSTYLE
1002
{
1070
    70
1070
     0
1070
    69
1070
     0
1070
    45
1040
0.5
1002
}
  0
LINE
  5
2438B
  8
1DIM
 10
814.5162416153653
 20
-665.1213303512653
 30
0.0
 11
814.5162416153653
 21
-646.5213303512652
 31
0.0
1001
ACAD
1000
DSTYLE
1002
{
1070
    70
1070
     0
1070
    69
1070
     0
1070
    45
1040
0.5
1002
}
  0
SOLID
  5
2438F
  8
1DIM
 10
766.6708479197656
 20
-624.9354292138304
 30
0.0
 11
765.9299131930727
 21
-626.8227889680616
 31
0.0
 12
766.0186807169505
 22
-624.7971455054019
 32
0.0
 13
766.0186807169505
 23
-624.7971455054019
 33
0.0
1001
ACAD
1000
DSTYLE
1002
{
1070
    45
1040
0.5
1002
}
  0
LINE
  5
24390
  8
1DIM
 10
766.344764318358
 20
-624.8662873596161
 30
0.0
 11
769.0537571261877
 21
-612.0902613041461
 31
0.0
1001
ACAD
1000
DSTYLE
1002
{
1070
    45
1040
0.5
1002
}
  0
SOLID
  5
24391
  8
1DIM
 10
779.8062660649308
 20
-624.9354292138304
 30
0.0
 11
779.0653313382379
 21
-626.8227889680616
 31
0.0
 12
779.1540988621157
 22
-624.7971455054019
 32
0.0
 13
779.1540988621157
 23
-624.7971455054019
 33
0.0
1001
ACAD
1000
DSTYLE
1002
{
1070
    45
1040
0.5
1002
}
  0
LINE
  5
24392
  8
1DIM
 10
779.4801824635232
 20
-624.8662873596161
 30
0.0
 11
782.189175271353
 21
-612.0902613041461
 31
0.0
1001
ACAD
1000
DSTYLE
1002
{
1070
    45
1040
0.5
1002
}
  0
LINE
  5
24393
  8
0
 10
631.7162831294471
 20
-504.8213303514287
 30
0.0
 11
630.2162831294471
 21
-510.1213268612904
 31
0.0
  0
LINE
  5
24394
  8
0
 10
630.2162831294471
 20
-510.1213268612904
 30
0.0
 11
630.2162831294473
 21
-539.8213268611823
 31
0.0
  0
LINE
  5
24395
  8
0
 10
631.7162831294471
 20
-504.8213303514287
 30
0.0
 11
633.2162831294472
 21
-510.1213338416741
 31
0.0
  0
LINE
  5
24396
  8
0
 10
628.2162365935493
 20
-539.8213222074842
 30
0.0
 11
635.2162365935492
 21
-539.8213384950486
 31
0.0
  0
LINE
  5
24397
  8
0
 10
633.2162831294472
 20
-510.1213338416741
 30
0.0
 11
633.2162831294473
 21
-539.821333841567
 31
0.0
  0
LINE
  5
24398
  8
0
 10
628.2162365935493
 20
-539.8213222074842
 30
0.0
 11
628.2162365935492
 21
-540.9213256976795
 31
0.0
  0
ARC
  5
24399
  8
0
 10
629.7162365935492
 20
-540.9213256976795
 30
0.0
 40
1.5
 50
180.0
 51
269.9998666844662
  0
LINE
  5
2439A
  8
0
 10
635.2162365935492
 20
-539.8213384950486
 30
0.0
 11
635.2162365935492
 21
-540.9213350048592
 31
0.0
  0
LINE
  5
2439B
  8
0
 10
629.7162331033568
 20
-542.4213256976755
 30
0.0
 11
633.7162331033568
 21
-542.4213350048551
 31
0.0
  0
ARC
  5
2439C
  8
0
 10
633.7162365935492
 20
-540.9213350048592
 30
0.0
 40
1.5
 50
269.9998666844662
 51
0.0
  0
LINE
  5
2439D
  8
1CENTER
 10
631.7162365935492
 20
-503.3905354339634
 30
0.0
 11
631.7162365935492
 21
-543.4916067605752
 31
0.0
  0
LINE
  5
2439E
  8
0
 10
630.6219127795541
 20
-506.9213278051066
 30
0.0
 11
632.5842478684295
 21
-506.1213323710556
 31
0.0
  0
LINE
  5
2439F
  8
0
 10
632.5842478684295
 20
-506.1213323710556
 30
0.0
 11
631.9959712933871
 21
-505.8095625148035
 31
0.0
  0
LINE
  5
243A0
  8
0
 10
629.7162831294471
 20
-529.3213256978966
 30
0.0
 11
633.7162831294471
 21
-528.5213350050783
 31
0.0
  0
LINE
  5
243A1
  8
0
 10
629.7162831294471
 20
-518.1213256978922
 30
0.0
 11
633.7162831294471
 21
-517.3213350050696
 31
0.0
  0
LINE
  5
243A2
  8
0
 10
629.7162831294471
 20
-514.9213256978921
 30
0.0
 11
633.7162831294471
 21
-514.1213350050696
 31
0.0
  0
LINE
  5
243A3
  8
0
 10
633.7162831294471
 20
-514.1213350050696
 30
0.0
 11
633.2162831294471
 21
-514.0213338416723
 31
0.0
  0
LINE
  5
243A4
  8
0
 10
630.2162831294471
 20
-513.4213268612893
 30
0.0
 11
629.7162831294471
 21
-513.3213256978921
 31
0.0
  0
LINE
  5
243A5
  8
0
 10
633.7162831294471
 20
-517.3213350050696
 30
0.0
 11
633.2162831294471
 21
-517.2213338416724
 31
0.0
  0
LINE
  5
243A6
  8
0
 10
633.7162831294471
 20
-515.7213350050695
 30
0.0
 11
633.2162831294471
 21
-515.6213338416724
 31
0.0
  0
LINE
  5
243A7
  8
0
 10
630.2162831294471
 20
-515.0213268612893
 30
0.0
 11
629.7162831294471
 21
-514.9213256978921
 31
0.0
  0
LINE
  5
243A8
  8
0
 10
630.2162831294471
 20
-516.6213268612892
 30
0.0
 11
629.7162831294471
 21
-516.521325697892
 31
0.0
  0
LINE
  5
243A9
  8
0
 10
629.7162831294471
 20
-516.521325697892
 30
0.0
 11
633.7162831294471
 21
-515.7213350050695
 31
0.0
  0
LINE
  5
243AA
  8
0
 10
633.0370619728363
 20
-507.7213334246612
 30
0.0
 11
632.4853125090331
 21
-507.5385692820332
 31
0.0
  0
LINE
  5
243AB
  8
0
 10
633.7162831294471
 20
-510.9213350050695
 30
0.0
 11
633.2162831294471
 21
-510.8213338416724
 31
0.0
  0
LINE
  5
243AC
  8
0
 10
633.7162831294471
 20
-512.5213350050695
 30
0.0
 11
633.2162831294471
 21
-512.4213338416725
 31
0.0
  0
LINE
  5
243AD
  8
0
 10
633.4898760772431
 20
-509.3213344782669
 30
0.0
 11
632.953282341972
 21
-509.192063780637
 31
0.0
  0
LINE
  5
243AE
  8
0
 10
630.6371977266558
 20
-508.6340962638524
 30
0.0
 11
630.1690992715058
 21
-508.5213267515023
 31
0.0
  0
LINE
  5
243AF
  8
0
 10
630.2162831294471
 20
-511.8213268612892
 30
0.0
 11
629.7162831294471
 21
-511.7213256978921
 31
0.0
  0
LINE
  5
243B0
  8
0
 10
630.2162831294471
 20
-510.2213268612893
 30
0.0
 11
629.7162831294471
 21
-510.1213256978922
 31
0.0
  0
LINE
  5
243B1
  8
0
 10
631.0790846201852
 20
-507.072763601547
 30
0.0
 11
630.6219127795541
 21
-506.9213278051066
 31
0.0
  0
LINE
  5
243B2
  8
0
 10
630.1690992715058
 20
-508.5213267515023
 30
0.0
 11
633.0370619728363
 21
-507.7213334246612
 31
0.0
  0
LINE
  5
243B3
  8
0
 10
629.7162831294471
 20
-511.7213256978921
 30
0.0
 11
633.7162831294471
 21
-510.9213350050695
 31
0.0
  0
LINE
  5
243B4
  8
0
 10
629.7162831294471
 20
-510.1213256978922
 30
0.0
 11
633.4898760772431
 21
-509.3213344782669
 31
0.0
  0
LINE
  5
243B5
  8
0
 10
629.7162831294471
 20
-513.3213256978921
 30
0.0
 11
633.7162831294471
 21
-512.5213350050695
 31
0.0
  0
LINE
  5
243B6
  8
0
 10
629.7162831294471
 20
-526.1213256978965
 30
0.0
 11
633.7162831294471
 21
-525.3213350050783
 31
0.0
  0
LINE
  5
243B7
  8
0
 10
633.7162831294471
 20
-525.3213350050783
 30
0.0
 11
633.2162831294471
 21
-525.2213338416806
 31
0.0
  0
LINE
  5
243B8
  8
0
 10
630.2162831294471
 20
-524.6213268612898
 30
0.0
 11
629.7162831294471
 21
-524.5213256978922
 31
0.0
  0
LINE
  5
243B9
  8
0
 10
633.7162831294471
 20
-526.9213350050784
 30
0.0
 11
633.2162831294471
 21
-526.8213338416807
 31
0.0
  0
LINE
  5
243BA
  8
0
 10
633.7162831294471
 20
-528.5213350050783
 30
0.0
 11
633.2162831294471
 21
-528.4213338416806
 31
0.0
  0
LINE
  5
243BB
  8
0
 10
630.2162831294471
 20
-526.2213268612942
 30
0.0
 11
629.7162831294471
 21
-526.1213256978965
 31
0.0
  0
LINE
  5
243BC
  8
0
 10
630.2162831294471
 20
-527.8213268612943
 30
0.0
 11
629.7162831294471
 21
-527.7213256978966
 31
0.0
  0
LINE
  5
243BD
  8
0
 10
629.7162831294471
 20
-527.7213256978966
 30
0.0
 11
633.7162831294471
 21
-526.9213350050784
 31
0.0
  0
LINE
  5
243BE
  8
0
 10
633.7162831294471
 20
-520.5213350050739
 30
0.0
 11
633.2162831294471
 21
-520.4213338416762
 31
0.0
  0
LINE
  5
243BF
  8
0
 10
633.7162831294471
 20
-518.9213350050695
 30
0.0
 11
633.2162831294471
 21
-518.8213338416724
 31
0.0
  0
LINE
  5
243C0
  8
0
 10
633.7162831294471
 20
-523.7213350050739
 30
0.0
 11
633.2162831294471
 21
-523.6213338416762
 31
0.0
  0
LINE
  5
243C1
  8
0
 10
633.7162831294471
 20
-522.121335005074
 30
0.0
 11
633.2162831294471
 21
-522.0213338416763
 31
0.0
  0
LINE
  5
243C2
  8
0
 10
630.2162831294471
 20
-518.2213268612893
 30
0.0
 11
629.7162831294471
 21
-518.1213256978922
 31
0.0
  0
LINE
  5
243C3
  8
0
 10
630.2162831294471
 20
-519.8213268612899
 30
0.0
 11
629.7162831294471
 21
-519.7213256978921
 31
0.0
  0
LINE
  5
243C4
  8
0
 10
630.2162831294471
 20
-523.0213268612899
 30
0.0
 11
629.7162831294471
 21
-522.9213256978923
 31
0.0
  0
LINE
  5
243C5
  8
0
 10
630.2162831294471
 20
-521.4213268612898
 30
0.0
 11
629.7162831294471
 21
-521.3213256978921
 31
0.0
  0
LINE
  5
243C6
  8
0
 10
629.7162831294471
 20
-521.3213256978921
 30
0.0
 11
633.7162831294471
 21
-520.5213350050739
 31
0.0
  0
LINE
  5
243C7
  8
0
 10
629.7162831294471
 20
-519.7213256978921
 30
0.0
 11
633.7162831294471
 21
-518.9213350050695
 31
0.0
  0
LINE
  5
243C8
  8
0
 10
629.7162831294471
 20
-522.9213256978923
 30
0.0
 11
633.7162831294471
 21
-522.121335005074
 31
0.0
  0
LINE
  5
243C9
  8
0
 10
629.7162831294471
 20
-524.5213256978922
 30
0.0
 11
633.7162831294471
 21
-523.7213350050739
 31
0.0
  0
LINE
  5
243CA
  8
0
 10
630.2162831294471
 20
-534.2213268612984
 30
0.0
 11
629.7162831294471
 21
-534.1213256979007
 31
0.0
  0
LINE
  5
243CB
  8
0
 10
629.7162831294471
 20
-534.1213256979007
 30
0.0
 11
633.7162831294471
 21
-533.3213350050825
 31
0.0
  0
LINE
  5
243CC
  8
0
 10
633.7162831294471
 20
-533.3213350050825
 30
0.0
 11
633.2162831294471
 21
-533.2213338416848
 31
0.0
  0
LINE
  5
243CD
  8
0
 10
630.2162831294471
 20
-532.6213268612985
 30
0.0
 11
629.7162831294471
 21
-532.5213256979008
 31
0.0
  0
LINE
  5
243CE
  8
0
 10
630.2162831294471
 20
-531.0213268612986
 30
0.0
 11
629.7162831294471
 21
-530.9213256979009
 31
0.0
  0
LINE
  5
243CF
  8
0
 10
629.7162831294471
 20
-530.9213256979009
 30
0.0
 11
633.7162831294471
 21
-530.1213350050826
 31
0.0
  0
LINE
  5
243D0
  8
0
 10
633.7162831294471
 20
-531.7213350050826
 30
0.0
 11
633.2162831294471
 21
-531.6213338416849
 31
0.0
  0
LINE
  5
243D1
  8
0
 10
633.7162831294471
 20
-530.1213350050826
 30
0.0
 11
633.2162831294471
 21
-530.021333841685
 31
0.0
  0
LINE
  5
243D2
  8
0
 10
629.7162831294471
 20
-532.5213256979008
 30
0.0
 11
633.7162831294471
 21
-531.7213350050826
 31
0.0
  0
LINE
  5
243D3
  8
0
 10
630.2162831294471
 20
-529.4213268612942
 30
0.0
 11
629.7162831294471
 21
-529.3213256978966
 31
0.0
  0
LINE
  5
243D4
  8
0
 10
630.2162831294471
 20
-535.8213268612983
 30
0.0
 11
629.7162831294471
 21
-535.7213256979006
 31
0.0
  0
LINE
  5
243D5
  8
0
 10
629.7162831294471
 20
-535.7213256979006
 30
0.0
 11
633.7162831294471
 21
-534.9213350050824
 31
0.0
  0
LINE
  5
243D6
  8
0
 10
633.7162831294471
 20
-534.9213350050824
 30
0.0
 11
633.2162831294471
 21
-534.8213338416847
 31
0.0
  0
LINE
  5
243D7
  8
0
 10
630.2162831294471
 20
-537.4213268612982
 30
0.0
 11
629.7162831294471
 21
-537.3213256979005
 31
0.0
  0
LINE
  5
243D8
  8
0
 10
629.7162831294471
 20
-537.3213256979005
 30
0.0
 11
633.7162831294471
 21
-536.5213350050823
 31
0.0
  0
LINE
  5
243D9
  8
0
 10
633.7162831294471
 20
-536.5213350050823
 30
0.0
 11
633.2162831294471
 21
-536.4213338416846
 31
0.0
  0
LINE
  5
243DA
  8
0
 10
630.2162831294471
 20
-539.0213268612981
 30
0.0
 11
629.7162831294471
 21
-538.9213256979004
 31
0.0
  0
LINE
  5
243DB
  8
0
 10
629.7162831294471
 20
-538.9213256979004
 30
0.0
 11
633.7162831294471
 21
-538.1213350050822
 31
0.0
  0
LINE
  5
243DC
  8
0
 10
633.7162831294471
 20
-538.1213350050822
 30
0.0
 11
633.2162831294471
 21
-538.0213338416845
 31
0.0
  0
LINE
  5
243DD
  8
0
 10
794.0162416163301
 20
-654.82137688406
 30
0.0
 11
788.7162451064685
 21
-653.32137688406
 31
0.0
  0
LINE
  5
243DE
  8
0
 10
788.7162451064685
 20
-653.32137688406
 30
0.0
 11
759.0162451065765
 21
-653.3213768840602
 31
0.0
  0
LINE
  5
243DF
  8
0
 10
794.0162416163301
 20
-654.82137688406
 30
0.0
 11
788.7162381260848
 21
-656.3213768840601
 31
0.0
  0
LINE
  5
243E0
  8
0
 10
759.0162497602747
 20
-651.3213303481622
 30
0.0
 11
759.0162334727103
 21
-658.3213303481621
 31
0.0
  0
LINE
  5
243E1
  8
0
 10
788.7162381260848
 20
-656.3213768840601
 30
0.0
 11
759.0162381261919
 21
-656.3213768840602
 31
0.0
  0
LINE
  5
243E2
  8
0
 10
759.0162497602747
 20
-651.3213303481622
 30
0.0
 11
757.9162462700793
 21
-651.3213303481621
 31
0.0
  0
ARC
  5
243E3
  8
0
 10
757.9162462700793
 20
-652.8213303481621
 30
0.0
 40
1.5
 50
90.0
 51
179.9998666844663
  0
LINE
  5
243E4
  8
0
 10
759.0162334727103
 20
-658.3213303481621
 30
0.0
 11
757.9162369628997
 21
-658.3213303481621
 31
0.0
  0
LINE
  5
243E5
  8
0
 10
756.4162462700834
 20
-652.8213268579697
 30
0.0
 11
756.4162369629038
 21
-656.8213268579697
 31
0.0
  0
ARC
  5
243E6
  8
0
 10
757.9162369628997
 20
-656.8213303481621
 30
0.0
 40
1.5
 50
179.9998666844663
 51
270.0
  0
LINE
  5
243E7
  8
1CENTER
 10
795.4470365337955
 20
-654.8213303481621
 30
0.0
 11
755.3459652071837
 21
-654.8213303481621
 31
0.0
  0
LINE
  5
243E8
  8
0
 10
791.9162441626523
 20
-653.727006534167
 30
0.0
 11
792.7162395967033
 21
-655.6893416230424
 31
0.0
  0
LINE
  5
243E9
  8
0
 10
792.7162395967033
 20
-655.6893416230424
 30
0.0
 11
793.0280094529554
 21
-655.101065048
 31
0.0
  0
LINE
  5
243EA
  8
0
 10
769.5162462698623
 20
-652.82137688406
 30
0.0
 11
770.3162369626806
 21
-656.82137688406
 31
0.0
  0
LINE
  5
243EB
  8
0
 10
780.7162462698667
 20
-652.82137688406
 30
0.0
 11
781.5162369626893
 21
-656.82137688406
 31
0.0
  0
LINE
  5
243EC
  8
0
 10
783.9162462698667
 20
-652.82137688406
 30
0.0
 11
784.7162369626893
 21
-656.82137688406
 31
0.0
  0
LINE
  5
243ED
  8
0
 10
784.7162369626893
 20
-656.82137688406
 30
0.0
 11
784.8162381260865
 21
-656.32137688406
 31
0.0
  0
LINE
  5
243EE
  8
0
 10
785.4162451064695
 20
-653.32137688406
 30
0.0
 11
785.5162462698668
 21
-652.82137688406
 31
0.0
  0
LINE
  5
243EF
  8
0
 10
781.5162369626893
 20
-656.82137688406
 30
0.0
 11
781.6162381260865
 21
-656.32137688406
 31
0.0
  0
LINE
  5
243F0
  8
0
 10
783.1162369626894
 20
-656.82137688406
 30
0.0
 11
783.2162381260865
 21
-656.32137688406
 31
0.0
  0
LINE
  5
243F1
  8
0
 10
783.8162451064696
 20
-653.32137688406
 30
0.0
 11
783.9162462698667
 21
-652.82137688406
 31
0.0
  0
LINE
  5
243F2
  8
0
 10
782.2162451064697
 20
-653.32137688406
 30
0.0
 11
782.3162462698668
 21
-652.82137688406
 31
0.0
  0
LINE
  5
243F3
  8
0
 10
782.3162462698668
 20
-652.82137688406
 30
0.0
 11
783.1162369626894
 21
-656.82137688406
 31
0.0
  0
LINE
  5
243F4
  8
0
 10
791.1162385430977
 20
-656.1421557274492
 30
0.0
 11
791.2990026857257
 21
-655.590406263646
 31
0.0
  0
LINE
  5
243F5
  8
0
 10
787.9162369626894
 20
-656.82137688406
 30
0.0
 11
788.0162381260865
 21
-656.32137688406
 31
0.0
  0
LINE
  5
243F6
  8
0
 10
786.3162369626893
 20
-656.82137688406
 30
0.0
 11
786.4162381260863
 21
-656.32137688406
 31
0.0
  0
LINE
  5
243F7
  8
0
 10
789.516237489492
 20
-656.594969831856
 30
0.0
 11
789.6455081871219
 21
-656.0583760965849
 31
0.0
  0
LINE
  5
243F8
  8
0
 10
790.2034757039065
 20
-653.7422914812687
 30
0.0
 11
790.3162452162566
 21
-653.2741930261187
 31
0.0
  0
LINE
  5
243F9
  8
0
 10
787.0162451064697
 20
-653.32137688406
 30
0.0
 11
787.1162462698668
 21
-652.82137688406
 31
0.0
  0
LINE
  5
243FA
  8
0
 10
788.6162451064696
 20
-653.32137688406
 30
0.0
 11
788.7162462698667
 21
-652.82137688406
 31
0.0
  0
LINE
  5
243FB
  8
0
 10
791.7648083662119
 20
-654.1841783747981
 30
0.0
 11
791.9162441626523
 21
-653.727006534167
 31
0.0
  0
LINE
  5
243FC
  8
0
 10
790.3162452162566
 20
-653.2741930261187
 30
0.0
 11
791.1162385430977
 21
-656.1421557274492
 31
0.0
  0
LINE
  5
243FD
  8
0
 10
787.1162462698668
 20
-652.82137688406
 30
0.0
 11
787.9162369626894
 21
-656.82137688406
 31
0.0
  0
LINE
  5
243FE
  8
0
 10
788.7162462698667
 20
-652.82137688406
 30
0.0
 11
789.516237489492
 21
-656.594969831856
 31
0.0
  0
LINE
  5
243FF
  8
0
 10
785.5162462698668
 20
-652.82137688406
 30
0.0
 11
786.3162369626893
 21
-656.82137688406
 31
0.0
  0
LINE
  5
24400
  8
0
 10
772.7162462698624
 20
-652.82137688406
 30
0.0
 11
773.5162369626806
 21
-656.82137688406
 31
0.0
  0
LINE
  5
24401
  8
0
 10
773.5162369626806
 20
-656.82137688406
 30
0.0
 11
773.6162381260783
 21
-656.32137688406
 31
0.0
  0
LINE
  5
24402
  8
0
 10
774.216245106469
 20
-653.32137688406
 30
0.0
 11
774.3162462698667
 21
-652.82137688406
 31
0.0
  0
LINE
  5
24403
  8
0
 10
771.9162369626805
 20
-656.82137688406
 30
0.0
 11
772.0162381260782
 21
-656.32137688406
 31
0.0
  0
LINE
  5
24404
  8
0
 10
770.3162369626806
 20
-656.82137688406
 30
0.0
 11
770.4162381260783
 21
-656.32137688406
 31
0.0
  0
LINE
  5
24405
  8
0
 10
772.6162451064647
 20
-653.32137688406
 30
0.0
 11
772.7162462698624
 21
-652.82137688406
 31
0.0
  0
LINE
  5
24406
  8
0
 10
771.0162451064646
 20
-653.32137688406
 30
0.0
 11
771.1162462698622
 21
-652.82137688406
 31
0.0
  0
LINE
  5
24407
  8
0
 10
771.1162462698622
 20
-652.82137688406
 30
0.0
 11
771.9162369626805
 21
-656.82137688406
 31
0.0
  0
LINE
  5
24408
  8
0
 10
778.316236962685
 20
-656.82137688406
 30
0.0
 11
778.4162381260827
 21
-656.32137688406
 31
0.0
  0
LINE
  5
24409
  8
0
 10
779.9162369626894
 20
-656.82137688406
 30
0.0
 11
780.0162381260865
 21
-656.32137688406
 31
0.0
  0
LINE
  5
2440A
  8
0
 10
775.116236962685
 20
-656.82137688406
 30
0.0
 11
775.2162381260827
 21
-656.32137688406
 31
0.0
  0
LINE
  5
2440B
  8
0
 10
776.7162369626849
 20
-656.82137688406
 30
0.0
 11
776.8162381260826
 21
-656.32137688406
 31
0.0
  0
LINE
  5
2440C
  8
0
 10
780.6162451064696
 20
-653.32137688406
 30
0.0
 11
780.7162462698667
 21
-652.82137688406
 31
0.0
  0
LINE
  5
2440D
  8
0
 10
779.016245106469
 20
-653.32137688406
 30
0.0
 11
779.1162462698668
 21
-652.82137688406
 31
0.0
  0
LINE
  5
2440E
  8
0
 10
775.816245106469
 20
-653.32137688406
 30
0.0
 11
775.9162462698666
 21
-652.82137688406
 31
0.0
  0
LINE
  5
2440F
  8
0
 10
777.4162451064691
 20
-653.32137688406
 30
0.0
 11
777.5162462698668
 21
-652.82137688406
 31
0.0
  0
LINE
  5
24410
  8
0
 10
777.5162462698668
 20
-652.82137688406
 30
0.0
 11
778.316236962685
 21
-656.82137688406
 31
0.0
  0
LINE
  5
24411
  8
0
 10
779.1162462698668
 20
-652.82137688406
 30
0.0
 11
779.9162369626894
 21
-656.82137688406
 31
0.0
  0
LINE
  5
24412
  8
0
 10
775.9162462698666
 20
-652.82137688406
 30
0.0
 11
776.7162369626849
 21
-656.82137688406
 31
0.0
  0
LINE
  5
24413
  8
0
 10
774.3162462698667
 20
-652.82137688406
 30
0.0
 11
775.116236962685
 21
-656.82137688406
 31
0.0
  0
LINE
  5
24414
  8
0
 10
764.6162451064605
 20
-653.32137688406
 30
0.0
 11
764.7162462698582
 21
-652.82137688406
 31
0.0
  0
LINE
  5
24415
  8
0
 10
764.7162462698582
 20
-652.82137688406
 30
0.0
 11
765.5162369626764
 21
-656.82137688406
 31
0.0
  0
LINE
  5
24416
  8
0
 10
765.5162369626764
 20
-656.82137688406
 30
0.0
 11
765.6162381260741
 21
-656.32137688406
 31
0.0
  0
LINE
  5
24417
  8
0
 10
766.2162451064604
 20
-653.32137688406
 30
0.0
 11
766.3162462698581
 21
-652.82137688406
 31
0.0
  0
LINE
  5
24418
  8
0
 10
767.8162451064603
 20
-653.32137688406
 30
0.0
 11
767.916246269858
 21
-652.82137688406
 31
0.0
  0
LINE
  5
24419
  8
0
 10
767.916246269858
 20
-652.82137688406
 30
0.0
 11
768.7162369626762
 21
-656.82137688406
 31
0.0
  0
LINE
  5
2441A
  8
0
 10
767.1162369626763
 20
-656.82137688406
 30
0.0
 11
767.216238126074
 21
-656.32137688406
 31
0.0
  0
LINE
  5
2441B
  8
0
 10
768.7162369626762
 20
-656.82137688406
 30
0.0
 11
768.8162381260739
 21
-656.32137688406
 31
0.0
  0
LINE
  5
2441C
  8
0
 10
766.3162462698581
 20
-652.82137688406
 30
0.0
 11
767.1162369626763
 21
-656.82137688406
 31
0.0
  0
LINE
  5
2441D
  8
0
 10
769.4162451064647
 20
-653.32137688406
 30
0.0
 11
769.5162462698623
 21
-652.82137688406
 31
0.0
  0
LINE
  5
2441E
  8
0
 10
763.0162451064606
 20
-653.32137688406
 30
0.0
 11
763.1162462698583
 21
-652.82137688406
 31
0.0
  0
LINE
  5
2441F
  8
0
 10
763.1162462698583
 20
-652.82137688406
 30
0.0
 11
763.9162369626765
 21
-656.82137688406
 31
0.0
  0
LINE
  5
24420
  8
0
 10
763.9162369626765
 20
-656.82137688406
 30
0.0
 11
764.0162381260742
 21
-656.32137688406
 31
0.0
  0
LINE
  5
24421
  8
0
 10
761.4162451064607
 20
-653.32137688406
 30
0.0
 11
761.5162462698584
 21
-652.82137688406
 31
0.0
  0
LINE
  5
24422
  8
0
 10
761.5162462698584
 20
-652.82137688406
 30
0.0
 11
762.3162369626766
 21
-656.82137688406
 31
0.0
  0
LINE
  5
24423
  8
0
 10
762.3162369626766
 20
-656.82137688406
 30
0.0
 11
762.4162381260743
 21
-656.32137688406
 31
0.0
  0
LINE
  5
24424
  8
0
 10
759.8162451064608
 20
-653.32137688406
 30
0.0
 11
759.9162462698584
 21
-652.82137688406
 31
0.0
  0
LINE
  5
24425
  8
0
 10
759.9162462698584
 20
-652.82137688406
 30
0.0
 11
760.7162369626767
 21
-656.82137688406
 31
0.0
  0
LINE
  5
24426
  8
0
 10
760.7162369626767
 20
-656.82137688406
 30
0.0
 11
760.8162381260744
 21
-656.32137688406
 31
0.0
  0
LINE
  5
24427
  8
0
 10
131.71619006386
 20
-504.8213303514287
 30
0.0
 11
133.21619006386
 21
-510.1213268612904
 31
0.0
  0
LINE
  5
24428
  8
0
 10
133.21619006386
 20
-510.1213268612904
 30
0.0
 11
133.2161900638598
 21
-539.8213268611823
 31
0.0
  0
LINE
  5
24429
  8
0
 10
131.71619006386
 20
-504.8213303514287
 30
0.0
 11
130.2161900638599
 21
-510.1213338416741
 31
0.0
  0
LINE
  5
2442A
  8
0
 10
135.2162365997578
 20
-539.8213222074843
 30
0.0
 11
128.216236599758
 21
-539.8213384950485
 31
0.0
  0
LINE
  5
2442B
  8
0
 10
130.2161900638599
 20
-510.1213338416741
 30
0.0
 11
130.2161900638598
 21
-539.821333841567
 31
0.0
  0
LINE
  5
2442C
  8
0
 10
135.2162365997578
 20
-539.8213222074843
 30
0.0
 11
135.216236599758
 21
-540.9213256976795
 31
0.0
  0
ARC
  5
2442D
  8
0
 10
133.716236599758
 20
-540.9213256976795
 30
0.0
 40
1.5
 50
270.0001333155316
 51
0.0
  0
LINE
  5
2442E
  8
0
 10
128.216236599758
 20
-539.8213384950485
 30
0.0
 11
128.216236599758
 21
-540.9213350048591
 31
0.0
  0
LINE
  5
2442F
  8
0
 10
133.7162400899504
 20
-542.4213256976755
 30
0.0
 11
129.7162400899504
 21
-542.4213350048551
 31
0.0
  0
ARC
  5
24430
  8
0
 10
129.716236599758
 20
-540.9213350048591
 30
0.0
 40
1.5
 50
180.0
 51
270.0001333155316
  0
LINE
  5
24431
  8
1CENTER
 10
131.716236599758
 20
-503.3905354339634
 30
0.0
 11
131.716236599758
 21
-543.4916067605752
 31
0.0
  0
LINE
  5
24432
  8
0
 10
132.810560413753
 20
-506.9213278051066
 30
0.0
 11
130.8482253248776
 21
-506.1213323710556
 31
0.0
  0
LINE
  5
24433
  8
0
 10
130.8482253248776
 20
-506.1213323710556
 30
0.0
 11
131.43650189992
 21
-505.8095625148035
 31
0.0
  0
LINE
  5
24434
  8
0
 10
133.71619006386
 20
-529.3213256978966
 30
0.0
 11
129.71619006386
 21
-528.5213350050783
 31
0.0
  0
LINE
  5
24435
  8
0
 10
133.71619006386
 20
-518.1213256978922
 30
0.0
 11
129.71619006386
 21
-517.3213350050696
 31
0.0
  0
LINE
  5
24436
  8
0
 10
133.71619006386
 20
-514.9213256978921
 30
0.0
 11
129.71619006386
 21
-514.1213350050696
 31
0.0
  0
LINE
  5
24437
  8
0
 10
129.71619006386
 20
-514.1213350050696
 30
0.0
 11
130.21619006386
 21
-514.0213338416723
 31
0.0
  0
LINE
  5
24438
  8
0
 10
133.21619006386
 20
-513.4213268612893
 30
0.0
 11
133.71619006386
 21
-513.3213256978921
 31
0.0
  0
LINE
  5
24439
  8
0
 10
129.71619006386
 20
-517.3213350050696
 30
0.0
 11
130.21619006386
 21
-517.2213338416724
 31
0.0
  0
LINE
  5
2443A
  8
0
 10
129.71619006386
 20
-515.7213350050695
 30
0.0
 11
130.21619006386
 21
-515.6213338416724
 31
0.0
  0
LINE
  5
2443B
  8
0
 10
133.21619006386
 20
-515.0213268612893
 30
0.0
 11
133.71619006386
 21
-514.9213256978921
 31
0.0
  0
LINE
  5
2443C
  8
0
 10
133.21619006386
 20
-516.6213268612892
 30
0.0
 11
133.71619006386
 21
-516.521325697892
 31
0.0
  0
LINE
  5
2443D
  8
0
 10
133.71619006386
 20
-516.521325697892
 30
0.0
 11
129.71619006386
 21
-515.7213350050695
 31
0.0
  0
LINE
  5
2443E
  8
0
 10
130.3954112204708
 20
-507.7213334246612
 30
0.0
 11
130.9471606842741
 21
-507.5385692820332
 31
0.0
  0
LINE
  5
2443F
  8
0
 10
129.71619006386
 20
-510.9213350050695
 30
0.0
 11
130.21619006386
 21
-510.8213338416724
 31
0.0
  0
LINE
  5
24440
  8
0
 10
129.71619006386
 20
-512.5213350050695
 30
0.0
 11
130.21619006386
 21
-512.4213338416725
 31
0.0
  0
LINE
  5
24441
  8
0
 10
129.942597116064
 20
-509.3213344782669
 30
0.0
 11
130.4791908513351
 21
-509.192063780637
 31
0.0
  0
LINE
  5
24442
  8
0
 10
132.7952754666513
 20
-508.6340962638524
 30
0.0
 11
133.2633739218013
 21
-508.5213267515023
 31
0.0
  0
LINE
  5
24443
  8
0
 10
133.21619006386
 20
-511.8213268612892
 30
0.0
 11
133.71619006386
 21
-511.7213256978921
 31
0.0
  0
LINE
  5
24444
  8
0
 10
133.21619006386
 20
-510.2213268612893
 30
0.0
 11
133.71619006386
 21
-510.1213256978922
 31
0.0
  0
LINE
  5
24445
  8
0
 10
132.3533885731219
 20
-507.072763601547
 30
0.0
 11
132.810560413753
 21
-506.9213278051066
 31
0.0
  0
LINE
  5
24446
  8
0
 10
133.2633739218013
 20
-508.5213267515023
 30
0.0
 11
130.3954112204708
 21
-507.7213334246612
 31
0.0
  0
LINE
  5
24447
  8
0
 10
133.71619006386
 20
-511.7213256978921
 30
0.0
 11
129.71619006386
 21
-510.9213350050695
 31
0.0
  0
LINE
  5
24448
  8
0
 10
133.71619006386
 20
-510.1213256978922
 30
0.0
 11
129.942597116064
 21
-509.3213344782669
 31
0.0
  0
LINE
  5
24449
  8
0
 10
133.71619006386
 20
-513.3213256978921
 30
0.0
 11
129.71619006386
 21
-512.5213350050695
 31
0.0
  0
LINE
  5
2444A
  8
0
 10
133.71619006386
 20
-526.1213256978965
 30
0.0
 11
129.71619006386
 21
-525.3213350050783
 31
0.0
  0
LINE
  5
2444B
  8
0
 10
129.71619006386
 20
-525.3213350050783
 30
0.0
 11
130.21619006386
 21
-525.2213338416806
 31
0.0
  0
LINE
  5
2444C
  8
0
 10
133.21619006386
 20
-524.6213268612898
 30
0.0
 11
133.71619006386
 21
-524.5213256978922
 31
0.0
  0
LINE
  5
2444D
  8
0
 10
129.71619006386
 20
-526.9213350050784
 30
0.0
 11
130.21619006386
 21
-526.8213338416807
 31
0.0
  0
LINE
  5
2444E
  8
0
 10
129.71619006386
 20
-528.5213350050783
 30
0.0
 11
130.21619006386
 21
-528.4213338416806
 31
0.0
  0
LINE
  5
2444F
  8
0
 10
133.21619006386
 20
-526.2213268612942
 30
0.0
 11
133.71619006386
 21
-526.1213256978965
 31
0.0
  0
LINE
  5
24450
  8
0
 10
133.21619006386
 20
-527.8213268612943
 30
0.0
 11
133.71619006386
 21
-527.7213256978966
 31
0.0
  0
LINE
  5
24451
  8
0
 10
133.71619006386
 20
-527.7213256978966
 30
0.0
 11
129.71619006386
 21
-526.9213350050784
 31
0.0
  0
LINE
  5
24452
  8
0
 10
129.71619006386
 20
-520.5213350050739
 30
0.0
 11
130.21619006386
 21
-520.4213338416762
 31
0.0
  0
LINE
  5
24453
  8
0
 10
129.71619006386
 20
-518.9213350050695
 30
0.0
 11
130.21619006386
 21
-518.8213338416724
 31
0.0
  0
LINE
  5
24454
  8
0
 10
129.71619006386
 20
-523.7213350050739
 30
0.0
 11
130.21619006386
 21
-523.6213338416762
 31
0.0
  0
LINE
  5
24455
  8
0
 10
129.71619006386
 20
-522.121335005074
 30
0.0
 11
130.21619006386
 21
-522.0213338416763
 31
0.0
  0
LINE
  5
24456
  8
0
 10
133.21619006386
 20
-518.2213268612893
 30
0.0
 11
133.71619006386
 21
-518.1213256978922
 31
0.0
  0
LINE
  5
24457
  8
0
 10
133.21619006386
 20
-519.8213268612899
 30
0.0
 11
133.71619006386
 21
-519.7213256978921
 31
0.0
  0
LINE
  5
24458
  8
0
 10
133.21619006386
 20
-523.0213268612899
 30
0.0
 11
133.71619006386
 21
-522.9213256978923
 31
0.0
  0
LINE
  5
24459
  8
0
 10
133.21619006386
 20
-521.4213268612898
 30
0.0
 11
133.71619006386
 21
-521.3213256978921
 31
0.0
  0
LINE
  5
2445A
  8
0
 10
133.71619006386
 20
-521.3213256978921
 30
0.0
 11
129.71619006386
 21
-520.5213350050739
 31
0.0
  0
LINE
  5
2445B
  8
0
 10
133.71619006386
 20
-519.7213256978921
 30
0.0
 11
129.71619006386
 21
-518.9213350050695
 31
0.0
  0
LINE
  5
2445C
  8
0
 10
133.71619006386
 20
-522.9213256978923
 30
0.0
 11
129.71619006386
 21
-522.121335005074
 31
0.0
  0
LINE
  5
2445D
  8
0
 10
133.71619006386
 20
-524.5213256978922
 30
0.0
 11
129.71619006386
 21
-523.7213350050739
 31
0.0
  0
LINE
  5
2445E
  8
0
 10
133.21619006386
 20
-534.2213268612984
 30
0.0
 11
133.71619006386
 21
-534.1213256979007
 31
0.0
  0
LINE
  5
2445F
  8
0
 10
133.71619006386
 20
-534.1213256979007
 30
0.0
 11
129.71619006386
 21
-533.3213350050825
 31
0.0
  0
LINE
  5
24460
  8
0
 10
129.71619006386
 20
-533.3213350050825
 30
0.0
 11
130.21619006386
 21
-533.2213338416848
 31
0.0
  0
LINE
  5
24461
  8
0
 10
133.21619006386
 20
-532.6213268612985
 30
0.0
 11
133.71619006386
 21
-532.5213256979008
 31
0.0
  0
LINE
  5
24462
  8
0
 10
133.21619006386
 20
-531.0213268612986
 30
0.0
 11
133.71619006386
 21
-530.9213256979009
 31
0.0
  0
LINE
  5
24463
  8
0
 10
133.71619006386
 20
-530.9213256979009
 30
0.0
 11
129.71619006386
 21
-530.1213350050826
 31
0.0
  0
LINE
  5
24464
  8
0
 10
129.71619006386
 20
-531.7213350050826
 30
0.0
 11
130.21619006386
 21
-531.6213338416849
 31
0.0
  0
LINE
  5
24465
  8
0
 10
129.71619006386
 20
-530.1213350050826
 30
0.0
 11
130.21619006386
 21
-530.021333841685
 31
0.0
  0
LINE
  5
24466
  8
0
 10
133.71619006386
 20
-532.5213256979008
 30
0.0
 11
129.71619006386
 21
-531.7213350050826
 31
0.0
  0
LINE
  5
24467
  8
0
 10
133.21619006386
 20
-529.4213268612942
 30
0.0
 11
133.71619006386
 21
-529.3213256978966
 31
0.0
  0
LINE
  5
24468
  8
0
 10
133.21619006386
 20
-535.8213268612983
 30
0.0
 11
133.71619006386
 21
-535.7213256979006
 31
0.0
  0
LINE
  5
24469
  8
0
 10
133.71619006386
 20
-535.7213256979006
 30
0.0
 11
129.71619006386
 21
-534.9213350050824
 31
0.0
  0
LINE
  5
2446A
  8
0
 10
129.71619006386
 20
-534.9213350050824
 30
0.0
 11
130.21619006386
 21
-534.8213338416847
 31
0.0
  0
LINE
  5
2446B
  8
0
 10
133.21619006386
 20
-537.4213268612982
 30
0.0
 11
133.71619006386
 21
-537.3213256979005
 31
0.0
  0
LINE
  5
2446C
  8
0
 10
133.71619006386
 20
-537.3213256979005
 30
0.0
 11
129.71619006386
 21
-536.5213350050823
 31
0.0
  0
LINE
  5
2446D
  8
0
 10
129.71619006386
 20
-536.5213350050823
 30
0.0
 11
130.21619006386
 21
-536.4213338416846
 31
0.0
  0
LINE
  5
2446E
  8
0
 10
133.21619006386
 20
-539.0213268612981
 30
0.0
 11
133.71619006386
 21
-538.9213256979004
 31
0.0
  0
LINE
  5
2446F
  8
0
 10
133.71619006386
 20
-538.9213256979004
 30
0.0
 11
129.71619006386
 21
-538.1213350050822
 31
0.0
  0
LINE
  5
24470
  8
0
 10
129.71619006386
 20
-538.1213350050822
 30
0.0
 11
130.21619006386
 21
-538.0213338416845
 31
0.0
  0
SOLID
  5
24471
  8
1DIM
 10
633.3661574381339
 20
-643.3428190492888
 30
0.0
 11
631.7162416153652
 21
-644.5213303512663
 31
0.0
 12
632.8947529173428
 22
-642.8714145284977
 32
0.0
 13
632.8947529173428
 23
-642.8714145284977
 33
0.0
1001
ACAD
1000
DSTYLE
1002
{
1070
    45
1040
0.5
1002
}
  0
LINE
  5
24472
  8
1DIM
 10
633.1304551777383
 20
-643.1071167888932
 30
0.0
 11
645.7162416153652
 21
-630.5213303512663
 31
0.0
1001
ACAD
1000
DSTYLE
1002
{
1070
    45
1040
0.5
1002
}
  0
LINE
  5
24473
  8
1DIM
 10
645.7162416153652
 20
-630.5213303512663
 30
0.0
 11
692.9829082820319
 21
-630.5213303512663
 31
0.0
1001
ACAD
1000
DSTYLE
1002
{
1070
    45
1040
0.5
1002
}
  0
TEXT
  5
24474
  8
1DIM
  6
CONTINUOUS
 10
647.4829082820319
 20
-630.0213303512663
 30
0.0
 40
3.5
  1
材質：亜鉛ダイキャスト
  0
LINE
  5
24475
  8
0
  6
BYBLOCK
 10
137.7162315779418
 20
-703.0290254912675
 30
0.0
 11
131.7162315779418
 21
-701.4213303512674
 31
0.0
  0
LINE
  5
24476
  8
0
  6
BYBLOCK
 10
131.7162315779418
 20
-701.4213303512674
 30
0.0
 11
137.7162315779418
 21
-699.8136352112674
 31
0.0
  0
LINE
  5
24477
  8
0
  6
BYBLOCK
 10
131.7162315779418
 20
-701.4213303512674
 30
0.0
 11
137.7162315779418
 21
-701.4213303512674
 31
0.0
  0
LINE
  5
24478
  8
0
  6
BYBLOCK
 10
625.7162416153653
 20
-699.8136352112674
 30
0.0
 11
631.7162416153653
 21
-701.4213303512674
 31
0.0
  0
LINE
  5
24479
  8
0
  6
BYBLOCK
 10
631.7162416153653
 20
-701.4213303512674
 30
0.0
 11
625.7162416153653
 21
-703.0290254912675
 31
0.0
  0
LINE
  5
2447A
  8
0
  6
BYBLOCK
 10
631.7162416153653
 20
-701.4213303512674
 30
0.0
 11
625.7162416153653
 21
-701.4213303512674
 31
0.0
  0
TEXT
  5
2447B
  8
1DIM1
  6
CONTINUOUS
 10
363.9610282633203
 20
-699.3213303512674
 30
0.0
 40
10.5
  1
P500
1001
ACAD
1000
DSTYLE
1002
{
1070
    40
1040
3.0
1070
    45
1040
0.5
1002
}
  0
LINE
  5
2447C
  8
0
  6
BYBLOCK
 10
544.7817291663247
 20
-590.8213302916618
 30
0.0
 11
544.2458307863246
 21
-592.8213302916618
 31
0.0
  0
LINE
  5
2447D
  8
0
  6
BYBLOCK
 10
544.2458307863246
 20
-592.8213302916618
 30
0.0
 11
543.7099324063246
 21
-590.8213302916618
 31
0.0
  0
LINE
  5
2447E
  8
0
  6
BYBLOCK
 10
544.2458307863246
 20
-592.8213302916618
 30
0.0
 11
544.2458307863246
 21
-590.8213302916618
 31
0.0
  0
LINE
  5
2447F
  8
0
  6
BYBLOCK
 10
543.7099324063246
 20
-572.821330410871
 30
0.0
 11
544.2458307863246
 21
-570.821330410871
 31
0.0
  0
LINE
  5
24480
  8
0
  6
BYBLOCK
 10
544.2458307863246
 20
-570.821330410871
 30
0.0
 11
544.7817291663247
 21
-572.821330410871
 31
0.0
  0
LINE
  5
24481
  8
0
  6
BYBLOCK
 10
544.2458307863246
 20
-570.821330410871
 30
0.0
 11
544.2458307863246
 21
-572.821330410871
 31
0.0
  0
TEXT
  5
24482
  8
1DIM
  6
CONTINUOUS
 10
543.5458307863246
 20
-568.8879970775375
 30
0.0
 40
3.5
  1
φ22
 50
90.0
1001
ACAD
1000
DSTYLE
1002
{
1070
    45
1040
0.5
1002
}
  0
LINE
  5
24483
  8
0
  6
BYBLOCK
 10
707.7162416153652
 20
-686.0290551459848
 30
0.0
 11
705.7162416153652
 21
-685.4931567659847
 31
0.0
  0
LINE
  5
24484
  8
0
  6
BYBLOCK
 10
705.7162416153652
 20
-685.4931567659847
 30
0.0
 11
707.7162416153652
 21
-684.9572583859847
 31
0.0
  0
LINE
  5
24485
  8
0
  6
BYBLOCK
 10
705.7162416153652
 20
-685.4931567659847
 30
0.0
 11
707.7162416153652
 21
-685.4931567659847
 31
0.0
  0
LINE
  5
24486
  8
0
  6
BYBLOCK
 10
761.0162416153653
 20
-684.9572583859847
 30
0.0
 11
763.0162416153653
 21
-685.4931567659847
 31
0.0
  0
LINE
  5
24487
  8
0
  6
BYBLOCK
 10
763.0162416153653
 20
-685.4931567659847
 30
0.0
 11
761.0162416153653
 21
-686.0290551459848
 31
0.0
  0
LINE
  5
24488
  8
0
  6
BYBLOCK
 10
763.0162416153653
 20
-685.4931567659847
 30
0.0
 11
761.0162416153653
 21
-685.4931567659847
 31
0.0
  0
TEXT
  5
24489
  8
1DIM
  6
CONTINUOUS
 10
729.1040888375874
 20
-684.7931567659846
 30
0.0
 40
3.5
  1
57.5
1001
ACAD
1000
DSTYLE
1002
{
1070
    45
1040
0.5
1002
}
  0
LINE
  5
2448A
  8
0
  6
BYBLOCK
 10
761.0162416153653
 20
-674.9572583859847
 30
0.0
 11
763.0162416153653
 21
-675.4931567659847
 31
0.0
  0
LINE
  5
2448B
  8
0
  6
BYBLOCK
 10
763.0162416153653
 20
-675.4931567659847
 30
0.0
 11
761.0162416153653
 21
-676.0290551459848
 31
0.0
  0
LINE
  5
2448C
  8
0
  6
BYBLOCK
 10
763.0162416153653
 20
-675.4931567659847
 30
0.0
 11
761.0162416153653
 21
-675.4931567659847
 31
0.0
  0
LINE
  5
2448D
  8
0
  6
BYBLOCK
 10
747.0162424158935
 20
-676.0290551459848
 30
0.0
 11
745.0162424158935
 21
-675.4931567659847
 31
0.0
  0
LINE
  5
2448E
  8
0
  6
BYBLOCK
 10
745.0162424158935
 20
-675.4931567659847
 30
0.0
 11
747.0162424158935
 21
-674.9572583859847
 31
0.0
  0
LINE
  5
2448F
  8
0
  6
BYBLOCK
 10
745.0162424158935
 20
-675.4931567659847
 30
0.0
 11
747.0162424158935
 21
-675.4931567659847
 31
0.0
  0
TEXT
  5
24490
  8
1DIM
  6
CONTINUOUS
 10
751.682908682296
 20
-674.7931567659847
 30
0.0
 40
3.5
  1
18
1001
ACAD
1000
DSTYLE
1002
{
1070
    45
1040
0.5
1002
}
  0
LINE
  5
24491
  8
0
  6
BYBLOCK
 10
805.0521399953653
 20
-652.8213303481621
 30
0.0
 11
804.5162416153653
 21
-654.8213303481621
 31
0.0
  0
LINE
  5
24492
  8
0
  6
BYBLOCK
 10
804.5162416153653
 20
-654.8213303481621
 30
0.0
 11
803.9803432353652
 21
-652.8213303481621
 31
0.0
  0
LINE
  5
24493
  8
0
  6
BYBLOCK
 10
804.5162416153653
 20
-654.8213303481621
 30
0.0
 11
804.5162416153653
 21
-652.8213303481621
 31
0.0
  0
LINE
  5
24494
  8
0
  6
BYBLOCK
 10
803.9803432353652
 20
-646.5213303512652
 30
0.0
 11
804.5162416153653
 21
-644.5213303512652
 31
0.0
  0
LINE
  5
24495
  8
0
  6
BYBLOCK
 10
804.5162416153653
 20
-644.5213303512652
 30
0.0
 11
805.0521399953653
 21
-646.5213303512652
 31
0.0
  0
LINE
  5
24496
  8
0
  6
BYBLOCK
 10
804.5162416153653
 20
-644.5213303512652
 30
0.0
 11
804.5162416153653
 21
-646.5213303512652
 31
0.0
  0
TEXT
  5
24497
  8
1DIM
  6
CONTINUOUS
 10
803.8162416153652
 20
-651.4213303497136
 30
0.0
 40
3.5
  1
11
 50
90.0
1001
ACAD
1000
DSTYLE
1002
{
1070
    45
1040
0.5
1070
   271
1070
     0
1002
}
  0
LINE
  5
24498
  8
0
  6
BYBLOCK
 10
126.4162315779419
 20
-733.0290254912677
 30
0.0
 11
120.4162315779419
 21
-731.4213303512677
 31
0.0
  0
LINE
  5
24499
  8
0
  6
BYBLOCK
 10
120.4162315779419
 20
-731.4213303512677
 30
0.0
 11
126.4162315779419
 21
-729.8136352112676
 31
0.0
  0
LINE
  5
2449A
  8
0
  6
BYBLOCK
 10
120.4162315779419
 20
-731.4213303512677
 30
0.0
 11
126.4162315779419
 21
-731.4213303512677
 31
0.0
  0
LINE
  5
2449B
  8
0
  6
BYBLOCK
 10
637.0162416153653
 20
-729.8136352112676
 30
0.0
 11
643.0162416153653
 21
-731.4213303512677
 31
0.0
  0
LINE
  5
2449C
  8
0
  6
BYBLOCK
 10
643.0162416153653
 20
-731.4213303512677
 30
0.0
 11
637.0162416153653
 21
-733.0290254912677
 31
0.0
  0
LINE
  5
2449D
  8
0
  6
BYBLOCK
 10
643.0162416153653
 20
-731.4213303512677
 30
0.0
 11
637.0162416153653
 21
-731.4213303512677
 31
0.0
  0
TEXT
  5
2449E
  8
1DIM1
  6
CONTINUOUS
 10
360.6797782633203
 20
-729.3213303512676
 30
0.0
 40
10.5
  1
522.5
1001
ACAD
1000
DSTYLE
1002
{
1070
    40
1040
3.0
1070
    45
1040
0.5
1002
}
  0
LINE
  5
2449F
  8
0
  6
BYBLOCK
 10
815.0521399953653
 20
-665.1213303512653
 30
0.0
 11
814.5162416153653
 21
-667.1213303512653
 31
0.0
  0
LINE
  5
244A0
  8
0
  6
BYBLOCK
 10
814.5162416153653
 20
-667.1213303512653
 30
0.0
 11
813.9803432353652
 21
-665.1213303512653
 31
0.0
  0
LINE
  5
244A1
  8
0
  6
BYBLOCK
 10
814.5162416153653
 20
-667.1213303512653
 30
0.0
 11
814.5162416153653
 21
-665.1213303512653
 31
0.0
  0
LINE
  5
244A2
  8
0
  6
BYBLOCK
 10
813.9803432353652
 20
-646.5213303512652
 30
0.0
 11
814.5162416153653
 21
-644.5213303512652
 31
0.0
  0
LINE
  5
244A3
  8
0
  6
BYBLOCK
 10
814.5162416153653
 20
-644.5213303512652
 30
0.0
 11
815.0521399953653
 21
-646.5213303512652
 31
0.0
  0
LINE
  5
244A4
  8
0
  6
BYBLOCK
 10
814.5162416153653
 20
-644.5213303512652
 30
0.0
 11
814.5162416153653
 21
-646.5213303512652
 31
0.0
  0
TEXT
  5
244A5
  8
1DIM
  6
CONTINUOUS
 10
813.8162416153654
 20
-663.6379970179319
 30
0.0
 40
3.5
  1
φ22.5
 50
90.0
1001
ACAD
1000
DSTYLE
1002
{
1070
    70
1070
     0
1070
    69
1070
     0
1070
    45
1040
0.5
1002
}
  0
VIEWPORT
  5
57
 67
     1
  8
0
 10
0.0
 20
0.0
 30
0.0
 40
522.4048442906575
 41
297.0
 68
     1
 69
     1
1001
ACAD
1000
MVIEW
1002
{
1070
    16
1010
0.0
1020
0.0
1030
0.0
1010
0.0
1020
0.0
1030
1.0
1040
0.0
1040
297.0
1040
-4.171999999925362
1040
12.83903210976956
1040
50.0
1040
0.0
1040
0.0
1070
    16
1070
   100
1070
     0
1070
     1
1070
     0
1070
     0
1070
     0
1070
     0
1040
0.0
1040
0.0
1040
0.0
1040
10.0
1040
10.0
1040
10.0
1040
10.0
1070
     0
1002
{
1002
}
1002
}
  0
ENDSEC
  0
EOF
