  0
SECTION
  2
HEADER
  9
$ACADVER
  1
AC1009
  9
$DWGCODEPAGE
  3
ansi_932
  9
$INSBASE
 10
0.0
 20
0.0
 30
0.0
  9
$EXTMIN
 10
272.4162356310576
 20
-734.4213303512677
 30
0.0
  9
$EXTMAX
 10
815.5162416153653
 20
-496.6164692401553
 30
0.0
  9
$LIMMIN
 10
0.0
 20
0.0
  9
$LIMMAX
 10
420.0
 20
297.0
  9
$ORTHOMODE
 70
     0
  9
$REGENMODE
 70
     1
  9
$FILLMODE
 70
     1
  9
$QTEXTMODE
 70
     0
  9
$MIRRTEXT
 70
     0
  9
$DRAGMODE
 70
     2
  9
$LTSCALE
 40
0.5
  9
$OSMODE
 70
  2303
  9
$ATTMODE
 70
     1
  9
$TEXTSIZE
 40
4.0
  9
$TRACEWID
 40
1.0
  9
$TEXTSTYLE
  7
STANDARD
  9
$CLAYER
  8
1TEXT
  9
$CELTYPE
  6
BYLAYER
  9
$CECOLOR
 62
   256
  9
$DIMSCALE
 40
1.0
  9
$DIMASZ
 40
2.0
  9
$DIMEXO
 40
0.0
  9
$DIMDLI
 40
7.0
  9
$DIMRND
 40
0.0
  9
$DIMDLE
 40
0.0
  9
$DIMEXE
 40
1.0
  9
$DIMTP
 40
0.0
  9
$DIMTM
 40
0.0
  9
$DIMTXT
 40
3.5
  9
$DIMCEN
 40
0.0
  9
$DIMTSZ
 40
0.0
  9
$DIMTOL
 70
     0
  9
$DIMLIM
 70
     0
  9
$DIMTIH
 70
     0
  9
$DIMTOH
 70
     0
  9
$DIMSE1
 70
     0
  9
$DIMSE2
 70
     0
  9
$DIMTAD
 70
     1
  9
$DIMZIN
 70
     8
  9
$DIMBLK
  1

  9
$DIMASO
 70
     1
  9
$DIMSHO
 70
     1
  9
$DIMPOST
  1
 
  9
$DIMAPOST
  1

  9
$DIMALT
 70
     0
  9
$DIMALTD
 70
     2
  9
$DIMALTF
 40
25.4
  9
$DIMLFAC
 40
1.0
  9
$DIMTOFL
 70
     1
  9
$DIMTVP
 40
0.0
  9
$DIMTIX
 70
     0
  9
$DIMSOXD
 70
     0
  9
$DIMSAH
 70
     1
  9
$DIMBLK1
  1
OPEN30
  9
$DIMBLK2
  1
OPEN30
  9
$DIMSTYLE
  2
NEWX10
  9
$DIMCLRD
 70
   256
  9
$DIMCLRE
 70
   256
  9
$DIMCLRT
 70
   201
  9
$DIMTFAC
 40
0.7
  9
$DIMGAP
 40
0.7
  9
$LUNITS
 70
     2
  9
$LUPREC
 70
     4
  9
$SKETCHINC
 40
1.0
  9
$FILLETRAD
 40
0.0
  9
$AUNITS
 70
     0
  9
$AUPREC
 70
     2
  9
$MENU
  1
acad
  9
$ELEVATION
 40
0.0
  9
$PELEVATION
 40
0.0
  9
$THICKNESS
 40
0.0
  9
$LIMCHECK
 70
     0
  9
$CHAMFERA
 40
1.0
  9
$CHAMFERB
 40
1.0
  9
$SKPOLY
 70
     0
  9
$TDCREATE
 40
2453033.732663484
  9
$TDUPDATE
 40
2460243.368953137
  9
$TDINDWG
 40
2.7343837384
  9
$TDUSRTIMER
 40
2.73438375
  9
$USRTIMER
 70
     1
  9
$ANGBASE
 50
0.0
  9
$ANGDIR
 70
     0
  9
$PDMODE
 70
     0
  9
$PDSIZE
 40
0.0
  9
$PLINEWID
 40
0.0
  9
$COORDS
 70
     2
  9
$SPLFRAME
 70
     0
  9
$SPLINETYPE
 70
     6
  9
$SPLINESEGS
 70
     8
  9
$ATTDIA
 70
     0
  9
$ATTREQ
 70
     1
  9
$HANDLING
 70
     1
  9
$HANDSEED
  5
24E96
  9
$SURFTAB1
 70
     6
  9
$SURFTAB2
 70
     6
  9
$SURFTYPE
 70
     6
  9
$SURFU
 70
     6
  9
$SURFV
 70
     6
  9
$UCSNAME
  2

  9
$UCSORG
 10
0.0
 20
0.0
 30
0.0
  9
$UCSXDIR
 10
1.0
 20
0.0
 30
0.0
  9
$UCSYDIR
 10
0.0
 20
1.0
 30
0.0
  9
$PUCSNAME
  2

  9
$PUCSORG
 10
0.0
 20
0.0
 30
0.0
  9
$PUCSXDIR
 10
1.0
 20
0.0
 30
0.0
  9
$PUCSYDIR
 10
0.0
 20
1.0
 30
0.0
  9
$USERI1
 70
     0
  9
$USERI2
 70
     0
  9
$USERI3
 70
     0
  9
$USERI4
 70
     0
  9
$USERI5
 70
     0
  9
$USERR1
 40
0.0
  9
$USERR2
 40
0.0
  9
$USERR3
 40
0.0
  9
$USERR4
 40
0.0
  9
$USERR5
 40
0.0
  9
$WORLDVIEW
 70
     1
  9
$SHADEDGE
 70
     3
  9
$SHADEDIF
 70
    70
  9
$TILEMODE
 70
     1
  9
$MAXACTVP
 70
    48
  9
$PLIMCHECK
 70
     0
  9
$PEXTMIN
 10
1.000000000000000E+20
 20
1.000000000000000E+20
 30
1.000000000000000E+20
  9
$PEXTMAX
 10
-1.000000000000000E+20
 20
-1.000000000000000E+20
 30
-1.000000000000000E+20
  9
$PLIMMIN
 10
0.0
 20
0.0
  9
$PLIMMAX
 10
420.0
 20
297.0
  9
$UNITMODE
 70
     0
  9
$VISRETAIN
 70
     1
  9
$PLINEGEN
 70
     0
  9
$PSLTSCALE
 70
     1
  0
ENDSEC
  0
SECTION
  2
TABLES
  0
TABLE
  2
VPORT
 70
     1
  0
VPORT
  2
*ACTIVE
 70
     0
 10
0.0
 20
0.0
 11
1.0
 21
1.0
 12
543.9662386232114
 22
-615.5188997957115
 13
0.0
 23
0.0
 14
10.0
 24
10.0
 15
10.0
 25
10.0
 16
0.0
 26
0.0
 36
1.0
 17
0.0
 27
0.0
 37
0.0
 40
331.5168657754359
 41
1.758938869665513
 42
50.0
 43
0.0
 44
0.0
 50
0.0
 51
0.0
 71
    16
 72
   100
 73
     1
 74
     1
 75
     0
 76
     0
 77
     0
 78
     0
  0
ENDTAB
  0
TABLE
  2
LTYPE
 70
    19
  0
LTYPE
  2
CONTINUOUS
 70
     0
  3
Solid line
 72
    65
 73
     0
 40
0.0
  0
LTYPE
  2
CENTER2
 70
     0
  3
Center (.5x) ___ _ ___ _ ___ _ ___ _ ___ _ ___
 72
    65
 73
     4
 40
28.575
 49
19.05
 49
-3.175
 49
3.175
 49
-3.175
  0
LTYPE
  2
PHANTOM2
 70
     0
  3
Phantom (0.5x) ___ _ _ ___ _ _ ___ _ _ ___ _ _
 72
    65
 73
     6
 40
31.75
 49
15.875
 49
-3.175
 49
3.175
 49
-3.175
 49
3.175
 49
-3.175
  0
ENDTAB
  0
TABLE
  2
LAYER
 70
    45
  0
LAYER
  2
0
 70
     0
 62
     7
  6
CONTINUOUS
  0
LAYER
  2
1CENTER
 70
     0
 62
     7
  6
CENTER2
  0
LAYER
  2
1TEXT
 70
     0
 62
     7
  6
CONTINUOUS
  0
LAYER
  2
1DIM
 70
     0
 62
     7
  6
CONTINUOUS
  0
LAYER
  2
1PHANTOM
 70
     0
 62
     7
  6
PHANTOM2
  0
LAYER
  2
01
 70
     0
 62
     1
  6
CONTINUOUS
  0
LAYER
  2
1DIM1
 70
     0
 62
     7
  6
CONTINUOUS
  0
LAYER
  2
1HATCH
 70
     0
 62
     7
  6
CONTINUOUS
  0
ENDTAB
  0
TABLE
  2
STYLE
 70
    26
  0
STYLE
  2
STANDARD
 70
     0
 40
0.0
 41
1.0
 50
0.0
 71
     0
 42
4.0
  3
txt.shx
  4
extfont.shx
  0
ENDTAB
  0
TABLE
  2
VIEW
 70
     0
  0
ENDTAB
  0
TABLE
  2
UCS
 70
     0
  0
ENDTAB
  0
TABLE
  2
APPID
 70
    18
  0
APPID
  2
ACAD
 70
     0
  0
APPID
  2
DRAWINGVARIABLESXDATA
 70
     0
  0
APPID
  2
CONTENTTABDATA
 70
     0
  0
APPID
  2
CONTENTCURRENTTAB
 70
     0
  0
APPID
  2
CONTENTBLOCKDESCRIPTION
 70
     0
  0
APPID
  2
CONTENTBLOCKICON
 70
     0
  0
APPID
  2
CONTENTLONGBLOCKNAME
 70
     0
  0
APPID
  2
ACAD_PSEXT
 70
     0
  0
APPID
  2
ACAD_DSTYLE_DIMTEXT_FILL
 70
     0
  0
APPID
  2
ACAD_MLEADERVER
 70
     0
  0
APPID
  2
ACAD_DSTYLE_DIMRADIAL_EXTE
 70
     0
  0
APPID
  2
ACADANNOTATIVE
 70
     0
  0
APPID
  2
ACAD_EXEMPT_FROM_CAD_STAND
 70
     0
  0
APPID
  2
ACDBBLOCKREPETAG
 70
     0
  0
APPID
  2
ACAD_OBJECT_CHANGE_GUID
 70
     0
  0
APPID
  2
ACAD_NAV_VCDISPLAY
 70
     0
  0
APPID
  2
ACLAYERTOOLS
 70
     0
  0
APPID
  2
ACDBDYNAMICBLOCKGUID
 70
     0
  0
ENDTAB
  0
TABLE
  2
DIMSTYLE
 70
    11
  0
DIMSTYLE
  2
NEWX10
 70
     0
  3
 
  4

  5

  6
OPEN30
  7
OPEN30
 40
1.0
 41
2.0
 42
0.0
 43
7.0
 44
1.0
 45
0.0
 46
0.0
 47
0.0
 48
0.0
140
3.5
141
0.0
142
0.0
143
25.4
144
1.0
145
0.0
146
0.7
147
0.7
 71
     0
 72
     0
 73
     0
 74
     0
 75
     0
 76
     0
 77
     1
 78
     8
170
     0
171
     2
172
     1
173
     1
174
     0
175
     0
176
   256
177
   256
178
   201
  0
DIMSTYLE
  2
ISO-25
 70
     0
  3

  4

  5

  6

  7

 40
1.0
 41
20.0
 42
3.0
 43
3.75
 44
2.0
 45
0.0
 46
0.0
 47
0.0
 48
0.0
140
30.0
141
5.0
142
0.0
143
0.03937
144
1.0
145
0.0
146
1.0
147
8.0
 71
     0
 72
     0
 73
     0
 74
     0
 75
     0
 76
     0
 77
     1
 78
     8
170
     0
171
     3
172
     1
173
     0
174
     0
175
     0
176
     1
177
     1
178
     1
  0
ENDTAB
  0
ENDSEC
  0
SECTION
  2
BLOCKS
  0
BLOCK
  8
0
  2
$MODEL_SPACE
 70
     0
 10
0.0
 20
0.0
 30
0.0
  3
$MODEL_SPACE
  1

  0
ENDBLK
  5
1A
  8
0
  0
BLOCK
 67
     1
  8
0
  2
$PAPER_SPACE
 70
     0
 10
0.0
 20
0.0
 30
0.0
  3
$PAPER_SPACE
  1

  0
ENDBLK
  5
17
 67
     1
  8
0
  0
BLOCK
  8
0
  2
_OPEN30
 70
     0
 10
0.0
 20
0.0
 30
0.0
  3
_OPEN30
  1

  0
LINE
  5
44
  8
0
  6
BYBLOCK
 62
     0
 10
-1.0
 20
0.26794919
 30
0.0
 11
0.0
 21
0.0
 31
0.0
  0
LINE
  5
45
  8
0
  6
BYBLOCK
 62
     0
 10
0.0
 20
0.0
 30
0.0
 11
-1.0
 21
-0.26794919
 31
0.0
  0
LINE
  5
46
  8
0
  6
BYBLOCK
 62
     0
 10
0.0
 20
0.0
 30
0.0
 11
-1.0
 21
0.0
 31
0.0
  0
ENDBLK
  5
47
  8
0
  0
BLOCK
  8
0
  2
A3WAKUKAWAJUN2017_HYOUDAI_
 70
     0
 10
0.0
 20
0.0
 30
0.0
  3
A3WAKUKAWAJUN2017_HYOUDAI_
  1

  0
LINE
  5
20318
  8
0
 10
13.26299999998673
 20
-0.0001000000000317
 30
0.0
 11
9.236999999990758
 21
8.999899999990987
 31
0.0
1001
ACAD
1000
ASC_BOUNDS
1002
{
1070
    19
1005
20359
1002
}
  0
LINE
  5
20319
  8
0
 10
5.657999999994331
 20
0.9999999999989768
 30
0.0
 11
9.236999999990758
 21
8.999999999991019
 31
0.0
1001
ACAD
1000
ASC_BOUNDS
1002
{
1070
    19
1005
20359
1002
}
  0
LINE
  5
2031A
  8
0
 10
18.59199999998134
 20
-0.2368999999997641
 30
0.0
 11
16.46099999998353
 21
5.432899999994561
 31
0.0
1001
ACAD
1000
ASC_BOUNDS
1002
{
1070
    19
1005
2035A
1002
}
  0
LINE
  5
2031B
  8
0
 10
18.59199999998134
 20
-0.2368999999997641
 30
0.0
 11
22.38199999997767
 21
8.763099999991255
 31
0.0
1001
ACAD
1000
ASC_BOUNDS
1002
{
1070
    19
1005
2035A
1002
}
  0
LINE
  5
2031C
  8
0
 10
14.32899999998563
 20
-0.2368999999997641
 30
0.0
 11
16.46099999998353
 21
5.432899999994561
 31
0.0
1001
ACAD
1000
ASC_BOUNDS
1002
{
1070
    19
1005
2035A
1002
}
  0
LINE
  5
2031D
  8
0
 10
14.32899999998563
 20
-0.2368999999997641
 30
0.0
 11
10.53899999998941
 21
8.763099999991255
 31
0.0
1001
ACAD
1000
ASC_BOUNDS
1002
{
1070
    19
1005
2035A
1002
}
  0
LINE
  5
2031E
  8
0
 10
19.53899999998043
 20
-0.0001000000000317
 30
0.0
 11
23.56599999997638
 21
8.999899999990987
 31
0.0
1001
ACAD
1000
ASC_BOUNDS
1002
{
1070
    19
1005
2035B
1002
}
  0
LINE
  5
2031F
  8
0
 10
26.97358892824991
 20
1.383099999991202
 30
0.0
 11
23.56599999997638
 21
8.999899999990987
 31
0.0
1001
ACAD
1000
ASC_BOUNDS
1002
{
1070
    19
1005
2035B
1002
}
  0
LINE
  5
20320
  8
0
 10
5.657999999994331
 20
0.9999999999989768
 30
0.0
 11
3.181999999996833
 21
4.668599999995308
 31
0.0
1001
ACAD
1000
ASC_BOUNDS
1002
{
1070
    19
1005
20359
1002
}
  0
LINE
  5
20321
  8
0
 10
4.617999999995391
 20
-0.0001000000000317
 30
0.0
 11
1.420999999998571
 21
4.736799999995242
 31
0.0
1001
ACAD
1000
ASC_BOUNDS
1002
{
1070
    19
1005
20359
1002
}
  0
LINE
  5
20322
  8
0
 10
1.420999999998571
 20
8.763099999991255
 30
0.0
 11
1.420999999998571
 21
0.0
 31
0.0
1001
ACAD
1000
ASC_BOUNDS
1002
{
1070
    19
1005
2035E
1002
}
  0
LINE
  5
20323
  8
0
 10
0.0
 20
8.763099999991255
 30
0.0
 11
0.0
 21
0.0
 31
0.0
1001
ACAD
1000
ASC_BOUNDS
1002
{
1070
    19
1005
2035E
1002
}
  0
LINE
  5
20324
  8
0
 10
6.766999999993232
 20
-0.0001000000000317
 30
0.0
 11
7.826999999992154
 21
2.368399999997621
 31
0.0
1001
ACAD
1000
ASC_BOUNDS
1002
{
1070
    19
1005
20359
1002
}
  0
LINE
  5
20325
  8
0
 10
0.0
 20
0.0
 30
0.0
 11
1.420999999998571
 21
0.0
 31
0.0
1001
ACAD
1000
ASC_BOUNDS
1002
{
1070
    19
1005
2035E
1002
}
  0
LINE
  5
20326
  8
0
 10
4.617999999995391
 20
0.0
 30
0.0
 11
6.766999999993232
 21
0.0
 31
0.0
1001
ACAD
1000
ASC_BOUNDS
1002
{
1070
    19
1005
20359
1002
}
  0
LINE
  5
20327
  8
0
 10
11.70599999998831
 20
-0.0001000000000317
 30
0.0
 11
10.64699999998936
 21
2.368399999997621
 31
0.0
1001
ACAD
1000
ASC_BOUNDS
1002
{
1070
    19
1005
20359
1002
}
  0
LINE
  5
20328
  8
0
 10
7.826999999992154
 20
2.368399999997621
 30
0.0
 11
10.64699999998936
 21
2.368399999997621
 31
0.0
1001
ACAD
1000
ASC_BOUNDS
1002
{
1070
    19
1005
20359
1002
}
  0
LINE
  5
20329
  8
0
 10
11.70599999998831
 20
0.0
 30
0.0
 11
13.26299999998673
 21
0.0
 31
0.0
1001
ACAD
1000
ASC_BOUNDS
1002
{
1070
    19
1005
20359
1002
}
  0
LINE
  5
2032A
  8
0
 10
22.15599999997789
 20
2.368399999997621
 30
0.0
 11
24.97599999997499
 21
2.368399999997621
 31
0.0
1001
ACAD
1000
ASC_BOUNDS
1002
{
1070
    19
1005
2035B
1002
}
  0
LINE
  5
2032B
  8
0
 10
19.53899999998043
 20
0.0
 30
0.0
 11
21.09599999997886
 21
0.0
 31
0.0
1001
ACAD
1000
ASC_BOUNDS
1002
{
1070
    19
1005
2035B
1002
}
  0
LINE
  5
2032C
  8
0
 10
21.09599999997886
 20
-0.0001000000000317
 30
0.0
 11
22.15599999997789
 21
2.368399999997621
 31
0.0
1001
ACAD
1000
ASC_BOUNDS
1002
{
1070
    19
1005
2035B
1002
}
  0
LINE
  5
2032D
  8
0
 10
26.02015566812236
 20
0.0330999999912365
 30
0.0
 11
24.97599999997499
 21
2.368399999997621
 31
0.0
1001
ACAD
1000
ASC_BOUNDS
1002
{
1070
    19
1005
2035B
1002
}
  0
LINE
  5
2032E
  8
0
 10
14.32399999998563
 20
3.315799999996671
 30
0.0
 11
16.46099999998353
 21
8.999899999990987
 31
0.0
1001
ACAD
1000
ASC_BOUNDS
1002
{
1070
    19
1005
2035A
1002
}
  0
LINE
  5
2032F
  8
0
 10
6.432999999993513
 20
8.763099999991255
 30
0.0
 11
3.181999999996833
 21
4.668599999995308
 31
0.0
1001
ACAD
1000
ASC_BOUNDS
1002
{
1070
    19
1005
20359
1002
}
  0
LINE
  5
20330
  8
0
 10
4.617999999995391
 20
8.763099999991255
 30
0.0
 11
1.420999999998571
 21
4.736799999995242
 31
0.0
1001
ACAD
1000
ASC_BOUNDS
1002
{
1070
    19
1005
20359
1002
}
  0
LINE
  5
20331
  8
0
 10
0.0
 20
8.763099999991255
 30
0.0
 11
1.420999999998571
 21
8.763099999991255
 31
0.0
1001
ACAD
1000
ASC_BOUNDS
1002
{
1070
    19
1005
2035E
1002
}
  0
LINE
  5
20332
  8
0
 10
4.617999999995391
 20
8.763099999991255
 30
0.0
 11
6.432999999993513
 21
8.763099999991255
 31
0.0
1001
ACAD
1000
ASC_BOUNDS
1002
{
1070
    19
1005
20359
1002
}
  0
LINE
  5
20333
  8
0
 10
14.32399999998563
 20
3.315799999996671
 30
0.0
 11
12.02999999998792
 21
8.763099999991255
 31
0.0
1001
ACAD
1000
ASC_BOUNDS
1002
{
1070
    19
1005
2035A
1002
}
  0
LINE
  5
20334
  8
0
 10
10.06399999998996
 20
3.670999999996297
 30
0.0
 11
9.236999999990758
 21
5.5200999999945
 31
0.0
1001
ACAD
1000
ASC_BOUNDS
1002
{
1070
    19
1005
20359
1002
}
  0
LINE
  5
20335
  8
0
 10
8.409999999991555
 20
3.670999999996297
 30
0.0
 11
9.236999999990758
 21
5.5200999999945
 31
0.0
1001
ACAD
1000
ASC_BOUNDS
1002
{
1070
    19
1005
20359
1002
}
  0
LINE
  5
20336
  8
0
 10
8.409999999991555
 20
3.670999999996297
 30
0.0
 11
10.06399999998996
 21
3.670999999996297
 31
0.0
1001
ACAD
1000
ASC_BOUNDS
1002
{
1070
    19
1005
20359
1002
}
  0
LINE
  5
20337
  8
0
 10
10.53899999998941
 20
8.763099999991255
 30
0.0
 11
12.02999999998792
 21
8.763099999991255
 31
0.0
1001
ACAD
1000
ASC_BOUNDS
1002
{
1070
    19
1005
2035A
1002
}
  0
LINE
  5
20338
  8
0
 10
22.7389999999773
 20
3.670999999996297
 30
0.0
 11
23.56599999997638
 21
5.5200999999945
 31
0.0
1001
ACAD
1000
ASC_BOUNDS
1002
{
1070
    19
1005
2035B
1002
}
  0
LINE
  5
20339
  8
0
 10
22.7389999999773
 20
3.670999999996297
 30
0.0
 11
24.39299999997559
 21
3.670999999996297
 31
0.0
1001
ACAD
1000
ASC_BOUNDS
1002
{
1070
    19
1005
2035B
1002
}
  0
LINE
  5
2033A
  8
0
 10
18.59799999998143
 20
3.315799999996671
 30
0.0
 11
20.89099999997916
 21
8.763099999991255
 31
0.0
1001
ACAD
1000
ASC_BOUNDS
1002
{
1070
    19
1005
2035A
1002
}
  0
LINE
  5
2033B
  8
0
 10
18.59799999998143
 20
3.315799999996671
 30
0.0
 11
16.46099999998353
 21
8.999899999990987
 31
0.0
1001
ACAD
1000
ASC_BOUNDS
1002
{
1070
    19
1005
2035A
1002
}
  0
LINE
  5
2033C
  8
0
 10
20.89099999997916
 20
8.763099999991255
 30
0.0
 11
22.38199999997767
 21
8.763099999991255
 31
0.0
1001
ACAD
1000
ASC_BOUNDS
1002
{
1070
    19
1005
2035A
1002
}
  0
LINE
  5
2033D
  8
0
 10
24.39299999997559
 20
3.670999999996297
 30
0.0
 11
23.56599999997638
 21
5.5200999999945
 31
0.0
1001
ACAD
1000
ASC_BOUNDS
1002
{
1070
    19
1005
2035B
1002
}
  0
LINE
  5
2033E
  8
0
 10
44.99999999995498
 20
-0.2368999999997641
 30
0.0
 11
40.02599999995994
 21
5.341799999994635
 31
0.0
1001
ACAD
1000
ASC_BOUNDS
1002
{
1070
    19
1005
2035D
1002
}
  0
LINE
  5
2033F
  8
0
 10
40.02599999995994
 20
5.341799999994635
 30
0.0
 11
40.02599999995994
 21
0.0
 31
0.0
1001
ACAD
1000
ASC_BOUNDS
1002
{
1070
    19
1005
2035D
1002
}
  0
LINE
  5
20340
  8
0
 10
38.60499999996136
 20
8.999999999991019
 30
0.0
 11
38.60499999996136
 21
0.0
 31
0.0
1001
ACAD
1000
ASC_BOUNDS
1002
{
1070
    19
1005
2035D
1002
}
  0
LINE
  5
20341
  8
0
 10
44.99999999995498
 20
8.763099999991255
 30
0.0
 11
44.99999999995498
 21
-0.2368999999997641
 31
0.0
1001
ACAD
1000
ASC_BOUNDS
1002
{
1070
    19
1005
2035D
1002
}
  0
LINE
  5
20342
  8
0
 10
38.60499999996136
 20
0.0
 30
0.0
 11
40.02599999995994
 21
0.0
 31
0.0
1001
ACAD
1000
ASC_BOUNDS
1002
{
1070
    19
1005
2035D
1002
}
  0
LINE
  5
20343
  8
0
 10
43.57899999995641
 20
3.421199999996588
 30
0.0
 11
38.60499999996136
 21
8.999899999990987
 31
0.0
1001
ACAD
1000
ASC_BOUNDS
1002
{
1070
    19
1005
2035D
1002
}
  0
LINE
  5
20344
  8
0
 10
43.57899999995641
 20
8.763099999991255
 30
0.0
 11
43.57899999995641
 21
3.421199999996588
 31
0.0
1001
ACAD
1000
ASC_BOUNDS
1002
{
1070
    19
1005
2035D
1002
}
  0
LINE
  5
20345
  8
0
 10
43.57899999995641
 20
8.763099999991255
 30
0.0
 11
44.99999999995498
 21
8.763099999991255
 31
0.0
1001
ACAD
1000
ASC_BOUNDS
1002
{
1070
    19
1005
2035D
1002
}
  0
LINE
  5
20346
  8
0
 10
37.67199999996831
 20
8.763099999991255
 30
0.0
 11
36.23199999996837
 21
8.763099999991255
 31
0.0
  0
LINE
  5
20347
  8
0
 10
31.64199999996833
 20
8.763099999991255
 30
0.0
 11
31.64199999996833
 21
2.481619422925121
 31
0.0
  0
LINE
  5
20348
  8
0
 10
37.67199999996831
 20
8.763099999991255
 30
0.0
 11
37.67199999996831
 21
2.481619422925121
 31
0.0
  0
LINE
  5
20349
  8
0
 10
36.23199999996837
 20
8.763099999991255
 30
0.0
 11
36.23199999996837
 21
2.481619422925064
 31
0.0
  0
LINE
  5
2034A
  8
0
 10
33.08199999996839
 20
8.763099999991255
 30
0.0
 11
33.08199999996839
 21
2.481619422925121
 31
0.0
  0
ARC
  5
2034B
  8
0
 10
34.65699999996832
 20
3.183099999991214
 30
0.0
 40
3.420000000000007
 50
240.0000000000255
 51
299.9999999999766
  0
ARC
  5
2034C
  8
0
 10
34.65699999996832
 20
3.183099999991214
 30
0.0
 40
1.97999999999999
 50
240.000000000026
 51
299.9999999999703
  0
LINE
  5
2034D
  8
0
 10
33.08199999996828
 20
8.763099999991255
 30
0.0
 11
31.64199999996833
 21
8.763099999991255
 31
0.0
  0
ARC
  5
2034E
  8
0
 10
35.06199999996829
 20
2.481619422925064
 30
0.0
 40
1.17
 50
299.9999999999699
 51
0.0
  0
ARC
  5
2034F
  8
0
 10
34.25199999996835
 20
2.481619422925121
 30
0.0
 40
1.17
 50
180.0
 51
240.0000000000238
  0
ARC
  5
20350
  8
0
 10
35.06199999996841
 20
2.481619422925121
 30
0.0
 40
2.61
 50
299.9999999999756
 51
0.0
  0
ARC
  5
20351
  8
0
 10
34.25199999996835
 20
2.481619422925121
 30
0.0
 40
2.61
 50
180.0
 51
240.0000000000244
  0
LINE
  5
20352
  8
0
 10
29.30199999996933
 20
8.763099999991255
 30
0.0
 11
30.74199999996927
 21
8.763099999991255
 31
0.0
1001
ACAD
1000
ASC_BOUNDS
1002
{
1070
    19
1005
2035B
1002
}
  0
LINE
  5
20353
  8
0
 10
30.74199999996927
 20
8.763099999991255
 30
0.0
 11
30.74199999996927
 21
2.373099999991211
 31
0.0
1001
ACAD
1000
ASC_BOUNDS
1002
{
1070
    19
1005
2035B
1002
}
  0
LINE
  5
20354
  8
0
 10
26.02015566812236
 20
0.0330999999912365
 30
0.0
 11
28.40199999996923
 21
0.0330999999912365
 31
0.0
1001
ACAD
1000
ASC_BOUNDS
1002
{
1070
    19
1005
2035B
1002
}
  0
LINE
  5
20355
  8
0
 10
29.30199999996933
 20
8.763099999991255
 30
0.0
 11
29.30199999996933
 21
2.283099999991236
 31
0.0
1001
ACAD
1000
ASC_BOUNDS
1002
{
1070
    19
1005
2035B
1002
}
  0
LINE
  5
20356
  8
0
 10
26.97358892824991
 20
1.383099999991202
 30
0.0
 11
28.40199999996923
 21
1.383099999991202
 31
0.0
1001
ACAD
1000
ASC_BOUNDS
1002
{
1070
    19
1005
2035B
1002
}
  0
ARC
  5
20357
  8
0
 10
28.40199999996923
 20
2.283099999991236
 30
0.0
 40
0.9
 50
270.0
 51
0.0
1001
ACAD
1000
ASC_BOUNDS
1002
{
1070
    19
1005
2035B
1002
}
  0
ARC
  5
20358
  8
0
 10
28.40199999996923
 20
2.373099999991211
 30
0.0
 40
2.34
 50
270.0
 51
0.0
1001
ACAD
1000
ASC_BOUNDS
1002
{
1070
    19
1005
2035B
1002
}
  0
INSERT
  5
20359
  8
0
  2
*X333
 10
0.0
 20
0.0
 30
0.0
1001
ACAD
1000
HATCH
1002
{
1070
    19
1000
ANSI37
1040
0.15
1040
0.0
1000
ASC_BOUNDS
1070
     2
1070
     2
1070
    12
1005
20318
1005
20319
1005
20320
1005
2032F
1005
20332
1005
20330
1005
20321
1005
20326
1005
20324
1005
20328
1005
20327
1005
20329
1070
     2
1070
     3
1005
20334
1005
20336
1005
20335
1000
ASC_SEEDPOINT
1011
3.614004224891801
1021
2.996669441146025
1031
0.0
1021
2.996669441146025
1031
0.0
1000
R14_HATCH_DATA
1000
20359
1011
1.0
1021
0.0
1031
0.0
1021
0.0
1031
0.0
1011
0.0
1021
1.0
1031
0.0
1021
1.0
1031
0.0
1011
0.0
1021
0.0
1031
1.0
1021
0.0
1031
1.0
1040
0.0
1010
0.0
1020
0.0
1030
1.0
1000
ANSI37
1070
     0
1070
     1
1071
        2
1071
        7
1070
     0
1070
     1
1071
       17
1040
13.26299999998673
1040
-0.0001000000000317
1040
9.236999999990758
1040
8.999899999990987
1040
9.236999999990758
1040
8.999999999991019
1040
5.657999999994331
1040
0.9999999999989768
1040
3.181999999996833
1040
4.668599999995308
1040
6.432999999993513
1040
8.763099999991255
1040
4.617999999995391
1040
8.763099999991255
1040
1.420999999998571
1040
4.736799999995242
1040
4.617999999995391
1040
-0.0001000000000317
1040
4.617999999995391
1040
0.0
1040
6.766999999993232
1040
0.0
1040
6.766999999993232
1040
-0.0001000000000317
1040
7.826999999992154
1040
2.368399999997621
1040
10.64699999998936
1040
2.368399999997621
1040
11.70599999998831
1040
-0.0001000000000317
1040
11.70599999998831
1040
0.0
1040
13.26299999998673
1040
0.0
1071
       12
1005
20318
1005
20319
1005
20320
1005
2032F
1005
20332
1005
20330
1005
20321
1005
20326
1005
20324
1005
20328
1005
20327
1005
20329
1071
       22
1070
     0
1070
     1
1071
        3
1040
9.236999999990758
1040
5.5200999999945
1040
10.06399999998996
1040
3.670999999996297
1040
8.409999999991555
1040
3.670999999996297
1071
        3
1005
20334
1005
20336
1005
20335
1070
     0
1070
     1
1040
0.0
1040
0.15
1070
     0
1070
     2
1040
0.7853981633974483
1040
49.29960901727088
1040
-10.17736998311392
1040
-0.3367596045400932
1040
0.3367596045400932
1070
     0
1040
2.356194490192345
1040
49.29960901727088
1040
-10.17736998311392
1040
-0.3367596045400932
1040
-0.3367596045400932
1070
     0
1040
0.0110235143455945
1071
        2
1040
3.614004224891801
1040
2.996669441146025
1040
0.0
1040
3.614004224891801
1040
2.996669441146025
1040
0.0
1002
}
  0
INSERT
  5
2035A
  8
0
  2
*X334
 10
0.0
 20
0.0
 30
0.0
1001
ACAD
1000
HATCH
1002
{
1070
    19
1000
ANSI37
1040
0.15
1040
0.0
1000
ASC_BOUNDS
1070
     1
1070
     2
1070
    10
1005
2031A
1005
2031B
1005
2033C
1005
2033A
1005
2033B
1005
2032E
1005
20333
1005
20337
1005
2031D
1005
2031C
1000
ASC_SEEDPOINT
1011
14.73245321214324
1021
2.798246178283421
1031
0.0
1021
2.798246178283421
1031
0.0
1000
R14_HATCH_DATA
1000
2035A
1011
1.0
1021
0.0
1031
0.0
1021
0.0
1031
0.0
1011
0.0
1021
1.0
1031
0.0
1021
1.0
1031
0.0
1011
0.0
1021
0.0
1031
1.0
1021
0.0
1031
1.0
1040
0.0
1010
0.0
1020
0.0
1030
1.0
1000
ANSI37
1070
     0
1070
     1
1071
        1
1071
        7
1070
     0
1070
     1
1071
       10
1040
16.46099999998353
1040
5.432899999994561
1040
18.59199999998134
1040
-0.2368999999997641
1040
22.38199999997767
1040
8.763099999991255
1040
20.89099999997916
1040
8.763099999991255
1040
18.59799999998143
1040
3.315799999996671
1040
16.46099999998353
1040
8.999899999990987
1040
14.32399999998563
1040
3.315799999996671
1040
12.02999999998792
1040
8.763099999991255
1040
10.53899999998941
1040
8.763099999991255
1040
14.32899999998563
1040
-0.2368999999997641
1071
       10
1005
2031A
1005
2031B
1005
2033C
1005
2033A
1005
2033B
1005
2032E
1005
20333
1005
20337
1005
2031D
1005
2031C
1070
     0
1070
     1
1040
0.0
1040
0.15
1070
     0
1070
     2
1040
0.7853981633974483
1040
49.29960901727088
1040
-10.17736998311392
1040
-0.3367596045400932
1040
0.3367596045400932
1070
     0
1040
2.356194490192345
1040
49.29960901727088
1040
-10.17736998311392
1040
-0.3367596045400932
1040
-0.3367596045400932
1070
     0
1040
0.0110235143455945
1071
        1
1040
14.73245321214324
1040
2.798246178283421
1040
0.0
1002
}
  0
INSERT
  5
2035B
  8
0
  2
*X335
 10
0.0
 20
0.0
 30
0.0
1001
ACAD
1000
HATCH
1002
{
1070
    19
1000
ANSI37
1040
0.15
1040
0.0
1000
ASC_BOUNDS
1070
     2
1070
     2
1070
    13
1005
2031E
1005
2032B
1005
2032C
1005
2032A
1005
2032D
1005
20354
1005
20358
1005
20353
1005
20352
1005
20355
1005
20357
1005
20356
1005
2031F
1070
     2
1070
     3
1005
20338
1005
2033D
1005
20339
1000
ASC_SEEDPOINT
1011
21.97929957367762
1021
3.294304244259308
1031
0.0
1021
3.294304244259308
1031
0.0
1000
R14_HATCH_DATA
1000
2035B
1011
1.0
1021
0.0
1031
0.0
1021
0.0
1031
0.0
1011
0.0
1021
1.0
1031
0.0
1021
1.0
1031
0.0
1011
0.0
1021
0.0
1031
1.0
1021
0.0
1031
1.0
1040
0.0
1010
0.0
1020
0.0
1030
1.0
1000
ANSI37
1070
     0
1070
     1
1071
        2
1071
        7
1070
     1
1070
     1
1071
       15
1040
23.56599999997638
1040
8.999899999990987
1040
0.0
1040
19.53899999998043
1040
-0.0001000000000317
1040
0.0
1040
19.53899999998043
1040
0.0
1040
0.0
1040
21.09599999997886
1040
0.0
1040
0.0
1040
21.09599999997886
1040
-0.0001000000000317
1040
0.0
1040
22.15599999997789
1040
2.368399999997621
1040
0.0
1040
24.97599999997499
1040
2.368399999997621
1040
0.0
1040
26.02015566812236
1040
0.0330999999912365
1040
0.0
1040
28.40199999996923
1040
0.0330999999912365
1040
0.414213562373095
1040
30.74199999996923
1040
2.373099999991211
1040
0.0
1040
30.74199999996927
1040
8.763099999991255
1040
0.0
1040
29.30199999996933
1040
8.763099999991255
1040
0.0
1040
29.30199999996933
1040
2.283099999991236
1040
-0.414213562373095
1040
28.40199999996923
1040
1.383099999991237
1040
0.0
1040
26.97358892824991
1040
1.383099999991202
1040
0.0
1071
       13
1005
2031E
1005
2032B
1005
2032C
1005
2032A
1005
2032D
1005
20354
1005
20358
1005
20353
1005
20352
1005
20355
1005
20357
1005
20356
1005
2031F
1071
       22
1070
     0
1070
     1
1071
        3
1040
22.7389999999773
1040
3.670999999996297
1040
23.56599999997638
1040
5.5200999999945
1040
24.39299999997559
1040
3.670999999996297
1071
        3
1005
20338
1005
2033D
1005
20339
1070
     0
1070
     1
1040
0.0
1040
0.15
1070
     0
1070
     2
1040
0.7853981633974483
1040
49.29960901727088
1040
-10.17736998311392
1040
-0.3367596045400932
1040
0.3367596045400932
1070
     0
1040
2.356194490192345
1040
49.29960901727088
1040
-10.17736998311392
1040
-0.3367596045400932
1040
-0.3367596045400932
1070
     0
1040
0.0110235143455945
1071
        2
1040
21.97929957367762
1040
3.294304244259308
1040
0.0
1040
21.97929957367762
1040
3.294304244259308
1040
0.0
1002
}
  0
INSERT
  5
2035C
  8
0
  2
*X336
 10
0.0
 20
0.0
 30
0.0
1001
ACAD
1000
HATCH
1002
{
1070
    19
1000
ANSI37
1040
0.15
1040
0.0
1000
R14_HATCH_DATA
1000
2035C
1011
1.0
1021
0.0
1031
0.0
1021
0.0
1031
0.0
1011
0.0
1021
1.0
1031
0.0
1021
1.0
1031
0.0
1011
0.0
1021
0.0
1031
1.0
1021
0.0
1031
1.0
1040
0.0
1010
0.0
1020
0.0
1030
1.0
1000
ANSI37
1070
     0
1070
     1
1071
        1
1071
        7
1070
     1
1070
     1
1071
       12
1040
31.64199999996833
1040
2.481619422925121
1040
0.2679491924310942
1040
32.94699999997067
1040
0.2212931190493919
1040
0.2679491924301353
1040
36.36699999995983
1040
0.2212931190459813
1040
0.2679491924321411
1040
37.67199999996831
1040
2.481619422928361
1040
0.0
1040
37.67199999996831
1040
8.763099999991255
1040
0.0
1040
36.23199999996837
1040
8.763099999991255
1040
0.0
1040
36.23199999996837
1040
2.481619422925064
1040
-0.2679491924310291
1040
35.64699999996708
1040
1.468369700498386
1040
-0.267949192430519
1040
33.66699999997093
1040
1.468369700497703
1040
-0.267949192431809
1040
33.08199999996839
1040
2.481619422926997
1040
0.0
1040
33.08199999996839
1040
8.763099999991255
1040
0.0
1040
31.64199999996833
1040
8.763099999991255
1040
0.0
1071
        0
1070
     0
1070
     1
1040
0.0
1040
0.15
1070
     0
1070
     2
1040
0.7853981633974483
1040
49.29960901727088
1040
-10.17736998311392
1040
-0.3367596045400932
1040
0.3367596045400932
1070
     0
1040
2.356194490192345
1040
49.29960901727088
1040
-10.17736998311392
1040
-0.3367596045400932
1040
-0.3367596045400932
1070
     0
1040
0.0110235143455945
1071
        1
1040
32.30357378967278
1040
3.988785755459219
1040
0.0
1002
}
  0
INSERT
  5
2035D
  8
0
  2
*X337
 10
0.0
 20
0.0
 30
0.0
1001
ACAD
1000
HATCH
1002
{
1070
    19
1000
ANSI37
1040
0.15
1040
0.0
1000
ASC_BOUNDS
1070
     1
1070
     2
1070
     8
1005
2033E
1005
20341
1005
20345
1005
20344
1005
20343
1005
20340
1005
20342
1005
2033F
1000
ASC_SEEDPOINT
1011
39.74896370716704
1021
4.484843821435049
1031
0.0
1021
4.484843821435049
1031
0.0
1000
R14_HATCH_DATA
1000
2035D
1011
1.0
1021
0.0
1031
0.0
1021
0.0
1031
0.0
1011
0.0
1021
1.0
1031
0.0
1021
1.0
1031
0.0
1011
0.0
1021
0.0
1031
1.0
1021
0.0
1031
1.0
1040
0.0
1010
0.0
1020
0.0
1030
1.0
1000
ANSI37
1070
     0
1070
     1
1071
        1
1071
        7
1070
     0
1070
     1
1071
        9
1040
40.02599999995994
1040
5.341799999994635
1040
44.99999999995498
1040
-0.2368999999997641
1040
44.99999999995498
1040
8.763099999991255
1040
43.57899999995641
1040
8.763099999991255
1040
43.57899999995641
1040
3.421199999996588
1040
38.60499999996136
1040
8.999899999990987
1040
38.60499999996136
1040
8.999999999991019
1040
38.60499999996136
1040
0.0
1040
40.02599999995994
1040
0.0
1071
        8
1005
2033E
1005
20341
1005
20345
1005
20344
1005
20343
1005
20340
1005
20342
1005
2033F
1070
     0
1070
     1
1040
0.0
1040
0.15
1070
     0
1070
     2
1040
0.7853981633974483
1040
49.29960901727088
1040
-10.17736998311392
1040
-0.3367596045400932
1040
0.3367596045400932
1070
     0
1040
2.356194490192345
1040
49.29960901727088
1040
-10.17736998311392
1040
-0.3367596045400932
1040
-0.3367596045400932
1070
     0
1040
0.0110235143455945
1071
        1
1040
39.74896370716704
1040
4.484843821435049
1040
0.0
1002
}
  0
INSERT
  5
2035E
  8
0
  2
*X338
 10
0.0
 20
0.0
 30
0.0
1001
ACAD
1000
HATCH
1002
{
1070
    19
1000
ANSI37
1040
0.15
1040
0.0
1000
ASC_BOUNDS
1070
     1
1070
     2
1070
     4
1005
20322
1005
20331
1005
20323
1005
20325
1000
ASC_SEEDPOINT
1011
1.079051535452663
1021
4.148538732891836
1031
0.0
1021
4.148538732891836
1031
0.0
1000
R14_HATCH_DATA
1000
2035E
1011
1.0
1021
0.0
1031
0.0
1021
0.0
1031
0.0
1011
0.0
1021
1.0
1031
0.0
1021
1.0
1031
0.0
1011
0.0
1021
0.0
1031
1.0
1021
0.0
1031
1.0
1040
0.0
1010
0.0
1020
0.0
1030
1.0
1000
ANSI37
1070
     0
1070
     1
1071
        1
1071
        7
1070
     0
1070
     1
1071
        4
1040
1.420999999998571
1040
0.0
1040
1.420999999998571
1040
8.763099999991255
1040
0.0
1040
8.763099999991255
1040
0.0
1040
0.0
1071
        4
1005
20322
1005
20331
1005
20323
1005
20325
1070
     0
1070
     1
1040
0.0
1040
0.15
1070
     0
1070
     2
1040
0.7853981633974483
1040
49.29960901727088
1040
-10.17736998311392
1040
-0.3367596045400932
1040
0.3367596045400932
1070
     0
1040
2.356194490192345
1040
49.29960901727088
1040
-10.17736998311392
1040
-0.3367596045400932
1040
-0.3367596045400932
1070
     0
1040
0.0053004257112761
1071
        1
1040
1.079051535452663
1040
4.148538732891836
1040
0.0
1002
}
  0
ENDBLK
  5
20A16
  8
0
  0
BLOCK
  8
0
  2
*X333
 70
     1
 10
0.0
 20
0.0
 30
0.0
  3
*X333
  1

  0
LINE
  5
24CF3
  8
0
  6
CONTINUOUS
 10
3.418023043697893
 20
7.251849696850613
 30
0.0
 11
4.929273346838536
 21
8.763099999991255
 31
0.0
  0
LINE
  5
24CF4
  8
0
  6
CONTINUOUS
 10
1.483656411257782
 20
4.643963855330318
 30
0.0
 11
5.60279255591872
 21
8.763099999991255
 31
0.0
  0
LINE
  5
24CF5
  8
0
  6
CONTINUOUS
 10
1.755053947328235
 20
4.241842182320584
 30
0.0
 11
6.276311764998907
 21
8.763099999991255
 31
0.0
  0
LINE
  5
24CF6
  8
0
  6
CONTINUOUS
 10
2.026451483398688
 20
3.839720509310849
 30
0.0
 11
4.441040904851878
 21
6.254309930764039
 31
0.0
  0
LINE
  5
24CF7
  8
0
  6
CONTINUOUS
 10
2.297849019469139
 20
3.437598836301114
 30
0.0
 11
3.321765168359338
 21
4.461514985191313
 31
0.0
  0
LINE
  5
24CF8
  8
0
  6
CONTINUOUS
 10
2.569246555539591
 20
3.03547716329138
 30
0.0
 11
3.593163397972743
 21
4.059394005724531
 31
0.0
  0
LINE
  5
24CF9
  8
0
  6
CONTINUOUS
 10
2.840644091610043
 20
2.633355490281646
 30
0.0
 11
3.864561627586149
 21
3.657273026257751
 31
0.0
  0
LINE
  5
24CFA
  8
0
  6
CONTINUOUS
 10
3.112041627680496
 20
2.231233817271911
 30
0.0
 11
4.135959857199554
 21
3.25515204679097
 31
0.0
  0
LINE
  5
24CFB
  8
0
  6
CONTINUOUS
 10
3.383439163750948
 20
1.829112144262177
 30
0.0
 11
4.40735808681296
 21
2.853031067324189
 31
0.0
  0
LINE
  5
24CFC
  8
0
  6
CONTINUOUS
 10
3.654836699821399
 20
1.426990471252442
 30
0.0
 11
4.678756316426365
 21
2.450910087857407
 31
0.0
  0
LINE
  5
24CFD
  8
0
  6
CONTINUOUS
 10
3.926234235891853
 20
1.024868798242709
 30
0.0
 11
4.95015454603977
 21
2.048789108390626
 31
0.0
  0
LINE
  5
24CFE
  8
0
  6
CONTINUOUS
 10
4.197631771962304
 20
0.6227471252329737
 30
0.0
 11
5.221552775653176
 21
1.646668128923846
 31
0.0
  0
LINE
  5
24CFF
  8
0
  6
CONTINUOUS
 10
8.715877546767851
 20
7.835069736359266
 30
0.0
 11
9.435953450375058
 21
8.555145639966472
 31
0.0
  0
LINE
  5
24D00
  8
0
  6
CONTINUOUS
 10
8.170620868422267
 20
6.616293848933497
 30
0.0
 11
9.644120833743461
 21
8.08979381425469
 31
0.0
  0
LINE
  5
24D01
  8
0
  6
CONTINUOUS
 10
7.625364190076684
 20
5.397517961507727
 30
0.0
 11
9.852288217111864
 21
7.624441988542907
 31
0.0
  0
LINE
  5
24D02
  8
0
  6
CONTINUOUS
 10
7.080107511731101
 20
4.178742074081957
 30
0.0
 11
10.06045560048027
 21
7.159090162831124
 31
0.0
  0
LINE
  5
24D03
  8
0
  6
CONTINUOUS
 10
6.534850833385518
 20
2.959966186656187
 30
0.0
 11
10.26862298384867
 21
6.693738337119342
 31
0.0
  0
LINE
  5
24D04
  8
0
  6
CONTINUOUS
 10
4.469029308032756
 20
0.2206254522232385
 30
0.0
 11
5.492951005266582
 21
1.244547149457064
 31
0.0
  0
LINE
  5
24D05
  8
0
  6
CONTINUOUS
 10
5.989594155039935
 20
1.741190299230417
 30
0.0
 11
8.806950407233131
 21
4.558546551423613
 31
0.0
  0
LINE
  5
24D06
  8
0
  6
CONTINUOUS
 10
9.401251593263643
 20
5.152847737454126
 30
0.0
 11
10.47679036721708
 21
6.228386511407559
 31
0.0
  0
LINE
  5
24D07
  8
0
  6
CONTINUOUS
 10
4.921837203428691
 20
-0.0000858614610131
 30
0.0
 11
8.592923064886001
 21
3.670999999996297
 31
0.0
  0
LINE
  5
24D08
  8
0
  6
CONTINUOUS
 10
9.609390446785305
 20
4.6874673818956
 30
0.0
 11
10.68495775058548
 21
5.763034685695775
 31
0.0
  0
LINE
  5
24D09
  8
0
  6
CONTINUOUS
 10
5.595387755019432
 20
-0.0000545189504582
 30
0.0
 11
7.716137258923768
 21
2.120694984953879
 31
0.0
  0
LINE
  5
24D0A
  8
0
  6
CONTINUOUS
 10
6.268938306610172
 20
-0.000023176439905
 30
0.0
 11
7.170485805526503
 21
0.9015243224764267
 31
0.0
  0
LINE
  5
24D0B
  8
0
  6
CONTINUOUS
 10
7.963842273967511
 20
2.368399999997621
 30
0.0
 11
9.266442273966188
 21
3.670999999996297
 31
0.0
  0
LINE
  5
24D0C
  8
0
  6
CONTINUOUS
 10
8.637361483047696
 20
2.368399999997621
 30
0.0
 11
9.939961483046375
 21
3.670999999996297
 31
0.0
  0
LINE
  5
24D0D
  8
0
  6
CONTINUOUS
 10
9.817529300306965
 20
4.222087026337075
 30
0.0
 11
10.89312513395388
 21
5.297682859983993
 31
0.0
  0
LINE
  5
24D0E
  8
0
  6
CONTINUOUS
 10
10.02566815382863
 20
3.756706670778549
 30
0.0
 11
11.10129251732229
 21
4.832331034272211
 31
0.0
  0
LINE
  5
24D0F
  8
0
  6
CONTINUOUS
 10
9.310880692127883
 20
2.368399999997621
 30
0.0
 11
11.30945990069069
 21
4.366979208560428
 31
0.0
  0
LINE
  5
24D10
  8
0
  6
CONTINUOUS
 10
9.98439990120807
 20
2.36839999999762
 30
0.0
 11
11.5176272840591
 21
3.901627382848645
 31
0.0
  0
LINE
  5
24D11
  8
0
  6
CONTINUOUS
 10
10.65037369446246
 20
2.36085458417182
 30
0.0
 11
11.7257946674275
 21
3.436275557136862
 31
0.0
  0
LINE
  5
24D12
  8
0
  6
CONTINUOUS
 10
10.85847197087848
 20
1.895433651507656
 30
0.0
 11
11.9339620507959
 21
2.97092373142508
 31
0.0
  0
LINE
  5
24D13
  8
0
  6
CONTINUOUS
 10
11.0665702472945
 20
1.430012718843491
 30
0.0
 11
12.14212943416431
 21
2.505571905713296
 31
0.0
  0
LINE
  5
24D14
  8
0
  6
CONTINUOUS
 10
11.27466852371052
 20
0.9645917861793256
 30
0.0
 11
12.35029681753271
 21
2.040220080001513
 31
0.0
  0
LINE
  5
24D15
  8
0
  6
CONTINUOUS
 10
11.48276680012654
 20
0.4991708535151611
 30
0.0
 11
12.55846420090111
 21
1.57486825428973
 31
0.0
  0
LINE
  5
24D16
  8
0
  6
CONTINUOUS
 10
11.69086507654257
 20
0.0337499208509957
 30
0.0
 11
12.76663158426952
 21
1.109516428577947
 31
0.0
  0
LINE
  5
24D17
  8
0
  6
CONTINUOUS
 10
12.33057447873954
 20
-0.0000598860322123
 30
0.0
 11
12.97479896763792
 21
0.6441646028661663
 31
0.0
  0
LINE
  5
24D18
  8
0
  6
CONTINUOUS
 10
13.00413694809395
 20
-0.0000166257579952
 30
0.0
 11
13.18296635100632
 21
0.1788127771543824
 31
0.0
  0
LINE
  5
24D19
  8
0
  6
CONTINUOUS
 10
4.772852165289667
 20
-0.000092794222212
 30
0.0
 11
4.296495091028902
 21
0.4762642800385528
 31
0.0
  0
LINE
  5
24D1A
  8
0
  6
CONTINUOUS
 10
5.446340034776103
 20
-0.0000614546284616
 30
0.0
 11
2.898195908335625
 21
2.548082671812017
 31
0.0
  0
LINE
  5
24D1B
  8
0
  6
CONTINUOUS
 10
6.119827904262539
 20
-0.0000301150347113
 30
0.0
 11
1.499896725642348
 21
4.61990106358548
 31
0.0
  0
LINE
  5
24D1C
  8
0
  6
CONTINUOUS
 10
6.775136745476159
 20
0.0181802528318542
 30
0.0
 11
5.699826040202669
 21
1.093490958105344
 31
0.0
  0
LINE
  5
24D1D
  8
0
  6
CONTINUOUS
 10
6.983376846288489
 20
0.4834593610997118
 30
0.0
 11
5.908008617934405
 21
1.558827589453796
 31
0.0
  0
LINE
  5
24D1E
  8
0
  6
CONTINUOUS
 10
5.377063484962296
 20
1.416253513345719
 30
0.0
 11
1.702276957014131
 21
5.091040041293883
 31
0.0
  0
LINE
  5
24D1F
  8
0
  6
CONTINUOUS
 10
3.978745891735324
 20
3.488090315652877
 30
0.0
 11
2.000373521109399
 21
5.466462686278803
 31
0.0
  0
LINE
  5
24D20
  8
0
  6
CONTINUOUS
 10
7.191616947100819
 20
0.948738469367568
 30
0.0
 11
6.11619119566614
 21
2.024164220802247
 31
0.0
  0
LINE
  5
24D21
  8
0
  6
CONTINUOUS
 10
7.399857047913149
 20
1.414017577635424
 30
0.0
 11
6.324373773397875
 21
2.489500852150698
 31
0.0
  0
LINE
  5
24D22
  8
0
  6
CONTINUOUS
 10
7.608097148725479
 20
1.879296685903281
 30
0.0
 11
6.53255635112961
 21
2.95483748349915
 31
0.0
  0
LINE
  5
24D23
  8
0
  6
CONTINUOUS
 10
7.816337249537808
 20
2.344575794171138
 30
0.0
 11
6.740738928861345
 21
3.420174114847601
 31
0.0
  0
LINE
  5
24D24
  8
0
  6
CONTINUOUS
 10
3.310241080789734
 20
4.830114335678653
 30
0.0
 11
2.298470085204666
 21
5.84188533126372
 31
0.0
  0
LINE
  5
24D25
  8
0
  6
CONTINUOUS
 10
3.60832983563551
 20
5.205544789913063
 30
0.0
 11
2.596566649299935
 21
6.217307976248638
 31
0.0
  0
LINE
  5
24D26
  8
0
  6
CONTINUOUS
 10
3.906418590481286
 20
5.580975244147473
 30
0.0
 11
2.894663213395203
 21
6.592730621233557
 31
0.0
  0
LINE
  5
24D27
  8
0
  6
CONTINUOUS
 10
4.204507345327062
 20
5.956405698381884
 30
0.0
 11
3.192759777490472
 21
6.968153266218474
 31
0.0
  0
LINE
  5
24D28
  8
0
  6
CONTINUOUS
 10
8.466032252791512
 20
2.368399999997621
 30
0.0
 11
6.948921506593081
 21
3.885510746196053
 31
0.0
  0
LINE
  5
24D29
  8
0
  6
CONTINUOUS
 10
9.139551461871699
 20
2.36839999999762
 30
0.0
 11
7.157104084324816
 21
4.350847377544504
 31
0.0
  0
LINE
  5
24D2A
  8
0
  6
CONTINUOUS
 10
4.502596100172839
 20
6.331836152616295
 30
0.0
 11
3.49085634158574
 21
7.343575911203393
 31
0.0
  0
LINE
  5
24D2B
  8
0
  6
CONTINUOUS
 10
4.800684855018615
 20
6.707266606850705
 30
0.0
 11
3.788952905681008
 21
7.718998556188312
 31
0.0
  0
LINE
  5
24D2C
  8
0
  6
CONTINUOUS
 10
12.18154012887317
 20
-0.0000694579236642
 30
0.0
 11
11.32140332908496
 21
0.8600673418645499
 31
0.0
  0
LINE
  5
24D2D
  8
0
  6
CONTINUOUS
 10
12.85501608323566
 20
-0.0000262032059659
 30
0.0
 11
10.77672456435345
 21
2.078265315676246
 31
0.0
  0
LINE
  5
24D2E
  8
0
  6
CONTINUOUS
 10
9.813070670951886
 20
2.36839999999762
 30
0.0
 11
8.51047067095321
 21
3.670999999996297
 31
0.0
  0
LINE
  5
24D2F
  8
0
  6
CONTINUOUS
 10
10.48658988003207
 20
2.36839999999762
 30
0.0
 11
9.183989880033396
 21
3.670999999996297
 31
0.0
  0
LINE
  5
24D30
  8
0
  6
CONTINUOUS
 10
8.441048632286794
 20
3.740422038662712
 30
0.0
 11
7.365286662056551
 21
4.816184008892956
 31
0.0
  0
LINE
  5
24D31
  8
0
  6
CONTINUOUS
 10
8.649187485808454
 20
4.205802394221237
 30
0.0
 11
7.573469239788285
 21
5.281520640241407
 31
0.0
  0
LINE
  5
24D32
  8
0
  6
CONTINUOUS
 10
5.098773609864391
 20
7.082697061085115
 30
0.0
 11
4.087049469776277
 21
8.09442120117323
 31
0.0
  0
LINE
  5
24D33
  8
0
  6
CONTINUOUS
 10
5.396862364710167
 20
7.458127515319526
 30
0.0
 11
4.385146033871544
 21
8.469843846158149
 31
0.0
  0
LINE
  5
24D34
  8
0
  6
CONTINUOUS
 10
13.04801363231285
 20
0.4804954567970334
 30
0.0
 11
9.85750908911358
 21
3.670999999996297
 31
0.0
  0
LINE
  5
24D35
  8
0
  6
CONTINUOUS
 10
8.857326339330116
 20
4.671182749779763
 30
0.0
 11
7.781651817520021
 21
5.746857271589858
 31
0.0
  0
LINE
  5
24D36
  8
0
  6
CONTINUOUS
 10
5.694951119555943
 20
7.833557969553937
 30
0.0
 11
4.765409089118624
 21
8.763099999991255
 31
0.0
  0
LINE
  5
24D37
  8
0
  6
CONTINUOUS
 10
12.50286117236978
 20
1.699167125820288
 30
0.0
 11
9.68611877250287
 21
4.515909525687196
 31
0.0
  0
LINE
  5
24D38
  8
0
  6
CONTINUOUS
 10
9.065465192851777
 20
5.136563105338288
 30
0.0
 11
7.989834395251757
 21
6.21219390293831
 31
0.0
  0
LINE
  5
24D39
  8
0
  6
CONTINUOUS
 10
5.993039874401719
 20
8.208988423788346
 30
0.0
 11
5.43892829819881
 21
8.763099999991255
 31
0.0
  0
LINE
  5
24D3A
  8
0
  6
CONTINUOUS
 10
11.95770871242671
 20
2.917838794843543
 30
0.0
 11
8.19801697298349
 21
6.677530534286761
 31
0.0
  0
LINE
  5
24D3B
  8
0
  6
CONTINUOUS
 10
6.291128629247495
 20
8.584418878022756
 30
0.0
 11
6.112447507278997
 21
8.763099999991255
 31
0.0
  0
LINE
  5
24D3C
  8
0
  6
CONTINUOUS
 10
11.41255625248364
 20
4.136510463866797
 30
0.0
 11
8.406199550715227
 21
7.142867165635211
 31
0.0
  0
LINE
  5
24D3D
  8
0
  6
CONTINUOUS
 10
10.86740379254057
 20
5.355182132890051
 30
0.0
 11
8.614382128446962
 21
7.608203796983664
 31
0.0
  0
LINE
  5
24D3E
  8
0
  6
CONTINUOUS
 10
10.3222513325975
 20
6.573853801913305
 30
0.0
 11
8.822564706178696
 21
8.073540428332114
 31
0.0
  0
LINE
  5
24D3F
  8
0
  6
CONTINUOUS
 10
9.777098872654436
 20
7.792525470936562
 30
0.0
 11
9.030747283910433
 21
8.538877059680566
 31
0.0
  0
ENDBLK
  5
24E81
  8
0
  0
BLOCK
  8
0
  2
*X334
 70
     1
 10
0.0
 20
0.0
 30
0.0
  3
*X334
  1

  0
LINE
  5
24D41
  8
0
  6
CONTINUOUS
 10
10.67292308101235
 20
8.445076852443387
 30
0.0
 11
10.99094622856022
 21
8.763099999991255
 31
0.0
  0
LINE
  5
24D42
  8
0
  6
CONTINUOUS
 10
10.87250383178748
 20
7.971138394138331
 30
0.0
 11
11.6644654376404
 21
8.763099999991255
 31
0.0
  0
LINE
  5
24D43
  8
0
  6
CONTINUOUS
 10
11.07208458256261
 20
7.497199935833273
 30
0.0
 11
12.12126590876355
 21
8.546381262034211
 31
0.0
  0
LINE
  5
24D44
  8
0
  6
CONTINUOUS
 10
11.27166533333774
 20
7.023261477528216
 30
0.0
 11
12.32085164573666
 21
8.072447789927136
 31
0.0
  0
LINE
  5
24D45
  8
0
  6
CONTINUOUS
 10
11.47124608411287
 20
6.549323019223158
 30
0.0
 11
12.52043738270977
 21
7.59851431782006
 31
0.0
  0
LINE
  5
24D46
  8
0
  6
CONTINUOUS
 10
11.670826834888
 20
6.075384560918101
 30
0.0
 11
12.72002311968288
 21
7.124580845712984
 31
0.0
  0
LINE
  5
24D47
  8
0
  6
CONTINUOUS
 10
11.87040758566313
 20
5.601446102613043
 30
0.0
 11
12.91960885665599
 21
6.650647373605907
 31
0.0
  0
LINE
  5
24D48
  8
0
  6
CONTINUOUS
 10
12.06998833643825
 20
5.127507644307986
 30
0.0
 11
13.1191945936291
 21
6.176713901498832
 31
0.0
  0
LINE
  5
24D49
  8
0
  6
CONTINUOUS
 10
12.26956908721338
 20
4.65356918600293
 30
0.0
 11
13.31878033060221
 21
5.702780429391757
 31
0.0
  0
LINE
  5
24D4A
  8
0
  6
CONTINUOUS
 10
12.46914983798851
 20
4.179630727697873
 30
0.0
 11
13.51836606757532
 21
5.228846957284683
 31
0.0
  0
LINE
  5
24D4B
  8
0
  6
CONTINUOUS
 10
12.66873058876364
 20
3.705692269392816
 30
0.0
 11
13.71795180454843
 21
4.754913485177607
 31
0.0
  0
LINE
  5
24D4C
  8
0
  6
CONTINUOUS
 10
12.86831133953877
 20
3.231753811087759
 30
0.0
 11
13.91753754152154
 21
4.280980013070531
 31
0.0
  0
LINE
  5
24D4D
  8
0
  6
CONTINUOUS
 10
13.0678920903139
 20
2.757815352782702
 30
0.0
 11
14.11712327849465
 21
3.807046540963456
 31
0.0
  0
LINE
  5
24D4E
  8
0
  6
CONTINUOUS
 10
13.26747284108903
 20
2.283876894477644
 30
0.0
 11
14.31670901546777
 21
3.333113068856379
 31
0.0
  0
LINE
  5
24D4F
  8
0
  6
CONTINUOUS
 10
16.36767838827179
 20
8.751678487061342
 30
0.0
 11
16.50332410898388
 21
8.887324207773432
 31
0.0
  0
LINE
  5
24D50
  8
0
  6
CONTINUOUS
 10
15.96190732182191
 20
7.67238821153127
 30
0.0
 11
16.68735328004734
 21
8.397834169756699
 31
0.0
  0
LINE
  5
24D51
  8
0
  6
CONTINUOUS
 10
15.55613625537202
 20
6.593097936001196
 30
0.0
 11
16.87138245111079
 21
7.908344131739965
 31
0.0
  0
LINE
  5
24D52
  8
0
  6
CONTINUOUS
 10
15.15036518892213
 20
5.513807660471122
 30
0.0
 11
17.05541162217424
 21
7.418854093723231
 31
0.0
  0
LINE
  5
24D53
  8
0
  6
CONTINUOUS
 10
14.74459412247225
 20
4.434517384941048
 30
0.0
 11
17.2394407932377
 21
6.929364055706499
 31
0.0
  0
LINE
  5
24D54
  8
0
  6
CONTINUOUS
 10
14.33882305602236
 20
3.355227109410975
 30
0.0
 11
17.42346996430115
 21
6.439874017689766
 31
0.0
  0
LINE
  5
24D55
  8
0
  6
CONTINUOUS
 10
13.46705359186416
 20
1.809938436172586
 30
0.0
 11
16.0819338255367
 21
4.424818669845129
 31
0.0
  0
LINE
  5
24D56
  8
0
  6
CONTINUOUS
 10
16.63283254238972
 20
4.975717386698149
 30
0.0
 11
17.60749913536461
 21
5.950383979673033
 31
0.0
  0
LINE
  5
24D57
  8
0
  6
CONTINUOUS
 10
13.66663434263929
 20
1.335999977867529
 30
0.0
 11
15.67604797733754
 21
3.345413612565779
 31
0.0
  0
LINE
  5
24D58
  8
0
  6
CONTINUOUS
 10
13.86621509341442
 20
0.8620615195624723
 30
0.0
 11
15.27016212913838
 21
2.26600855528643
 31
0.0
  0
LINE
  5
24D59
  8
0
  6
CONTINUOUS
 10
16.81682257348267
 20
4.486188208710908
 30
0.0
 11
17.79152830642806
 21
5.460893941656299
 31
0.0
  0
LINE
  5
24D5A
  8
0
  6
CONTINUOUS
 10
17.00081260457561
 20
3.996659030723667
 30
0.0
 11
17.97555747749151
 21
4.971403903639565
 31
0.0
  0
LINE
  5
24D5B
  8
0
  6
CONTINUOUS
 10
20.74362343514722
 20
8.412989070375462
 30
0.0
 11
21.09373436476302
 21
8.763099999991256
 31
0.0
  0
LINE
  5
24D5C
  8
0
  6
CONTINUOUS
 10
20.25401257174777
 20
7.249858997895826
 30
0.0
 11
21.7672535738432
 21
8.763099999991255
 31
0.0
  0
LINE
  5
24D5D
  8
0
  6
CONTINUOUS
 10
14.06579584418955
 20
0.3881230612574149
 30
0.0
 11
14.86427628093921
 21
1.186603498007082
 31
0.0
  0
LINE
  5
24D5E
  8
0
  6
CONTINUOUS
 10
14.26537659496467
 20
-0.0858153970476412
 30
0.0
 11
14.45839043274005
 21
0.1071984407277329
 31
0.0
  0
LINE
  5
24D5F
  8
0
  6
CONTINUOUS
 10
17.18480263566856
 20
3.507129852736426
 30
0.0
 11
18.15958664855496
 21
4.481913865622833
 31
0.0
  0
LINE
  5
24D60
  8
0
  6
CONTINUOUS
 10
17.3687926667615
 20
3.017600674749186
 30
0.0
 11
18.34361581961842
 21
3.9924238276061
 31
0.0
  0
LINE
  5
24D61
  8
0
  6
CONTINUOUS
 10
19.76440170834832
 20
6.086728925416191
 30
0.0
 11
22.33924590259489
 21
8.661573119662755
 31
0.0
  0
LINE
  5
24D62
  8
0
  6
CONTINUOUS
 10
19.27479084494887
 20
4.923598852936555
 30
0.0
 11
21.84929622842713
 21
7.498104236414807
 31
0.0
  0
LINE
  5
24D63
  8
0
  6
CONTINUOUS
 10
17.55278269785445
 20
2.528071496761945
 30
0.0
 11
18.52764499068187
 21
3.502933789589366
 31
0.0
  0
LINE
  5
24D64
  8
0
  6
CONTINUOUS
 10
18.78517998154942
 20
3.760468780456919
 30
0.0
 11
21.35934655425936
 21
6.33463535316686
 31
0.0
  0
LINE
  5
24D65
  8
0
  6
CONTINUOUS
 10
17.73677272894739
 20
2.038542318774704
 30
0.0
 11
20.8693968800916
 21
5.171166469918914
 31
0.0
  0
LINE
  5
24D66
  8
0
  6
CONTINUOUS
 10
17.92076276004034
 20
1.549013140787464
 30
0.0
 11
20.37944720592384
 21
4.007697586670968
 31
0.0
  0
LINE
  5
24D67
  8
0
  6
CONTINUOUS
 10
18.10475279113329
 20
1.059483962800223
 30
0.0
 11
19.88949753175608
 21
2.84422870342302
 31
0.0
  0
LINE
  5
24D68
  8
0
  6
CONTINUOUS
 10
18.28874282222623
 20
0.5699547848129822
 30
0.0
 11
19.39954785758832
 21
1.680759820175074
 31
0.0
  0
LINE
  5
24D69
  8
0
  6
CONTINUOUS
 10
18.47273285331918
 20
0.0804256068257416
 30
0.0
 11
18.90959818342056
 21
0.517290936927127
 31
0.0
  0
LINE
  5
24D6A
  8
0
  6
CONTINUOUS
 10
14.3590401358224
 20
-0.1570118376323384
 30
0.0
 11
14.24903296539946
 21
-0.0470046672093929
 31
0.0
  0
LINE
  5
24D6B
  8
0
  6
CONTINUOUS
 10
14.54309291258661
 20
0.332454594683643
 30
0.0
 11
13.75908329123172
 21
1.116464216038529
 31
0.0
  0
LINE
  5
24D6C
  8
0
  6
CONTINUOUS
 10
14.72714568935081
 20
0.8219210269996244
 30
0.0
 11
13.26913361706399
 21
2.27993309928645
 31
0.0
  0
LINE
  5
24D6D
  8
0
  6
CONTINUOUS
 10
14.91119846611502
 20
1.311387459315606
 30
0.0
 11
12.77918394289625
 21
3.443401982534371
 31
0.0
  0
LINE
  5
24D6E
  8
0
  6
CONTINUOUS
 10
15.09525124287922
 20
1.800853891631587
 30
0.0
 11
12.28923426872852
 21
4.606870865782293
 31
0.0
  0
LINE
  5
24D6F
  8
0
  6
CONTINUOUS
 10
15.27930401964343
 20
2.290320323947569
 30
0.0
 11
11.79928459456078
 21
5.770339749030213
 31
0.0
  0
LINE
  5
24D70
  8
0
  6
CONTINUOUS
 10
15.46335679640763
 20
2.77978675626355
 30
0.0
 11
14.48885470994921
 21
3.754288842721972
 31
0.0
  0
LINE
  5
24D71
  8
0
  6
CONTINUOUS
 10
13.88507249233704
 20
4.358071060334137
 30
0.0
 11
11.30933492039305
 21
6.933808632278135
 31
0.0
  0
LINE
  5
24D72
  8
0
  6
CONTINUOUS
 10
18.75840522805855
 20
0.1582575336928151
 30
0.0
 11
18.25383727664818
 21
0.6628254851031863
 31
0.0
  0
LINE
  5
24D73
  8
0
  6
CONTINUOUS
 10
15.64740957317184
 20
3.269253188579531
 30
0.0
 11
14.67288388101266
 21
4.243778880738705
 31
0.0
  0
LINE
  5
24D74
  8
0
  6
CONTINUOUS
 10
13.39509276772158
 20
5.521569994029786
 30
0.0
 11
10.81938524622531
 21
8.097277515526056
 31
0.0
  0
LINE
  5
24D75
  8
0
  6
CONTINUOUS
 10
18.95798597883369
 20
0.6321959919978686
 30
0.0
 11
17.84825644852853
 21
1.741925522303024
 31
0.0
  0
LINE
  5
24D76
  8
0
  6
CONTINUOUS
 10
19.15756672960882
 20
1.106134450302922
 30
0.0
 11
17.44267562040888
 21
2.821025559502861
 31
0.0
  0
LINE
  5
24D77
  8
0
  6
CONTINUOUS
 10
15.83146234993604
 20
3.758719620895513
 30
0.0
 11
14.85691305207612
 21
4.733268918755439
 31
0.0
  0
LINE
  5
24D78
  8
0
  6
CONTINUOUS
 10
16.01551512670025
 20
4.248186053211494
 30
0.0
 11
15.04094222313957
 21
5.222758956772172
 31
0.0
  0
LINE
  5
24D79
  8
0
  6
CONTINUOUS
 10
12.90511304310612
 20
6.685068927725435
 30
0.0
 11
10.8270819708403
 21
8.763099999991255
 31
0.0
  0
LINE
  5
24D7A
  8
0
  6
CONTINUOUS
 10
12.41513331849066
 20
7.848567861421083
 30
0.0
 11
11.50060117992049
 21
8.763099999991255
 31
0.0
  0
LINE
  5
24D7B
  8
0
  6
CONTINUOUS
 10
19.35714748038395
 20
1.580072908607975
 30
0.0
 11
17.03709479228923
 21
3.900125596702697
 31
0.0
  0
LINE
  5
24D7C
  8
0
  6
CONTINUOUS
 10
19.55672823115909
 20
2.054011366913028
 30
0.0
 11
16.63151396416958
 21
4.979225633902534
 31
0.0
  0
LINE
  5
24D7D
  8
0
  6
CONTINUOUS
 10
16.19956790346445
 20
4.737652485527476
 30
0.0
 11
15.22497139420302
 21
5.712248994788904
 31
0.0
  0
LINE
  5
24D7E
  8
0
  6
CONTINUOUS
 10
16.38362068022866
 20
5.227118917843457
 30
0.0
 11
15.40900056526648
 21
6.201739032805637
 31
0.0
  0
LINE
  5
24D7F
  8
0
  6
CONTINUOUS
 10
19.75630898193422
 20
2.527949825218081
 30
0.0
 11
18.70774536448286
 21
3.576513442669441
 31
0.0
  0
LINE
  5
24D80
  8
0
  6
CONTINUOUS
 10
19.95588973270936
 20
3.001888283523134
 30
0.0
 11
18.90726987211446
 21
4.050508144118028
 31
0.0
  0
LINE
  5
24D81
  8
0
  6
CONTINUOUS
 10
20.15547048348449
 20
3.475826741828186
 30
0.0
 11
19.10679437974606
 21
4.524502845566614
 31
0.0
  0
LINE
  5
24D82
  8
0
  6
CONTINUOUS
 10
20.35505123425962
 20
3.94976520013324
 30
0.0
 11
19.30631888737766
 21
4.998497547015201
 31
0.0
  0
LINE
  5
24D83
  8
0
  6
CONTINUOUS
 10
20.55463198503475
 20
4.423703658438292
 30
0.0
 11
19.50584339500926
 21
5.472492248463787
 31
0.0
  0
LINE
  5
24D84
  8
0
  6
CONTINUOUS
 10
18.37481191085755
 20
3.909446896294752
 30
0.0
 11
15.59302973632993
 21
6.691229070822371
 31
0.0
  0
LINE
  5
24D85
  8
0
  6
CONTINUOUS
 10
17.96904084440766
 20
4.988737171824825
 30
0.0
 11
15.77705890739338
 21
7.180719108839104
 31
0.0
  0
LINE
  5
24D86
  8
0
  6
CONTINUOUS
 10
17.56326977795777
 20
6.068027447354899
 30
0.0
 11
15.96108807845684
 21
7.670209146855838
 31
0.0
  0
LINE
  5
24D87
  8
0
  6
CONTINUOUS
 10
17.15749871150789
 20
7.147317722884972
 30
0.0
 11
16.14511724952029
 21
8.15969918487257
 31
0.0
  0
LINE
  5
24D88
  8
0
  6
CONTINUOUS
 10
16.751727645058
 20
8.226607998415046
 30
0.0
 11
16.32914642058374
 21
8.649189222889303
 31
0.0
  0
LINE
  5
24D89
  8
0
  6
CONTINUOUS
 10
20.75421273580989
 20
4.897642116743345
 30
0.0
 11
19.70536790264086
 21
5.946486949912374
 31
0.0
  0
LINE
  5
24D8A
  8
0
  6
CONTINUOUS
 10
20.95379348658502
 20
5.371580575048398
 30
0.0
 11
19.90489241027246
 21
6.42048165136096
 31
0.0
  0
LINE
  5
24D8B
  8
0
  6
CONTINUOUS
 10
21.15337423736015
 20
5.845519033353452
 30
0.0
 11
20.10441691790406
 21
6.894476352809547
 31
0.0
  0
LINE
  5
24D8C
  8
0
  6
CONTINUOUS
 10
21.35295498813529
 20
6.319457491658505
 30
0.0
 11
20.30394142553566
 21
7.368471054258134
 31
0.0
  0
LINE
  5
24D8D
  8
0
  6
CONTINUOUS
 10
21.55253573891042
 20
6.793395949963558
 30
0.0
 11
20.50346593316726
 21
7.842465755706721
 31
0.0
  0
LINE
  5
24D8E
  8
0
  6
CONTINUOUS
 10
21.75211648968556
 20
7.267334408268612
 30
0.0
 11
20.70299044079886
 21
8.316460457155308
 31
0.0
  0
LINE
  5
24D8F
  8
0
  6
CONTINUOUS
 10
21.95169724046069
 20
7.741272866573663
 30
0.0
 11
20.9298701070431
 21
8.763099999991256
 31
0.0
  0
LINE
  5
24D90
  8
0
  6
CONTINUOUS
 10
22.15127799123582
 20
8.215211324878716
 30
0.0
 11
21.60338931612328
 21
8.763099999991256
 31
0.0
  0
LINE
  5
24D91
  8
0
  6
CONTINUOUS
 10
22.35085874201096
 20
8.689149783183769
 30
0.0
 11
22.27690852520347
 21
8.763099999991255
 31
0.0
  0
ENDBLK
  5
24E83
  8
0
  0
BLOCK
  8
0
  2
*X335
 70
     1
 10
0.0
 20
0.0
 30
0.0
  3
*X335
  1

  0
LINE
  5
24D93
  8
0
  6
CONTINUOUS
 10
23.19462913593892
 20
8.169917934846424
 30
0.0
 11
23.70775465517246
 21
8.683043454079957
 31
0.0
  0
LINE
  5
24D94
  8
0
  6
CONTINUOUS
 10
22.64923161835078
 20
6.951001208178088
 30
0.0
 11
23.9159364069932
 21
8.217705996820516
 31
0.0
  0
LINE
  5
24D95
  8
0
  6
CONTINUOUS
 10
22.10383410076263
 20
5.732084481509751
 30
0.0
 11
24.12411815881395
 21
7.752368539561078
 31
0.0
  0
LINE
  5
24D96
  8
0
  6
CONTINUOUS
 10
21.55843658317447
 20
4.513167754841414
 30
0.0
 11
24.3322999106347
 21
7.287031082301639
 31
0.0
  0
LINE
  5
24D97
  8
0
  6
CONTINUOUS
 10
21.01303906558632
 20
3.294251028173077
 30
0.0
 11
24.54048166245544
 21
6.821693625042199
 31
0.0
  0
LINE
  5
24D98
  8
0
  6
CONTINUOUS
 10
20.46764154799817
 20
2.075334301504738
 30
0.0
 11
23.28571549467848
 21
4.89340824818505
 31
0.0
  0
LINE
  5
24D99
  8
0
  6
CONTINUOUS
 10
19.92224403041002
 20
0.8564175748364002
 30
0.0
 11
22.74075865492779
 21
3.674932199354171
 31
0.0
  0
LINE
  5
24D9A
  8
0
  6
CONTINUOUS
 10
23.67305085490148
 20
5.280743608408048
 30
0.0
 11
24.74866341427619
 21
6.356356167782759
 31
0.0
  0
LINE
  5
24D9B
  8
0
  6
CONTINUOUS
 10
23.88118970842314
 20
4.815363252849522
 30
0.0
 11
24.95684516609694
 21
5.89101871052332
 31
0.0
  0
LINE
  5
24D9C
  8
0
  6
CONTINUOUS
 10
19.73925852647308
 20
-0.0000871381807288
 30
0.0
 11
23.4103456646501
 21
3.670999999996297
 31
0.0
  0
LINE
  5
24D9D
  8
0
  6
CONTINUOUS
 10
24.0893285619448
 20
4.349982897290997
 30
0.0
 11
25.16502691791769
 21
5.42568125326388
 31
0.0
  0
LINE
  5
24D9E
  8
0
  6
CONTINUOUS
 10
20.41282099582748
 20
-0.0000438779065108
 30
0.0
 11
21.64944178675636
 21
1.236576913022366
 31
0.0
  0
LINE
  5
24D9F
  8
0
  6
CONTINUOUS
 10
22.78126487373161
 20
2.36839999999762
 30
0.0
 11
24.08386487373029
 21
3.670999999996297
 31
0.0
  0
LINE
  5
24DA0
  8
0
  6
CONTINUOUS
 10
24.29746741546646
 20
3.884602541732471
 30
0.0
 11
25.37320866973843
 21
4.960343796004441
 31
0.0
  0
LINE
  5
24DA1
  8
0
  6
CONTINUOUS
 10
21.08638346518189
 20
-0.0000006176322938
 30
0.0
 11
21.10379033335899
 21
0.0174062505448083
 31
0.0
  0
LINE
  5
24DA2
  8
0
  6
CONTINUOUS
 10
23.4547840828118
 20
2.36839999999762
 30
0.0
 11
25.58139042155918
 21
4.495006338745002
 31
0.0
  0
LINE
  5
24DA3
  8
0
  6
CONTINUOUS
 10
29.30199999996933
 20
8.215615917155148
 30
0.0
 11
29.84948408280543
 21
8.763099999991255
 31
0.0
  0
LINE
  5
24DA4
  8
0
  6
CONTINUOUS
 10
24.12830329189199
 20
2.36839999999762
 30
0.0
 11
25.78957217337993
 21
4.029668881485562
 31
0.0
  0
LINE
  5
24DA5
  8
0
  6
CONTINUOUS
 10
29.30199999996933
 20
7.54209670807496
 30
0.0
 11
30.52300329188562
 21
8.763099999991255
 31
0.0
  0
LINE
  5
24DA6
  8
0
  6
CONTINUOUS
 10
24.80182250097217
 20
2.36839999999762
 30
0.0
 11
25.99775392520067
 21
3.564331424226122
 31
0.0
  0
LINE
  5
24DA7
  8
0
  6
CONTINUOUS
 10
29.30199999996933
 20
6.868577498994774
 30
0.0
 11
30.74199999996926
 21
8.308577498994712
 31
0.0
  0
LINE
  5
24DA8
  8
0
  6
CONTINUOUS
 10
25.13028238392013
 20
2.023340673865392
 30
0.0
 11
26.20593567702142
 21
3.098993966966683
 31
0.0
  0
LINE
  5
24DA9
  8
0
  6
CONTINUOUS
 10
25.33838066033617
 20
1.557919741201244
 30
0.0
 11
26.41411742884217
 21
2.633656509707244
 31
0.0
  0
LINE
  5
24DAA
  8
0
  6
CONTINUOUS
 10
25.54647893675221
 20
1.092498808537098
 30
0.0
 11
26.62229918066291
 21
2.168319052447804
 31
0.0
  0
LINE
  5
24DAB
  8
0
  6
CONTINUOUS
 10
25.75457721316825
 20
0.62707787587295
 30
0.0
 11
26.83048093248366
 21
1.702981595188365
 31
0.0
  0
LINE
  5
24DAC
  8
0
  6
CONTINUOUS
 10
29.30199999996933
 20
6.195058289914587
 30
0.0
 11
30.74199999996926
 21
7.635058289914522
 31
0.0
  0
LINE
  5
24DAD
  8
0
  6
CONTINUOUS
 10
29.30199999996933
 20
5.521539080834401
 30
0.0
 11
30.74199999996926
 21
6.961539080834331
 31
0.0
  0
LINE
  5
24DAE
  8
0
  6
CONTINUOUS
 10
29.30199999996933
 20
4.848019871754214
 30
0.0
 11
30.74199999996925
 21
6.288019871754143
 31
0.0
  0
LINE
  5
24DAF
  8
0
  6
CONTINUOUS
 10
29.30199999996933
 20
4.174500662674028
 30
0.0
 11
30.74199999996925
 21
5.614500662673953
 31
0.0
  0
LINE
  5
24DB0
  8
0
  6
CONTINUOUS
 10
25.96267548958429
 20
0.1616569432088024
 30
0.0
 11
27.18411854636669
 21
1.383099999991207
 31
0.0
  0
LINE
  5
24DB1
  8
0
  6
CONTINUOUS
 10
29.30199999996933
 20
3.500981453593841
 30
0.0
 11
30.74199999996925
 21
4.940981453593762
 31
0.0
  0
LINE
  5
24DB2
  8
0
  6
CONTINUOUS
 10
26.50763775544691
 20
0.0330999999912356
 30
0.0
 11
27.85763775544689
 21
1.383099999991223
 31
0.0
  0
LINE
  5
24DB3
  8
0
  6
CONTINUOUS
 10
29.30199999996933
 20
2.827462244513656
 30
0.0
 11
30.74199999996925
 21
4.267462244513574
 31
0.0
  0
LINE
  5
24DB4
  8
0
  6
CONTINUOUS
 10
27.18115696452709
 20
0.0330999999912356
 30
0.0
 11
28.6224847300034
 21
1.474427765467545
 31
0.0
  0
LINE
  5
24DB5
  8
0
  6
CONTINUOUS
 10
29.21067223449293
 20
2.062615269957069
 30
0.0
 11
30.74199999996924
 21
3.593943035433383
 31
0.0
  0
LINE
  5
24DB6
  8
0
  6
CONTINUOUS
 10
27.85467617360728
 20
0.0330999999912356
 30
0.0
 11
30.74199999996924
 21
2.920423826353195
 31
0.0
  0
LINE
  5
24DB7
  8
0
  6
CONTINUOUS
 10
28.57438609860264
 20
0.0792907159064073
 30
0.0
 11
30.69580928405405
 21
2.200713901357819
 31
0.0
  0
LINE
  5
24DB8
  8
0
  6
CONTINUOUS
 10
29.49443044814297
 20
0.3258158563665496
 30
0.0
 11
30.44928414359389
 21
1.280669551817477
 31
0.0
  0
LINE
  5
24DB9
  8
0
  6
CONTINUOUS
 10
19.59027867740337
 20
-0.0000967065718083
 30
0.0
 11
19.55485265190471
 21
0.035329318926844
 31
0.0
  0
LINE
  5
24DBA
  8
0
  6
CONTINUOUS
 10
20.26375463176586
 20
-0.0000534518541091
 30
0.0
 11
19.76305575737534
 21
0.5006454225364014
 31
0.0
  0
LINE
  5
24DBB
  8
0
  6
CONTINUOUS
 10
20.93723058612834
 20
-0.0000101971364099
 30
0.0
 11
19.97125886284597
 21
0.965961526145958
 31
0.0
  0
LINE
  5
24DBC
  8
0
  6
CONTINUOUS
 10
21.25514828313686
 20
0.355591314935257
 30
0.0
 11
20.1794619683166
 21
1.431277629755512
 31
0.0
  0
LINE
  5
24DBD
  8
0
  6
CONTINUOUS
 10
21.46338838394921
 20
0.8208704232030986
 30
0.0
 11
20.38766507378723
 21
1.896593733365069
 31
0.0
  0
LINE
  5
24DBE
  8
0
  6
CONTINUOUS
 10
21.67162848476155
 20
1.28614953147094
 30
0.0
 11
20.59586817925786
 21
2.361909836974626
 31
0.0
  0
LINE
  5
24DBF
  8
0
  6
CONTINUOUS
 10
21.8798685855739
 20
1.751428639738782
 30
0.0
 11
20.80407128472849
 21
2.827225940584183
 31
0.0
  0
LINE
  5
24DC0
  8
0
  6
CONTINUOUS
 10
22.08810868638624
 20
2.216707748006623
 30
0.0
 11
21.01227439019912
 21
3.292542044193739
 31
0.0
  0
LINE
  5
24DC1
  8
0
  6
CONTINUOUS
 10
22.60993564347543
 20
2.36839999999762
 30
0.0
 11
21.22047749566975
 21
3.757858147803296
 31
0.0
  0
LINE
  5
24DC2
  8
0
  6
CONTINUOUS
 10
23.28345485255561
 20
2.36839999999762
 30
0.0
 11
21.42868060114038
 21
4.223174251412853
 31
0.0
  0
LINE
  5
24DC3
  8
0
  6
CONTINUOUS
 10
26.29227406164219
 20
0.0330999999912356
 30
0.0
 11
25.80009199592872
 21
0.5252820657046957
 31
0.0
  0
LINE
  5
24DC4
  8
0
  6
CONTINUOUS
 10
23.9569740616358
 20
2.36839999999762
 30
0.0
 11
21.63688370661101
 21
4.688490355022409
 31
0.0
  0
LINE
  5
24DC5
  8
0
  6
CONTINUOUS
 10
26.96579327072237
 20
0.0330999999912356
 30
0.0
 11
25.2554132311971
 21
1.743480039516508
 31
0.0
  0
LINE
  5
24DC6
  8
0
  6
CONTINUOUS
 10
24.63049327071599
 20
2.36839999999762
 30
0.0
 11
23.32789327071731
 21
3.670999999996297
 31
0.0
  0
LINE
  5
24DC7
  8
0
  6
CONTINUOUS
 10
22.92098674744635
 20
4.077906523267254
 30
0.0
 11
21.84508681208164
 21
5.153806458631966
 31
0.0
  0
LINE
  5
24DC8
  8
0
  6
CONTINUOUS
 10
27.63931247980256
 20
0.0330999999912356
 30
0.0
 11
24.0014124797975
 21
3.670999999996297
 31
0.0
  0
LINE
  5
24DC9
  8
0
  6
CONTINUOUS
 10
23.129125600968
 20
4.5432868788258
 30
0.0
 11
22.05328991755227
 21
5.619122562241522
 31
0.0
  0
LINE
  5
24DCA
  8
0
  6
CONTINUOUS
 10
28.31283168888275
 20
0.0330999999912356
 30
0.0
 11
24.16488385994816
 21
4.181047828925828
 31
0.0
  0
LINE
  5
24DCB
  8
0
  6
CONTINUOUS
 10
23.33726445448964
 20
5.008667234384345
 30
0.0
 11
22.2614930230229
 21
6.084438665851079
 31
0.0
  0
LINE
  5
24DCC
  8
0
  6
CONTINUOUS
 10
28.86286302309502
 20
0.1565878748591523
 30
0.0
 11
27.63635089796295
 21
1.383099999991217
 31
0.0
  0
LINE
  5
24DCD
  8
0
  6
CONTINUOUS
 10
26.43704649509776
 20
2.582404402856405
 30
0.0
 11
23.61992702019732
 21
5.399523877756844
 31
0.0
  0
LINE
  5
24DCE
  8
0
  6
CONTINUOUS
 10
23.54540330801128
 20
5.47404758994289
 30
0.0
 11
22.46969612849353
 21
6.549754769460635
 31
0.0
  0
LINE
  5
24DCF
  8
0
  6
CONTINUOUS
 10
29.39405087596853
 20
0.2989192310658284
 30
0.0
 11
28.30987010704312
 21
1.383099999991234
 31
0.0
  0
LINE
  5
24DD0
  8
0
  6
CONTINUOUS
 10
25.89179548232307
 20
3.801174624711282
 30
0.0
 11
22.67789923396416
 21
7.015070873070191
 31
0.0
  0
LINE
  5
24DD1
  8
0
  6
CONTINUOUS
 10
29.79594438047407
 20
0.570544935640473
 30
0.0
 11
28.81310432793121
 21
1.553384988183336
 31
0.0
  0
LINE
  5
24DD2
  8
0
  6
CONTINUOUS
 10
25.34654446954838
 20
5.01994484656616
 30
0.0
 11
22.88610233943479
 21
7.480386976679748
 31
0.0
  0
LINE
  5
24DD3
  8
0
  6
CONTINUOUS
 10
30.13270398501416
 20
0.9073045401805646
 30
0.0
 11
29.14234640337737
 21
1.897662121817355
 31
0.0
  0
LINE
  5
24DD4
  8
0
  6
CONTINUOUS
 10
24.80129345677369
 20
6.238715068421037
 30
0.0
 11
23.09430544490542
 21
7.945703080289305
 31
0.0
  0
LINE
  5
24DD5
  8
0
  6
CONTINUOUS
 10
30.44581292956759
 20
1.26771480470732
 30
0.0
 11
29.30199999996933
 21
2.411527734305588
 31
0.0
  0
LINE
  5
24DD6
  8
0
  6
CONTINUOUS
 10
30.58814428577427
 20
1.798902657580827
 30
0.0
 11
29.30199999996933
 21
3.085046943385775
 31
0.0
  0
LINE
  5
24DD7
  8
0
  6
CONTINUOUS
 10
24.256042443999
 20
7.457485290275915
 30
0.0
 11
23.30250855037605
 21
8.411019183898862
 31
0.0
  0
LINE
  5
24DD8
  8
0
  6
CONTINUOUS
 10
23.71079143122431
 20
8.676255512130794
 30
0.0
 11
23.51071165584668
 21
8.876335287508418
 31
0.0
  0
LINE
  5
24DD9
  8
0
  6
CONTINUOUS
 10
30.73047564198095
 20
2.330090510454333
 30
0.0
 11
29.30199999996933
 21
3.758566152465961
 31
0.0
  0
LINE
  5
24DDA
  8
0
  6
CONTINUOUS
 10
30.74199999996924
 20
2.992085361546236
 30
0.0
 11
29.30199999996933
 21
4.432085361546148
 31
0.0
  0
LINE
  5
24DDB
  8
0
  6
CONTINUOUS
 10
30.74199999996924
 20
3.665604570626419
 30
0.0
 11
29.30199999996933
 21
5.105604570626333
 31
0.0
  0
LINE
  5
24DDC
  8
0
  6
CONTINUOUS
 10
30.74199999996925
 20
4.339123779706602
 30
0.0
 11
29.30199999996933
 21
5.77912377970652
 31
0.0
  0
LINE
  5
24DDD
  8
0
  6
CONTINUOUS
 10
30.74199999996925
 20
5.012642988786785
 30
0.0
 11
29.30199999996933
 21
6.452642988786707
 31
0.0
  0
LINE
  5
24DDE
  8
0
  6
CONTINUOUS
 10
30.74199999996925
 20
5.68616219786697
 30
0.0
 11
29.30199999996933
 21
7.126162197866894
 31
0.0
  0
LINE
  5
24DDF
  8
0
  6
CONTINUOUS
 10
30.74199999996925
 20
6.359681406947153
 30
0.0
 11
29.30199999996933
 21
7.799681406947081
 31
0.0
  0
LINE
  5
24DE0
  8
0
  6
CONTINUOUS
 10
30.74199999996926
 20
7.033200616027337
 30
0.0
 11
29.30199999996933
 21
8.473200616027269
 31
0.0
  0
LINE
  5
24DE1
  8
0
  6
CONTINUOUS
 10
30.74199999996926
 20
7.706719825107518
 30
0.0
 11
29.68561982508552
 21
8.763099999991255
 31
0.0
  0
LINE
  5
24DE2
  8
0
  6
CONTINUOUS
 10
30.74199999996926
 20
8.380239034187703
 30
0.0
 11
30.35913903416571
 21
8.763099999991255
 31
0.0
  0
ENDBLK
  5
24E85
  8
0
  0
BLOCK
  8
0
  2
*X336
 70
     1
 10
0.0
 20
0.0
 30
0.0
  3
*X336
  1

  0
LINE
  5
24DE4
  8
0
  6
CONTINUOUS
 10
31.64199999996833
 20
8.5350582899136
 30
0.0
 11
31.87004171004599
 21
8.763099999991255
 31
0.0
  0
LINE
  5
24DE5
  8
0
  6
CONTINUOUS
 10
31.64199999996833
 20
7.861539080833413
 30
0.0
 11
32.54356091912618
 21
8.763099999991255
 31
0.0
  0
LINE
  5
24DE6
  8
0
  6
CONTINUOUS
 10
31.64199999996833
 20
7.188019871753227
 30
0.0
 11
33.08199999996839
 21
8.628019871753281
 31
0.0
  0
LINE
  5
24DE7
  8
0
  6
CONTINUOUS
 10
31.64199999996833
 20
6.514500662673041
 30
0.0
 11
33.08199999996839
 21
7.954500662673095
 31
0.0
  0
LINE
  5
24DE8
  8
0
  6
CONTINUOUS
 10
31.64199999996833
 20
5.840981453592855
 30
0.0
 11
33.08199999996839
 21
7.28098145359291
 31
0.0
  0
LINE
  5
24DE9
  8
0
  6
CONTINUOUS
 10
31.64199999996833
 20
5.167462244512668
 30
0.0
 11
33.08199999996839
 21
6.607462244512723
 31
0.0
  0
LINE
  5
24DEA
  8
0
  6
CONTINUOUS
 10
31.64199999996833
 20
4.493943035432482
 30
0.0
 11
33.08199999996839
 21
5.933943035432536
 31
0.0
  0
LINE
  5
24DEB
  8
0
  6
CONTINUOUS
 10
31.64199999996833
 20
3.820423826352294
 30
0.0
 11
33.08199999996839
 21
5.260423826352349
 31
0.0
  0
LINE
  5
24DEC
  8
0
  6
CONTINUOUS
 10
31.64199999996833
 20
3.146904617272108
 30
0.0
 11
33.08199999996839
 21
4.586904617272163
 31
0.0
  0
LINE
  5
24DED
  8
0
  6
CONTINUOUS
 10
36.23199999996837
 20
8.410423826352327
 30
0.0
 11
36.58467617360729
 21
8.763099999991255
 31
0.0
  0
LINE
  5
24DEE
  8
0
  6
CONTINUOUS
 10
36.23199999996837
 20
7.73690461727214
 30
0.0
 11
37.25819538268748
 21
8.763099999991255
 31
0.0
  0
LINE
  5
24DEF
  8
0
  6
CONTINUOUS
 10
31.64323424774199
 20
2.474619655965573
 30
0.0
 11
33.08199999996839
 21
3.913385408191976
 31
0.0
  0
LINE
  5
24DF0
  8
0
  6
CONTINUOUS
 10
31.74419223861915
 20
1.902058437762552
 30
0.0
 11
33.08199999996839
 21
3.239866199111789
 31
0.0
  0
LINE
  5
24DF1
  8
0
  6
CONTINUOUS
 10
36.23199999996837
 20
7.063385408191953
 30
0.0
 11
37.67199999996831
 21
8.503385408191894
 31
0.0
  0
LINE
  5
24DF2
  8
0
  6
CONTINUOUS
 10
36.23199999996837
 20
6.389866199111767
 30
0.0
 11
37.67199999996831
 21
7.829866199111708
 31
0.0
  0
LINE
  5
24DF3
  8
0
  6
CONTINUOUS
 10
31.91111233414976
 20
1.39545932421297
 30
0.0
 11
33.08199999996839
 21
2.566346990031603
 31
0.0
  0
LINE
  5
24DF4
  8
0
  6
CONTINUOUS
 10
36.23199999996837
 20
5.71634699003158
 30
0.0
 11
37.67199999996831
 21
7.156346990031522
 31
0.0
  0
LINE
  5
24DF5
  8
0
  6
CONTINUOUS
 10
32.1576374746103
 20
0.9684652555933289
 30
0.0
 11
33.20642631446081
 21
2.017254095443838
 31
0.0
  0
LINE
  5
24DF6
  8
0
  6
CONTINUOUS
 10
36.23199999996837
 20
5.042827780951393
 30
0.0
 11
37.67199999996831
 21
6.482827780951334
 31
0.0
  0
LINE
  5
24DF7
  8
0
  6
CONTINUOUS
 10
32.47774023927325
 20
0.6150488111760914
 30
0.0
 11
33.49903056428258
 21
1.636339136185419
 31
0.0
  0
LINE
  5
24DF8
  8
0
  6
CONTINUOUS
 10
36.23199999996837
 20
4.369308571871207
 30
0.0
 11
37.67199999996831
 21
5.809308571871148
 31
0.0
  0
LINE
  5
24DF9
  8
0
  6
CONTINUOUS
 10
32.84396249154443
 20
0.3077518543670883
 30
0.0
 11
33.93324121824649
 21
1.397030581069146
 31
0.0
  0
LINE
  5
24DFA
  8
0
  6
CONTINUOUS
 10
36.23199999996837
 20
3.695789362791021
 30
0.0
 11
37.67199999996831
 21
5.135789362790963
 31
0.0
  0
LINE
  5
24DFB
  8
0
  6
CONTINUOUS
 10
33.30186329036846
 20
0.0921334441109263
 30
0.0
 11
34.46442907112041
 21
1.254699224862875
 31
0.0
  0
LINE
  5
24DFC
  8
0
  6
CONTINUOUS
 10
36.23199999996837
 20
3.022270153710834
 30
0.0
 11
37.67199999996831
 21
4.462270153710776
 31
0.0
  0
LINE
  5
24DFD
  8
0
  6
CONTINUOUS
 10
33.79565647746294
 20
-0.0875925778747773
 30
0.0
 11
35.24350171668284
 21
1.360252661345124
 31
0.0
  0
LINE
  5
24DFE
  8
0
  6
CONTINUOUS
 10
36.18336676155003
 20
2.300117706212308
 30
0.0
 11
37.67199999996831
 21
3.788750944630589
 31
0.0
  0
LINE
  5
24DFF
  8
0
  6
CONTINUOUS
 10
34.37182574910968
 20
-0.184942515308224
 30
0.0
 11
37.67199999996831
 21
3.115231735550402
 31
0.0
  0
LINE
  5
24E00
  8
0
  6
CONTINUOUS
 10
35.0453449581892
 20
-0.1849425153088955
 30
0.0
 11
37.66345697088136
 21
2.433169497383271
 31
0.0
  0
LINE
  5
24E01
  8
0
  6
CONTINUOUS
 10
35.98667157609191
 20
0.0828648935136398
 30
0.0
 11
37.51927401744566
 21
1.615467334867382
 31
0.0
  0
LINE
  5
24E02
  8
0
  6
CONTINUOUS
 10
32.27747408544484
 20
0.7830920669904482
 30
0.0
 11
32.24716210471949
 21
0.8134040477157893
 31
0.0
  0
LINE
  5
24E03
  8
0
  6
CONTINUOUS
 10
33.83656881101902
 20
-0.1024834495035494
 30
0.0
 11
31.72538911593758
 21
2.008696245577891
 31
0.0
  0
LINE
  5
24E04
  8
0
  6
CONTINUOUS
 10
34.5925470859041
 20
-0.1849425153084434
 30
0.0
 11
31.64199999996833
 21
2.765604570627322
 31
0.0
  0
LINE
  5
24E05
  8
0
  6
CONTINUOUS
 10
35.26201302775981
 20
-0.1808892480839752
 30
0.0
 11
31.64199999996833
 21
3.439123779707508
 31
0.0
  0
LINE
  5
24E06
  8
0
  6
CONTINUOUS
 10
35.75580621485512
 20
-0.0011632260990879
 30
0.0
 11
34.51294304365551
 21
1.241699945100514
 31
0.0
  0
LINE
  5
24E07
  8
0
  6
CONTINUOUS
 10
33.08199999996839
 20
2.672642988787641
 30
0.0
 11
31.64199999996833
 21
4.112642988787695
 31
0.0
  0
LINE
  5
24E08
  8
0
  6
CONTINUOUS
 10
36.24959940195042
 20
0.1785627958857976
 30
0.0
 11
35.10501653033629
 21
1.323145667499924
 31
0.0
  0
LINE
  5
24E09
  8
0
  6
CONTINUOUS
 10
33.08199999996839
 20
3.346162197867827
 30
0.0
 11
31.64199999996833
 21
4.786162197867881
 31
0.0
  0
LINE
  5
24E0A
  8
0
  6
CONTINUOUS
 10
36.64615197150552
 20
0.4555294354108876
 30
0.0
 11
35.6362043832099
 21
1.465477023706505
 31
0.0
  0
LINE
  5
24E0B
  8
0
  6
CONTINUOUS
 10
33.08199999996839
 20
4.019681406948013
 30
0.0
 11
31.64199999996833
 21
5.459681406948068
 31
0.0
  0
LINE
  5
24E0C
  8
0
  6
CONTINUOUS
 10
37.0123742237774
 20
0.7628263922191891
 30
0.0
 11
35.97691545773309
 21
1.798285158263504
 31
0.0
  0
LINE
  5
24E0D
  8
0
  6
CONTINUOUS
 10
33.08199999996839
 20
4.6932006160282
 30
0.0
 11
31.64199999996833
 21
6.133200616028255
 31
0.0
  0
LINE
  5
24E0E
  8
0
  6
CONTINUOUS
 10
37.27491524157143
 20
1.173804583505349
 30
0.0
 11
36.17602012811361
 21
2.272699696963169
 31
0.0
  0
LINE
  5
24E0F
  8
0
  6
CONTINUOUS
 10
33.08199999996839
 20
5.366719825108387
 30
0.0
 11
31.64199999996833
 21
6.806719825108441
 31
0.0
  0
LINE
  5
24E10
  8
0
  6
CONTINUOUS
 10
37.51739996707661
 20
1.604839067080355
 30
0.0
 11
36.23199999996837
 21
2.890239034188595
 31
0.0
  0
LINE
  5
24E11
  8
0
  6
CONTINUOUS
 10
37.6183579579535
 20
2.177400285283649
 30
0.0
 11
36.23199999996837
 21
3.563758243268782
 31
0.0
  0
LINE
  5
24E12
  8
0
  6
CONTINUOUS
 10
33.08199999996839
 20
6.040239034188573
 30
0.0
 11
31.64199999996833
 21
7.480239034188628
 31
0.0
  0
LINE
  5
24E13
  8
0
  6
CONTINUOUS
 10
33.08199999996839
 20
6.713758243268759
 30
0.0
 11
31.64199999996833
 21
8.153758243268815
 31
0.0
  0
LINE
  5
24E14
  8
0
  6
CONTINUOUS
 10
37.67199999996831
 20
2.797277452349027
 30
0.0
 11
36.23199999996837
 21
4.237277452348969
 31
0.0
  0
LINE
  5
24E15
  8
0
  6
CONTINUOUS
 10
37.67199999996831
 20
3.470796661429214
 30
0.0
 11
36.23199999996837
 21
4.910796661429155
 31
0.0
  0
LINE
  5
24E16
  8
0
  6
CONTINUOUS
 10
37.67199999996831
 20
4.1443158705094
 30
0.0
 11
36.23199999996837
 21
5.584315870509341
 31
0.0
  0
LINE
  5
24E17
  8
0
  6
CONTINUOUS
 10
33.08199999996839
 20
7.387277452348946
 30
0.0
 11
31.70617745232608
 21
8.763099999991255
 31
0.0
  0
LINE
  5
24E18
  8
0
  6
CONTINUOUS
 10
33.08199999996839
 20
8.060796661429134
 30
0.0
 11
32.37969666140626
 21
8.763099999991255
 31
0.0
  0
LINE
  5
24E19
  8
0
  6
CONTINUOUS
 10
33.08199999996839
 20
8.734315870509318
 30
0.0
 11
33.05321587048645
 21
8.763099999991255
 31
0.0
  0
LINE
  5
24E1A
  8
0
  6
CONTINUOUS
 10
37.67199999996831
 20
4.817835079589586
 30
0.0
 11
36.23199999996837
 21
6.257835079589528
 31
0.0
  0
LINE
  5
24E1B
  8
0
  6
CONTINUOUS
 10
37.67199999996831
 20
5.491354288669772
 30
0.0
 11
36.23199999996837
 21
6.931354288669715
 31
0.0
  0
LINE
  5
24E1C
  8
0
  6
CONTINUOUS
 10
37.67199999996831
 20
6.164873497749959
 30
0.0
 11
36.23199999996837
 21
7.6048734977499
 31
0.0
  0
LINE
  5
24E1D
  8
0
  6
CONTINUOUS
 10
37.67199999996831
 20
6.838392706830145
 30
0.0
 11
36.23199999996837
 21
8.278392706830086
 31
0.0
  0
LINE
  5
24E1E
  8
0
  6
CONTINUOUS
 10
37.67199999996831
 20
7.511911915910333
 30
0.0
 11
36.42081191588738
 21
8.763099999991255
 31
0.0
  0
LINE
  5
24E1F
  8
0
  6
CONTINUOUS
 10
37.67199999996831
 20
8.185431124990519
 30
0.0
 11
37.09433112496757
 21
8.763099999991255
 31
0.0
  0
ENDBLK
  5
24E87
  8
0
  0
BLOCK
  8
0
  2
*X337
 70
     1
 10
0.0
 20
0.0
 30
0.0
  3
*X337
  1

  0
LINE
  5
24E21
  8
0
  6
CONTINUOUS
 10
38.60499999996136
 20
8.762866199104765
 30
0.0
 11
38.71672554182345
 21
8.874591740966855
 31
0.0
  0
LINE
  5
24E22
  8
0
  6
CONTINUOUS
 10
38.60499999996136
 20
8.089346990024577
 30
0.0
 11
39.03418785440363
 21
8.518534844466847
 31
0.0
  0
LINE
  5
24E23
  8
0
  6
CONTINUOUS
 10
38.60499999996136
 20
7.41582778094439
 30
0.0
 11
39.35165016698382
 21
8.16247794796684
 31
0.0
  0
LINE
  5
24E24
  8
0
  6
CONTINUOUS
 10
38.60499999996136
 20
6.742308571864204
 30
0.0
 11
39.66911247956399
 21
7.806421051466834
 31
0.0
  0
LINE
  5
24E25
  8
0
  6
CONTINUOUS
 10
38.60499999996136
 20
6.068789362784018
 30
0.0
 11
39.98657479214418
 21
7.450364154966827
 31
0.0
  0
LINE
  5
24E26
  8
0
  6
CONTINUOUS
 10
38.60499999996136
 20
5.395270153703832
 30
0.0
 11
40.30403710472435
 21
7.09430725846682
 31
0.0
  0
LINE
  5
24E27
  8
0
  6
CONTINUOUS
 10
38.60499999996136
 20
4.721750944623645
 30
0.0
 11
40.62149941730453
 21
6.738250361966813
 31
0.0
  0
LINE
  5
24E28
  8
0
  6
CONTINUOUS
 10
38.60499999996136
 20
4.048231735543458
 30
0.0
 11
40.93896172988471
 21
6.382193465466806
 31
0.0
  0
LINE
  5
24E29
  8
0
  6
CONTINUOUS
 10
38.60499999996136
 20
3.374712526463272
 30
0.0
 11
40.02599999995994
 21
4.795712526461843
 31
0.0
  0
LINE
  5
24E2A
  8
0
  6
CONTINUOUS
 10
38.60499999996136
 20
2.701193317383085
 30
0.0
 11
40.02599999995994
 21
4.122193317381657
 31
0.0
  0
LINE
  5
24E2B
  8
0
  6
CONTINUOUS
 10
40.28339754687704
 20
5.053110073378947
 30
0.0
 11
41.25642404246489
 21
6.026136568966799
 31
0.0
  0
LINE
  5
24E2C
  8
0
  6
CONTINUOUS
 10
40.60085985945722
 20
4.697053176878939
 30
0.0
 11
41.57388635504507
 21
5.670079672466793
 31
0.0
  0
LINE
  5
24E2D
  8
0
  6
CONTINUOUS
 10
43.57899999995641
 20
8.348712526458318
 30
0.0
 11
43.99338747348935
 21
8.763099999991255
 31
0.0
  0
LINE
  5
24E2E
  8
0
  6
CONTINUOUS
 10
43.57899999995641
 20
7.675193317378131
 30
0.0
 11
44.66690668256953
 21
8.763099999991255
 31
0.0
  0
LINE
  5
24E2F
  8
0
  6
CONTINUOUS
 10
38.60499999996136
 20
2.027674108302898
 30
0.0
 11
40.02599999995994
 21
3.44867410830147
 31
0.0
  0
LINE
  5
24E30
  8
0
  6
CONTINUOUS
 10
38.60499999996136
 20
1.354154899222712
 30
0.0
 11
40.02599999995994
 21
2.775154899221284
 31
0.0
  0
LINE
  5
24E31
  8
0
  6
CONTINUOUS
 10
38.60499999996136
 20
0.6806356901425255
 30
0.0
 11
40.02599999995994
 21
2.101635690141098
 31
0.0
  0
LINE
  5
24E32
  8
0
  6
CONTINUOUS
 10
38.60499999996136
 20
0.0071164810623383
 30
0.0
 11
40.02599999995994
 21
1.428116481060911
 31
0.0
  0
LINE
  5
24E33
  8
0
  6
CONTINUOUS
 10
40.9183221720374
 20
4.340996280378933
 30
0.0
 11
41.89134866762525
 21
5.314022775966786
 31
0.0
  0
LINE
  5
24E34
  8
0
  6
CONTINUOUS
 10
41.23578448461758
 20
3.984939383878926
 30
0.0
 11
42.20881098020543
 21
4.957965879466778
 31
0.0
  0
LINE
  5
24E35
  8
0
  6
CONTINUOUS
 10
41.55324679719776
 20
3.628882487378919
 30
0.0
 11
42.52627329278561
 21
4.601908982966772
 31
0.0
  0
LINE
  5
24E36
  8
0
  6
CONTINUOUS
 10
41.87070910977793
 20
3.272825590878912
 30
0.0
 11
42.84373560536579
 21
4.245852086466765
 31
0.0
  0
LINE
  5
24E37
  8
0
  6
CONTINUOUS
 10
43.57899999995641
 20
7.001674108297943
 30
0.0
 11
44.99999999995498
 21
8.422674108296516
 31
0.0
  0
LINE
  5
24E38
  8
0
  6
CONTINUOUS
 10
43.57899999995641
 20
6.328154899217758
 30
0.0
 11
44.99999999995498
 21
7.749154899216329
 31
0.0
  0
LINE
  5
24E39
  8
0
  6
CONTINUOUS
 10
43.57899999995641
 20
5.654635690137571
 30
0.0
 11
44.99999999995498
 21
7.075635690136142
 31
0.0
  0
LINE
  5
24E3A
  8
0
  6
CONTINUOUS
 10
43.57899999995641
 20
4.981116481057384
 30
0.0
 11
44.99999999995498
 21
6.402116481055955
 31
0.0
  0
LINE
  5
24E3B
  8
0
  6
CONTINUOUS
 10
39.27140272797921
 20
-0.0000000000000009
 30
0.0
 11
40.02599999995994
 21
0.7545972719807246
 31
0.0
  0
LINE
  5
24E3C
  8
0
  6
CONTINUOUS
 10
39.9449219370594
 20
-0.0000000000000009
 30
0.0
 11
40.02599999995994
 21
0.0810780629005379
 31
0.0
  0
LINE
  5
24E3D
  8
0
  6
CONTINUOUS
 10
42.18817142235812
 20
2.916768694378905
 30
0.0
 11
43.16119791794597
 21
3.889795189966758
 31
0.0
  0
LINE
  5
24E3E
  8
0
  6
CONTINUOUS
 10
42.50563373493829
 20
2.560711797878898
 30
0.0
 11
43.47866023052615
 21
3.533738293466751
 31
0.0
  0
LINE
  5
24E3F
  8
0
  6
CONTINUOUS
 10
43.57899999995641
 20
4.307597271977198
 30
0.0
 11
44.99999999995498
 21
5.728597271975769
 31
0.0
  0
LINE
  5
24E40
  8
0
  6
CONTINUOUS
 10
43.57899999995641
 20
3.634078062897011
 30
0.0
 11
44.99999999995498
 21
5.055078062895582
 31
0.0
  0
LINE
  5
24E41
  8
0
  6
CONTINUOUS
 10
42.82309604751848
 20
2.204654901378891
 30
0.0
 11
44.99999999995498
 21
4.381558853815395
 31
0.0
  0
LINE
  5
24E42
  8
0
  6
CONTINUOUS
 10
43.14055836009865
 20
1.848598004878885
 30
0.0
 11
44.99999999995498
 21
3.70803964473521
 31
0.0
  0
LINE
  5
24E43
  8
0
  6
CONTINUOUS
 10
43.45802067267883
 20
1.492541108378878
 30
0.0
 11
44.99999999995498
 21
3.034520435655023
 31
0.0
  0
LINE
  5
24E44
  8
0
  6
CONTINUOUS
 10
43.77548298525902
 20
1.136484211878871
 30
0.0
 11
44.99999999995498
 21
2.361001226574837
 31
0.0
  0
LINE
  5
24E45
  8
0
  6
CONTINUOUS
 10
44.09294529783919
 20
0.7804273153788639
 30
0.0
 11
44.99999999995498
 21
1.687482017494649
 31
0.0
  0
LINE
  5
24E46
  8
0
  6
CONTINUOUS
 10
44.41040761041938
 20
0.4243704188788566
 30
0.0
 11
44.99999999995498
 21
1.013962808414463
 31
0.0
  0
LINE
  5
24E47
  8
0
  6
CONTINUOUS
 10
44.72786992299955
 20
0.0683135223788494
 30
0.0
 11
44.99999999995498
 21
0.340443599334276
 31
0.0
  0
LINE
  5
24E48
  8
0
  6
CONTINUOUS
 10
39.12223903415696
 20
-0.0000000000000009
 30
0.0
 11
38.60499999996136
 21
0.5172390341955961
 31
0.0
  0
LINE
  5
24E49
  8
0
  6
CONTINUOUS
 10
39.79575824323715
 20
-0.0000000000000009
 30
0.0
 11
38.60499999996136
 21
1.190758243275783
 31
0.0
  0
LINE
  5
24E4A
  8
0
  6
CONTINUOUS
 10
40.02599999995994
 20
0.443277452357397
 30
0.0
 11
38.60499999996136
 21
1.864277452355969
 31
0.0
  0
LINE
  5
24E4B
  8
0
  6
CONTINUOUS
 10
40.02599999995994
 20
1.116796661437583
 30
0.0
 11
38.60499999996136
 21
2.537796661436155
 31
0.0
  0
LINE
  5
24E4C
  8
0
  6
CONTINUOUS
 10
40.02599999995994
 20
1.79031587051777
 30
0.0
 11
38.60499999996136
 21
3.211315870516341
 31
0.0
  0
LINE
  5
24E4D
  8
0
  6
CONTINUOUS
 10
40.02599999995994
 20
2.463835079597956
 30
0.0
 11
38.60499999996136
 21
3.884835079596527
 31
0.0
  0
LINE
  5
24E4E
  8
0
  6
CONTINUOUS
 10
40.02599999995994
 20
3.137354288678143
 30
0.0
 11
38.60499999996136
 21
4.558354288676714
 31
0.0
  0
LINE
  5
24E4F
  8
0
  6
CONTINUOUS
 10
40.02599999995994
 20
3.810873497758329
 30
0.0
 11
38.60499999996136
 21
5.2318734977569
 31
0.0
  0
LINE
  5
24E50
  8
0
  6
CONTINUOUS
 10
40.02599999995994
 20
4.484392706838515
 30
0.0
 11
38.60499999996136
 21
5.905392706837086
 31
0.0
  0
LINE
  5
24E51
  8
0
  6
CONTINUOUS
 10
44.99999999995498
 20
0.183911915923658
 30
0.0
 11
41.53858364506288
 21
3.64532827081576
 31
0.0
  0
LINE
  5
24E52
  8
0
  6
CONTINUOUS
 10
40.02599999995994
 20
5.157911915918703
 30
0.0
 11
38.60499999996136
 21
6.578911915917274
 31
0.0
  0
LINE
  5
24E53
  8
0
  6
CONTINUOUS
 10
44.99999999995498
 20
0.8574311250038447
 30
0.0
 11
38.60499999996136
 21
7.25243112499746
 31
0.0
  0
LINE
  5
24E54
  8
0
  6
CONTINUOUS
 10
44.99999999995498
 20
1.530950334084031
 30
0.0
 11
38.60499999996136
 21
7.925950334077647
 31
0.0
  0
LINE
  5
24E55
  8
0
  6
CONTINUOUS
 10
44.99999999995498
 20
2.204469543164218
 30
0.0
 11
43.57899999995641
 21
3.625469543162789
 31
0.0
  0
LINE
  5
24E56
  8
0
  6
CONTINUOUS
 10
41.89876730984767
 20
5.305702233271528
 30
0.0
 11
38.60499999996136
 21
8.599469543157834
 31
0.0
  0
LINE
  5
24E57
  8
0
  6
CONTINUOUS
 10
44.99999999995498
 20
2.877988752244405
 30
0.0
 11
43.57899999995641
 21
4.298988752242975
 31
0.0
  0
LINE
  5
24E58
  8
0
  6
CONTINUOUS
 10
44.99999999995498
 20
3.551507961324591
 30
0.0
 11
43.57899999995641
 21
4.972507961323163
 31
0.0
  0
LINE
  5
24E59
  8
0
  6
CONTINUOUS
 10
44.99999999995498
 20
4.225027170404777
 30
0.0
 11
43.57899999995641
 21
5.646027170403348
 31
0.0
  0
LINE
  5
24E5A
  8
0
  6
CONTINUOUS
 10
44.99999999995498
 20
4.898546379484964
 30
0.0
 11
43.57899999995641
 21
6.319546379483535
 31
0.0
  0
LINE
  5
24E5B
  8
0
  6
CONTINUOUS
 10
44.99999999995498
 20
5.572065588565151
 30
0.0
 11
43.57899999995641
 21
6.993065588563722
 31
0.0
  0
LINE
  5
24E5C
  8
0
  6
CONTINUOUS
 10
44.99999999995498
 20
6.245584797645336
 30
0.0
 11
43.57899999995641
 21
7.666584797643908
 31
0.0
  0
LINE
  5
24E5D
  8
0
  6
CONTINUOUS
 10
44.99999999995498
 20
6.919104006725522
 30
0.0
 11
43.57899999995641
 21
8.340104006724093
 31
0.0
  0
LINE
  5
24E5E
  8
0
  6
CONTINUOUS
 10
44.99999999995498
 20
7.592623215805709
 30
0.0
 11
43.82952321576943
 21
8.763099999991255
 31
0.0
  0
LINE
  5
24E5F
  8
0
  6
CONTINUOUS
 10
44.99999999995498
 20
8.266142424885896
 30
0.0
 11
44.50304242484962
 21
8.763099999991255
 31
0.0
  0
ENDBLK
  5
24E89
  8
0
  0
BLOCK
  8
0
  2
*X338
 70
     1
 10
0.0
 20
0.0
 30
0.0
  3
*X338
  1

  0
LINE
  5
24E61
  8
0
  6
CONTINUOUS
 10
0.0
 20
8.548461116714023
 30
0.0
 11
0.2146388832772324
 21
8.763099999991255
 31
0.0
  0
LINE
  5
24E62
  8
0
  6
CONTINUOUS
 10
-0.0000000000000002
 20
7.874941907633837
 30
0.0
 11
0.8881580923574184
 21
8.763099999991255
 31
0.0
  0
LINE
  5
24E63
  8
0
  6
CONTINUOUS
 10
0.0
 20
7.20142269855365
 30
0.0
 11
1.420999999998572
 21
8.622422698552223
 31
0.0
  0
LINE
  5
24E64
  8
0
  6
CONTINUOUS
 10
-0.0000000000000001
 20
6.527903489473465
 30
0.0
 11
1.420999999998571
 21
7.948903489472036
 31
0.0
  0
LINE
  5
24E65
  8
0
  6
CONTINUOUS
 10
-0.0000000000000002
 20
5.854384280393278
 30
0.0
 11
1.420999999998571
 21
7.275384280391849
 31
0.0
  0
LINE
  5
24E66
  8
0
  6
CONTINUOUS
 10
-0.0000000000000002
 20
5.180865071313091
 30
0.0
 11
1.420999999998571
 21
6.601865071311663
 31
0.0
  0
LINE
  5
24E67
  8
0
  6
CONTINUOUS
 10
0.0
 20
4.507345862232905
 30
0.0
 11
1.420999999998571
 21
5.928345862231477
 31
0.0
  0
LINE
  5
24E68
  8
0
  6
CONTINUOUS
 10
-0.0000000000000003
 20
3.833826653152718
 30
0.0
 11
1.420999999998571
 21
5.25482665315129
 31
0.0
  0
LINE
  5
24E69
  8
0
  6
CONTINUOUS
 10
-0.0000000000000002
 20
3.160307444072532
 30
0.0
 11
1.420999999998571
 21
4.581307444071103
 31
0.0
  0
LINE
  5
24E6A
  8
0
  6
CONTINUOUS
 10
-0.0000000000000001
 20
2.486788234992345
 30
0.0
 11
1.420999999998571
 21
3.907788234990917
 31
0.0
  0
LINE
  5
24E6B
  8
0
  6
CONTINUOUS
 10
-0.0000000000000006
 20
1.813269025912159
 30
0.0
 11
1.420999999998571
 21
3.234269025910731
 31
0.0
  0
LINE
  5
24E6C
  8
0
  6
CONTINUOUS
 10
0.0
 20
1.139749816831973
 30
0.0
 11
1.420999999998571
 21
2.560749816830544
 31
0.0
  0
LINE
  5
24E6D
  8
0
  6
CONTINUOUS
 10
0.0000000000000002
 20
0.466230607751787
 30
0.0
 11
1.420999999998571
 21
1.887230607750358
 31
0.0
  0
LINE
  5
24E6E
  8
0
  6
CONTINUOUS
 10
0.2072886013284003
 20
-0.0000000000000009
 30
0.0
 11
1.420999999998571
 21
1.213711398670171
 31
0.0
  0
LINE
  5
24E6F
  8
0
  6
CONTINUOUS
 10
0.8808078104085864
 20
-0.0000000000000009
 30
0.0
 11
1.420999999998571
 21
0.5401921895899839
 31
0.0
  0
LINE
  5
24E70
  8
0
  6
CONTINUOUS
 10
0.0581249075061505
 20
-0.0000000000000009
 30
0.0
 11
-0.0000000000000002
 21
0.0581249075061496
 31
0.0
  0
LINE
  5
24E71
  8
0
  6
CONTINUOUS
 10
0.7316441165863372
 20
-0.0000000000000009
 30
0.0
 11
-0.0000000000000002
 21
0.7316441165863363
 31
0.0
  0
LINE
  5
24E72
  8
0
  6
CONTINUOUS
 10
1.405163325666523
 20
-0.0000000000000009
 30
0.0
 11
-0.0000000000000002
 21
1.405163325666523
 31
0.0
  0
LINE
  5
24E73
  8
0
  6
CONTINUOUS
 10
1.420999999998572
 20
0.6576825347481381
 30
0.0
 11
-0.0000000000000001
 21
2.07868253474671
 31
0.0
  0
LINE
  5
24E74
  8
0
  6
CONTINUOUS
 10
1.420999999998571
 20
1.331201743828324
 30
0.0
 11
-0.0000000000000001
 21
2.752201743826896
 31
0.0
  0
LINE
  5
24E75
  8
0
  6
CONTINUOUS
 10
1.420999999998571
 20
2.004720952908511
 30
0.0
 11
-0.0000000000000002
 21
3.425720952907082
 31
0.0
  0
LINE
  5
24E76
  8
0
  6
CONTINUOUS
 10
1.420999999998571
 20
2.678240161988697
 30
0.0
 11
-0.0000000000000001
 21
4.099240161987269
 31
0.0
  0
LINE
  5
24E77
  8
0
  6
CONTINUOUS
 10
1.420999999998572
 20
3.351759371068884
 30
0.0
 11
0.0
 21
4.772759371067455
 31
0.0
  0
LINE
  5
24E78
  8
0
  6
CONTINUOUS
 10
1.420999999998571
 20
4.02527858014907
 30
0.0
 11
-0.0000000000000003
 21
5.446278580147642
 31
0.0
  0
LINE
  5
24E79
  8
0
  6
CONTINUOUS
 10
1.420999999998571
 20
4.698797789229257
 30
0.0
 11
0.0
 21
6.119797789227828
 31
0.0
  0
LINE
  5
24E7A
  8
0
  6
CONTINUOUS
 10
1.420999999998571
 20
5.372316998309444
 30
0.0
 11
-0.0000000000000001
 21
6.793316998308015
 31
0.0
  0
LINE
  5
24E7B
  8
0
  6
CONTINUOUS
 10
1.420999999998572
 20
6.045836207389629
 30
0.0
 11
-0.0000000000000004
 21
7.466836207388202
 31
0.0
  0
LINE
  5
24E7C
  8
0
  6
CONTINUOUS
 10
1.420999999998571
 20
6.719355416469816
 30
0.0
 11
0.0
 21
8.140355416468388
 31
0.0
  0
LINE
  5
24E7D
  8
0
  6
CONTINUOUS
 10
1.420999999998571
 20
7.392874625550003
 30
0.0
 11
0.0507746255573185
 21
8.763099999991255
 31
0.0
  0
LINE
  5
24E7E
  8
0
  6
CONTINUOUS
 10
1.420999999998571
 20
8.06639383463019
 30
0.0
 11
0.7242938346375052
 21
8.763099999991255
 31
0.0
  0
LINE
  5
24E7F
  8
0
  6
CONTINUOUS
 10
1.420999999998571
 20
8.739913043710375
 30
0.0
 11
1.397813043717691
 21
8.763099999991255
 31
0.0
  0
ENDBLK
  5
24E8B
  8
0
  0
ENDSEC
  0
SECTION
  2
ENTITIES
  0
TEXT
  5
1DB9B
  8
1TEXT
 10
534.7940128843152
 20
-525.3213303512664
 30
0.0
 40
8.0
  1
SE-511-※
 72
     2
 11
592.7162351065374
 21
-525.3213303512664
 31
0.0
 73
     1
  0
LINE
  5
1DBA4
  8
01
 10
775.5162416153653
 20
-618.5931567659834
 30
0.0
 11
775.5162416153653
 21
-693.0495039365471
 31
0.0
  0
LINE
  5
1DBA5
  8
01
 10
784.5162416153653
 20
-618.5931567659834
 30
0.0
 11
784.5162416153653
 21
-693.0495039365471
 31
0.0
  0
LINE
  5
1DBA6
  8
01
 10
763.0162416153653
 20
-618.5931567659834
 30
0.0
 11
763.0162416153653
 21
-693.0495039365471
 31
0.0
  0
LINE
  5
1E7B5
  8
01
 10
633.2162384763158
 20
-539.8213303512664
 30
0.0
 11
632.2162387763158
 21
-538.8213303512664
 31
0.0
  0
LINE
  5
1E7B6
  8
01
 10
636.5162386263157
 20
-539.8213303512664
 30
0.0
 11
636.5162386263157
 21
-538.8213303512664
 31
0.0
  0
LINE
  5
1E7B7
  8
01
 10
636.5162386263157
 20
-538.8213303512664
 30
0.0
 11
628.9162386263158
 21
-538.8213303512664
 31
0.0
  0
LINE
  5
1E7B8
  8
01
 10
636.5162386263157
 20
-539.8213303512664
 30
0.0
 11
628.9162386263158
 21
-539.8213303512664
 31
0.0
  0
LINE
  5
1E7B9
  8
01
 10
628.9162386263158
 20
-539.8213303512664
 30
0.0
 11
628.9162386263158
 21
-538.8213303512664
 31
0.0
  0
LINE
  5
1E9CD
  8
01
 10
759.0162416164925
 20
-655.3213302012664
 30
0.0
 11
760.0162416164925
 21
-654.3213305012664
 31
0.0
  0
LINE
  5
1E9CE
  8
01
 10
759.0162416164925
 20
-658.6213303512664
 30
0.0
 11
760.0162416164925
 21
-658.6213303512664
 31
0.0
  0
LINE
  5
1E9CF
  8
01
 10
760.0162416164925
 20
-658.6213303512664
 30
0.0
 11
760.0162416164925
 21
-651.0213303512664
 31
0.0
  0
LINE
  5
1E9D0
  8
01
 10
759.0162416164925
 20
-658.6213303512664
 30
0.0
 11
759.0162416164925
 21
-651.0213303512664
 31
0.0
  0
LINE
  5
1E9D1
  8
01
 10
759.0162416164925
 20
-651.0213303512664
 30
0.0
 11
760.0162416164925
 21
-651.0213303512664
 31
0.0
  0
TEXT
  5
239F4
  8
1TEXT
 10
538.982901773204
 20
-535.8213303512664
 30
0.0
 40
4.0
  1
※には色品番が入ります。
 72
     2
 11
592.7162351065374
 21
-535.8213303512664
 31
0.0
 73
     1
  0
POLYLINE
  5
23A7C
  8
1PHANTOM
 66
     1
 10
0.0
 20
0.0
 30
0.0
  0
VERTEX
  5
24998
  8
1PHANTOM
 10
639.8494039673512
 20
-558.7342841239157
 30
0.0
  0
VERTEX
  5
24999
  8
1PHANTOM
 10
639.8512170584911
 20
-558.7337492690317
 30
0.0
  0
VERTEX
  5
2499A
  8
1PHANTOM
 10
639.8530291098516
 20
-558.7332108585064
 30
0.0
  0
VERTEX
  5
2499B
  8
1PHANTOM
 10
639.8548400426071
 20
-558.7326688416344
 30
0.0
  0
VERTEX
  5
2499C
  8
1PHANTOM
 10
639.8566498261889
 20
-558.7321233437202
 30
0.0
  0
VERTEX
  5
2499D
  8
1PHANTOM
 10
639.8584584300282
 20
-558.7315744900675
 30
0.0
  0
VERTEX
  5
2499E
  8
1PHANTOM
 10
639.8602658235563
 20
-558.7310224059806
 30
0.0
  0
VERTEX
  5
2499F
  8
1PHANTOM
 10
639.8620719762044
 20
-558.7304672167637
 30
0.0
  0
VERTEX
  5
249A0
  8
1PHANTOM
 10
639.8638768574039
 20
-558.7299090477209
 30
0.0
  0
VERTEX
  5
249A1
  8
1PHANTOM
 10
639.8656804365858
 20
-558.7293480241563
 30
0.0
  0
VERTEX
  5
249A2
  8
1PHANTOM
 10
639.8674826831814
 20
-558.7287842713741
 30
0.0
  0
VERTEX
  5
249A3
  8
1PHANTOM
 10
639.869283566622
 20
-558.7282179146786
 30
0.0
  0
VERTEX
  5
249A4
  8
1PHANTOM
 10
639.8710830563389
 20
-558.7276490793736
 30
0.0
  0
VERTEX
  5
249A5
  8
1PHANTOM
 10
639.8728811217634
 20
-558.7270778907633
 30
0.0
  0
VERTEX
  5
249A6
  8
1PHANTOM
 10
639.8746777323265
 20
-558.7265044741521
 30
0.0
  0
VERTEX
  5
249A7
  8
1PHANTOM
 10
639.8764728574597
 20
-558.7259289548441
 30
0.0
  0
VERTEX
  5
249A8
  8
1PHANTOM
 10
639.8782664665941
 20
-558.7253514581433
 30
0.0
  0
VERTEX
  5
249A9
  8
1PHANTOM
 10
639.8800585291611
 20
-558.7247721093538
 30
0.0
  0
VERTEX
  5
249AA
  8
1PHANTOM
 10
639.8818490145917
 20
-558.7241910337799
 30
0.0
  0
VERTEX
  5
249AB
  8
1PHANTOM
 10
639.8836378923174
 20
-558.7236083567255
 30
0.0
  0
VERTEX
  5
249AC
  8
1PHANTOM
 10
639.8854251367593
 20
-558.723024200967
 30
0.0
  0
VERTEX
  5
249AD
  8
1PHANTOM
 10
639.8872107846437
 20
-558.7224386577152
 30
0.0
  0
VERTEX
  5
249AE
  8
1PHANTOM
 10
639.8889949150306
 20
-558.7218517967337
 30
0.0
  0
VERTEX
  5
249AF
  8
1PHANTOM
 10
639.8907776077882
 20
-558.721263687377
 30
0.0
  0
VERTEX
  5
249B0
  8
1PHANTOM
 10
639.8925589427848
 20
-558.720674398999
 30
0.0
  0
VERTEX
  5
249B1
  8
1PHANTOM
 10
639.8943389998889
 20
-558.7200840009539
 30
0.0
  0
VERTEX
  5
249B2
  8
1PHANTOM
 10
639.8961178589685
 20
-558.719492562596
 30
0.0
  0
VERTEX
  5
249B3
  8
1PHANTOM
 10
639.8978955998922
 20
-558.7189001532794
 30
0.0
  0
VERTEX
  5
249B4
  8
1PHANTOM
 10
639.899672302528
 20
-558.7183068423584
 30
0.0
  0
VERTEX
  5
249B5
  8
1PHANTOM
 10
639.9014480467443
 20
-558.717712699187
 30
0.0
  0
VERTEX
  5
249B6
  8
1PHANTOM
 10
639.9032229124094
 20
-558.7171177931197
 30
0.0
  0
VERTEX
  5
249B7
  8
1PHANTOM
 10
639.9049969793917
 20
-558.7165221935105
 30
0.0
  0
VERTEX
  5
249B8
  8
1PHANTOM
 10
639.9067703275593
 20
-558.7159259697133
 30
0.0
  0
VERTEX
  5
249B9
  8
1PHANTOM
 10
639.9085430367807
 20
-558.7153291910829
 30
0.0
  0
VERTEX
  5
249BA
  8
1PHANTOM
 10
639.910315186924
 20
-558.7147319269731
 30
0.0
  0
VERTEX
  5
249BB
  8
1PHANTOM
 10
639.9120868578575
 20
-558.714134246738
 30
0.0
  0
VERTEX
  5
249BC
  8
1PHANTOM
 10
639.9138581294496
 20
-558.7135362197322
 30
0.0
  0
VERTEX
  5
249BD
  8
1PHANTOM
 10
639.9156290815686
 20
-558.7129379153095
 30
0.0
  0
VERTEX
  5
249BE
  8
1PHANTOM
 10
639.9173997940826
 20
-558.7123394028242
 30
0.0
  0
VERTEX
  5
249BF
  8
1PHANTOM
 10
639.91917034686
 20
-558.7117407516305
 30
0.0
  0
VERTEX
  5
249C0
  8
1PHANTOM
 10
639.9209408197692
 20
-558.7111420310827
 30
0.0
  0
SEQEND
  5
24E8C
  8
1PHANTOM
  0
LINE
  5
23A87
  8
1PHANTOM
 10
641.2662386263019
 20
-535.8213303512664
 30
0.0
 11
641.2662386263019
 21
-537.8213303512664
 31
0.0
  0
LINE
  5
23A89
  8
1PHANTOM
 10
624.1662386263298
 20
-537.8213303512664
 30
0.0
 11
624.1662386263298
 21
-535.8213303512664
 31
0.0
  0
POLYLINE
  5
23A8B
  8
1PHANTOM
 66
     1
 10
0.0
 20
0.0
 30
0.0
  0
VERTEX
  5
249C1
  8
1PHANTOM
 10
641.2662386263017
 20
-537.8213303512664
 30
0.0
  0
VERTEX
  5
249C2
  8
1PHANTOM
 10
641.2660387587814
 20
-537.8410559874649
 30
0.0
  0
VERTEX
  5
249C3
  8
1PHANTOM
 10
641.2654351949842
 20
-537.8609400329233
 30
0.0
  0
VERTEX
  5
249C4
  8
1PHANTOM
 10
641.2644219930557
 20
-537.8809687580352
 30
0.0
  0
VERTEX
  5
249C5
  8
1PHANTOM
 10
641.2629932111415
 20
-537.9011284331945
 30
0.0
  0
VERTEX
  5
249C6
  8
1PHANTOM
 10
641.2611429073871
 20
-537.9214053287948
 30
0.0
  0
VERTEX
  5
249C7
  8
1PHANTOM
 10
641.2588651399382
 20
-537.9417857152295
 30
0.0
  0
VERTEX
  5
249C8
  8
1PHANTOM
 10
641.2561539669401
 20
-537.9622558628924
 30
0.0
  0
VERTEX
  5
249C9
  8
1PHANTOM
 10
641.2530034465389
 20
-537.9828020421772
 30
0.0
  0
VERTEX
  5
249CA
  8
1PHANTOM
 10
641.2494076368795
 20
-538.0034105234777
 30
0.0
  0
VERTEX
  5
249CB
  8
1PHANTOM
 10
641.2453605961081
 20
-538.024067577187
 30
0.0
  0
VERTEX
  5
249CC
  8
1PHANTOM
 10
641.24085638237
 20
-538.0447594736992
 30
0.0
  0
VERTEX
  5
249CD
  8
1PHANTOM
 10
641.2358890538106
 20
-538.0654724834078
 30
0.0
  0
VERTEX
  5
249CE
  8
1PHANTOM
 10
641.2304526685758
 20
-538.0861928767064
 30
0.0
  0
VERTEX
  5
249CF
  8
1PHANTOM
 10
641.2245412848112
 20
-538.1069069239888
 30
0.0
  0
VERTEX
  5
249D0
  8
1PHANTOM
 10
641.2181489606619
 20
-538.1276008956486
 30
0.0
  0
VERTEX
  5
249D1
  8
1PHANTOM
 10
641.2112697542741
 20
-538.1482610620793
 30
0.0
  0
VERTEX
  5
249D2
  8
1PHANTOM
 10
641.203897723793
 20
-538.1688736936746
 30
0.0
  0
VERTEX
  5
249D3
  8
1PHANTOM
 10
641.1960269273643
 20
-538.1894250608283
 30
0.0
  0
VERTEX
  5
249D4
  8
1PHANTOM
 10
641.1876504303235
 20
-538.2098939392555
 30
0.0
  0
VERTEX
  5
249D5
  8
1PHANTOM
 10
641.1787695602995
 20
-538.2302573934946
 30
0.0
  0
VERTEX
  5
249D6
  8
1PHANTOM
 10
641.169390768877
 20
-538.2504991271743
 30
0.0
  0
VERTEX
  5
249D7
  8
1PHANTOM
 10
641.159520507641
 20
-538.2706028439223
 30
0.0
  0
VERTEX
  5
249D8
  8
1PHANTOM
 10
641.1491652281763
 20
-538.2905522473674
 30
0.0
  0
VERTEX
  5
249D9
  8
1PHANTOM
 10
641.1383313820683
 20
-538.3103310411376
 30
0.0
  0
VERTEX
  5
249DA
  8
1PHANTOM
 10
641.1270254209013
 20
-538.3299229288615
 30
0.0
  0
VERTEX
  5
249DB
  8
1PHANTOM
 10
641.1152537962608
 20
-538.3493116141672
 30
0.0
  0
VERTEX
  5
249DC
  8
1PHANTOM
 10
641.1030229597314
 20
-538.368480800683
 30
0.0
  0
VERTEX
  5
249DD
  8
1PHANTOM
 10
641.0903393628984
 20
-538.3874141920371
 30
0.0
  0
VERTEX
  5
249DE
  8
1PHANTOM
 10
641.0772094573463
 20
-538.4060954918582
 30
0.0
  0
VERTEX
  5
249DF
  8
1PHANTOM
 10
641.0636396946603
 20
-538.4245084037743
 30
0.0
  0
VERTEX
  5
249E0
  8
1PHANTOM
 10
641.0496365264253
 20
-538.4426366314138
 30
0.0
  0
VERTEX
  5
249E1
  8
1PHANTOM
 10
641.0352064042263
 20
-538.460463878405
 30
0.0
  0
VERTEX
  5
249E2
  8
1PHANTOM
 10
641.0203557796481
 20
-538.4779738483762
 30
0.0
  0
VERTEX
  5
249E3
  8
1PHANTOM
 10
641.0050911042758
 20
-538.4951502449558
 30
0.0
  0
VERTEX
  5
249E4
  8
1PHANTOM
 10
640.9894188296942
 20
-538.5119767717719
 30
0.0
  0
VERTEX
  5
249E5
  8
1PHANTOM
 10
640.9733454074884
 20
-538.528437132453
 30
0.0
  0
VERTEX
  5
249E6
  8
1PHANTOM
 10
640.9568850468073
 20
-538.5445105546587
 30
0.0
  0
VERTEX
  5
249E7
  8
1PHANTOM
 10
640.9400585199912
 20
-538.5601828292404
 30
0.0
  0
VERTEX
  5
249E8
  8
1PHANTOM
 10
640.9228821234117
 20
-538.5754475046126
 30
0.0
  0
VERTEX
  5
249E9
  8
1PHANTOM
 10
640.9053721534405
 20
-538.5902981291908
 30
0.0
  0
VERTEX
  5
249EA
  8
1PHANTOM
 10
640.8875449064493
 20
-538.6047282513898
 30
0.0
  0
VERTEX
  5
249EB
  8
1PHANTOM
 10
640.8694166788098
 20
-538.6187314196249
 30
0.0
  0
VERTEX
  5
249EC
  8
1PHANTOM
 10
640.8510037668937
 20
-538.6323011823108
 30
0.0
  0
VERTEX
  5
249ED
  8
1PHANTOM
 10
640.8323224670726
 20
-538.6454310878629
 30
0.0
  0
VERTEX
  5
249EE
  8
1PHANTOM
 10
640.8133890757184
 20
-538.658114684696
 30
0.0
  0
VERTEX
  5
249EF
  8
1PHANTOM
 10
640.7942198892026
 20
-538.6703455212254
 30
0.0
  0
VERTEX
  5
249F0
  8
1PHANTOM
 10
640.774831203897
 20
-538.6821171458658
 30
0.0
  0
VERTEX
  5
249F1
  8
1PHANTOM
 10
640.7552393161731
 20
-538.6934231070328
 30
0.0
  0
VERTEX
  5
249F2
  8
1PHANTOM
 10
640.7354605224028
 20
-538.7042569531409
 30
0.0
  0
VERTEX
  5
249F3
  8
1PHANTOM
 10
640.7155111189578
 20
-538.7146122326055
 30
0.0
  0
VERTEX
  5
249F4
  8
1PHANTOM
 10
640.6954074022098
 20
-538.7244824938415
 30
0.0
  0
VERTEX
  5
249F5
  8
1PHANTOM
 10
640.6751656685301
 20
-538.7338612852641
 30
0.0
  0
VERTEX
  5
249F6
  8
1PHANTOM
 10
640.654802214291
 20
-538.742742155288
 30
0.0
  0
VERTEX
  5
249F7
  8
1PHANTOM
 10
640.6343333358637
 20
-538.7511186523288
 30
0.0
  0
VERTEX
  5
249F8
  8
1PHANTOM
 10
640.6137819687101
 20
-538.7589894487576
 30
0.0
  0
VERTEX
  5
249F9
  8
1PHANTOM
 10
640.5931693371148
 20
-538.7663614792386
 30
0.0
  0
VERTEX
  5
249FA
  8
1PHANTOM
 10
640.572509170684
 20
-538.7732406856264
 30
0.0
  0
VERTEX
  5
249FB
  8
1PHANTOM
 10
640.5518151990243
 20
-538.7796330097757
 30
0.0
  0
VERTEX
  5
249FC
  8
1PHANTOM
 10
640.5311011517418
 20
-538.7855443935404
 30
0.0
  0
VERTEX
  5
249FD
  8
1PHANTOM
 10
640.5103807584433
 20
-538.7909807787752
 30
0.0
  0
VERTEX
  5
249FE
  8
1PHANTOM
 10
640.4896677487346
 20
-538.7959481073345
 30
0.0
  0
VERTEX
  5
249FF
  8
1PHANTOM
 10
640.4689758522225
 20
-538.8004523210726
 30
0.0
  0
VERTEX
  5
24A00
  8
1PHANTOM
 10
640.4483187985131
 20
-538.804499361844
 30
0.0
  0
VERTEX
  5
24A01
  8
1PHANTOM
 10
640.4277103172127
 20
-538.8080951715034
 30
0.0
  0
VERTEX
  5
24A02
  8
1PHANTOM
 10
640.4071641379279
 20
-538.8112456919048
 30
0.0
  0
VERTEX
  5
24A03
  8
1PHANTOM
 10
640.3866939902649
 20
-538.8139568649028
 30
0.0
  0
VERTEX
  5
24A04
  8
1PHANTOM
 10
640.3663136038302
 20
-538.8162346323518
 30
0.0
  0
VERTEX
  5
24A05
  8
1PHANTOM
 10
640.3460367082299
 20
-538.8180849361062
 30
0.0
  0
VERTEX
  5
24A06
  8
1PHANTOM
 10
640.3258770330707
 20
-538.8195137180204
 30
0.0
  0
VERTEX
  5
24A07
  8
1PHANTOM
 10
640.3058483079587
 20
-538.8205269199489
 30
0.0
  0
VERTEX
  5
24A08
  8
1PHANTOM
 10
640.2859642625003
 20
-538.8211304837461
 30
0.0
  0
VERTEX
  5
24A09
  8
1PHANTOM
 10
640.2662386263019
 20
-538.8213303512664
 30
0.0
  0
SEQEND
  5
24E8D
  8
1PHANTOM
  0
POLYLINE
  5
23A8C
  8
1PHANTOM
 66
     1
 10
0.0
 20
0.0
 30
0.0
  0
VERTEX
  5
24A0A
  8
1PHANTOM
 10
625.1662386263299
 20
-538.8213303512664
 30
0.0
  0
VERTEX
  5
24A0B
  8
1PHANTOM
 10
625.1465129901314
 20
-538.8211304837461
 30
0.0
  0
VERTEX
  5
24A0C
  8
1PHANTOM
 10
625.126628944673
 20
-538.8205269199489
 30
0.0
  0
VERTEX
  5
24A0D
  8
1PHANTOM
 10
625.1066002195611
 20
-538.8195137180204
 30
0.0
  0
VERTEX
  5
24A0E
  8
1PHANTOM
 10
625.0864405444019
 20
-538.8180849361062
 30
0.0
  0
VERTEX
  5
24A0F
  8
1PHANTOM
 10
625.0661636488016
 20
-538.8162346323518
 30
0.0
  0
VERTEX
  5
24A10
  8
1PHANTOM
 10
625.0457832623669
 20
-538.8139568649028
 30
0.0
  0
VERTEX
  5
24A11
  8
1PHANTOM
 10
625.0253131147039
 20
-538.8112456919048
 30
0.0
  0
VERTEX
  5
24A12
  8
1PHANTOM
 10
625.0047669354191
 20
-538.8080951715034
 30
0.0
  0
VERTEX
  5
24A13
  8
1PHANTOM
 10
624.9841584541188
 20
-538.804499361844
 30
0.0
  0
VERTEX
  5
24A14
  8
1PHANTOM
 10
624.9635014004093
 20
-538.8004523210726
 30
0.0
  0
VERTEX
  5
24A15
  8
1PHANTOM
 10
624.9428095038971
 20
-538.7959481073345
 30
0.0
  0
VERTEX
  5
24A16
  8
1PHANTOM
 10
624.9220964941885
 20
-538.7909807787752
 30
0.0
  0
VERTEX
  5
24A17
  8
1PHANTOM
 10
624.9013761008899
 20
-538.7855443935404
 30
0.0
  0
VERTEX
  5
24A18
  8
1PHANTOM
 10
624.8806620536075
 20
-538.7796330097757
 30
0.0
  0
VERTEX
  5
24A19
  8
1PHANTOM
 10
624.8599680819477
 20
-538.7732406856264
 30
0.0
  0
VERTEX
  5
24A1A
  8
1PHANTOM
 10
624.8393079155171
 20
-538.7663614792386
 30
0.0
  0
VERTEX
  5
24A1B
  8
1PHANTOM
 10
624.8186952839218
 20
-538.7589894487576
 30
0.0
  0
VERTEX
  5
24A1C
  8
1PHANTOM
 10
624.7981439167681
 20
-538.7511186523288
 30
0.0
  0
VERTEX
  5
24A1D
  8
1PHANTOM
 10
624.7776750383409
 20
-538.742742155288
 30
0.0
  0
VERTEX
  5
24A1E
  8
1PHANTOM
 10
624.7573115841018
 20
-538.7338612852641
 30
0.0
  0
VERTEX
  5
24A1F
  8
1PHANTOM
 10
624.7370698504222
 20
-538.7244824938415
 30
0.0
  0
VERTEX
  5
24A20
  8
1PHANTOM
 10
624.7169661336742
 20
-538.7146122326055
 30
0.0
  0
VERTEX
  5
24A21
  8
1PHANTOM
 10
624.697016730229
 20
-538.7042569531409
 30
0.0
  0
VERTEX
  5
24A22
  8
1PHANTOM
 10
624.6772379364588
 20
-538.6934231070328
 30
0.0
  0
VERTEX
  5
24A23
  8
1PHANTOM
 10
624.6576460487349
 20
-538.6821171458658
 30
0.0
  0
VERTEX
  5
24A24
  8
1PHANTOM
 10
624.6382573634294
 20
-538.6703455212254
 30
0.0
  0
VERTEX
  5
24A25
  8
1PHANTOM
 10
624.6190881769135
 20
-538.658114684696
 30
0.0
  0
VERTEX
  5
24A26
  8
1PHANTOM
 10
624.6001547855593
 20
-538.6454310878629
 30
0.0
  0
VERTEX
  5
24A27
  8
1PHANTOM
 10
624.5814734857381
 20
-538.6323011823108
 30
0.0
  0
VERTEX
  5
24A28
  8
1PHANTOM
 10
624.5630605738221
 20
-538.6187314196249
 30
0.0
  0
VERTEX
  5
24A29
  8
1PHANTOM
 10
624.5449323461826
 20
-538.6047282513898
 30
0.0
  0
VERTEX
  5
24A2A
  8
1PHANTOM
 10
624.5271050991913
 20
-538.5902981291908
 30
0.0
  0
VERTEX
  5
24A2B
  8
1PHANTOM
 10
624.5095951292201
 20
-538.5754475046126
 30
0.0
  0
VERTEX
  5
24A2C
  8
1PHANTOM
 10
624.4924187326407
 20
-538.5601828292404
 30
0.0
  0
VERTEX
  5
24A2D
  8
1PHANTOM
 10
624.4755922058246
 20
-538.5445105546587
 30
0.0
  0
VERTEX
  5
24A2E
  8
1PHANTOM
 10
624.4591318451434
 20
-538.528437132453
 30
0.0
  0
VERTEX
  5
24A2F
  8
1PHANTOM
 10
624.4430584229376
 20
-538.5119767717719
 30
0.0
  0
VERTEX
  5
24A30
  8
1PHANTOM
 10
624.427386148356
 20
-538.4951502449558
 30
0.0
  0
VERTEX
  5
24A31
  8
1PHANTOM
 10
624.4121214729838
 20
-538.4779738483762
 30
0.0
  0
VERTEX
  5
24A32
  8
1PHANTOM
 10
624.3972708484056
 20
-538.460463878405
 30
0.0
  0
VERTEX
  5
24A33
  8
1PHANTOM
 10
624.3828407262065
 20
-538.4426366314138
 30
0.0
  0
VERTEX
  5
24A34
  8
1PHANTOM
 10
624.3688375579716
 20
-538.4245084037743
 30
0.0
  0
VERTEX
  5
24A35
  8
1PHANTOM
 10
624.3552677952856
 20
-538.4060954918582
 30
0.0
  0
VERTEX
  5
24A36
  8
1PHANTOM
 10
624.3421378897335
 20
-538.3874141920371
 30
0.0
  0
VERTEX
  5
24A37
  8
1PHANTOM
 10
624.3294542929004
 20
-538.368480800683
 30
0.0
  0
VERTEX
  5
24A38
  8
1PHANTOM
 10
624.317223456371
 20
-538.3493116141672
 30
0.0
  0
VERTEX
  5
24A39
  8
1PHANTOM
 10
624.3054518317306
 20
-538.3299229288615
 30
0.0
  0
VERTEX
  5
24A3A
  8
1PHANTOM
 10
624.2941458705636
 20
-538.3103310411376
 30
0.0
  0
VERTEX
  5
24A3B
  8
1PHANTOM
 10
624.2833120244554
 20
-538.2905522473674
 30
0.0
  0
VERTEX
  5
24A3C
  8
1PHANTOM
 10
624.2729567449909
 20
-538.2706028439223
 30
0.0
  0
VERTEX
  5
24A3D
  8
1PHANTOM
 10
624.2630864837549
 20
-538.2504991271743
 30
0.0
  0
VERTEX
  5
24A3E
  8
1PHANTOM
 10
624.2537076923323
 20
-538.2302573934946
 30
0.0
  0
VERTEX
  5
24A3F
  8
1PHANTOM
 10
624.2448268223083
 20
-538.2098939392555
 30
0.0
  0
VERTEX
  5
24A40
  8
1PHANTOM
 10
624.2364503252676
 20
-538.1894250608283
 30
0.0
  0
VERTEX
  5
24A41
  8
1PHANTOM
 10
624.2285795288388
 20
-538.1688736936746
 30
0.0
  0
VERTEX
  5
24A42
  8
1PHANTOM
 10
624.2212074983577
 20
-538.1482610620793
 30
0.0
  0
VERTEX
  5
24A43
  8
1PHANTOM
 10
624.2143282919699
 20
-538.1276008956486
 30
0.0
  0
VERTEX
  5
24A44
  8
1PHANTOM
 10
624.2079359678207
 20
-538.1069069239888
 30
0.0
  0
VERTEX
  5
24A45
  8
1PHANTOM
 10
624.202024584056
 20
-538.0861928767064
 30
0.0
  0
VERTEX
  5
24A46
  8
1PHANTOM
 10
624.1965881988211
 20
-538.0654724834078
 30
0.0
  0
VERTEX
  5
24A47
  8
1PHANTOM
 10
624.1916208702618
 20
-538.0447594736992
 30
0.0
  0
VERTEX
  5
24A48
  8
1PHANTOM
 10
624.1871166565237
 20
-538.024067577187
 30
0.0
  0
VERTEX
  5
24A49
  8
1PHANTOM
 10
624.1830696157523
 20
-538.0034105234777
 30
0.0
  0
VERTEX
  5
24A4A
  8
1PHANTOM
 10
624.1794738060929
 20
-537.9828020421772
 30
0.0
  0
VERTEX
  5
24A4B
  8
1PHANTOM
 10
624.1763232856915
 20
-537.9622558628924
 30
0.0
  0
VERTEX
  5
24A4C
  8
1PHANTOM
 10
624.1736121126935
 20
-537.9417857152295
 30
0.0
  0
VERTEX
  5
24A4D
  8
1PHANTOM
 10
624.1713343452445
 20
-537.9214053287948
 30
0.0
  0
VERTEX
  5
24A4E
  8
1PHANTOM
 10
624.1694840414901
 20
-537.9011284331945
 30
0.0
  0
VERTEX
  5
24A4F
  8
1PHANTOM
 10
624.1680552595758
 20
-537.8809687580352
 30
0.0
  0
VERTEX
  5
24A50
  8
1PHANTOM
 10
624.1670420576473
 20
-537.8609400329233
 30
0.0
  0
VERTEX
  5
24A51
  8
1PHANTOM
 10
624.1664384938501
 20
-537.8410559874649
 30
0.0
  0
VERTEX
  5
24A52
  8
1PHANTOM
 10
624.1662386263298
 20
-537.8213303512664
 30
0.0
  0
SEQEND
  5
24E8E
  8
1PHANTOM
  0
LINE
  5
23A92
  8
1PHANTOM
 10
639.2662386263019
 20
-558.8213303512664
 30
0.0
 11
626.1662386263298
 21
-558.8213303512664
 31
0.0
  0
LINE
  5
23A93
  8
1PHANTOM
 10
641.2662386263017
 20
-537.8213303512664
 30
0.0
 11
641.2662386263019
 21
-556.8213303512664
 31
0.0
  0
LINE
  5
23A94
  8
1PHANTOM
 10
624.1662386263298
 20
-556.8213303512664
 30
0.0
 11
624.1662386263298
 21
-537.8213303512664
 31
0.0
  0
POLYLINE
  5
23A95
  8
1PHANTOM
 66
     1
 10
0.0
 20
0.0
 30
0.0
  0
VERTEX
  5
24A53
  8
1PHANTOM
 10
626.1662386263298
 20
-558.8213303512664
 30
0.0
  0
VERTEX
  5
24A54
  8
1PHANTOM
 10
626.1396804788407
 20
-558.8208771643029
 30
0.0
  0
VERTEX
  5
24A55
  8
1PHANTOM
 10
626.1131256662803
 20
-558.820319958514
 30
0.0
  0
VERTEX
  5
24A56
  8
1PHANTOM
 10
626.0865775235776
 20
-558.8195547150737
 30
0.0
  0
VERTEX
  5
24A57
  8
1PHANTOM
 10
626.0600393856613
 20
-558.8184774151566
 30
0.0
  0
VERTEX
  5
24A58
  8
1PHANTOM
 10
626.0335146525052
 20
-558.8169935363211
 30
0.0
  0
VERTEX
  5
24A59
  8
1PHANTOM
 10
626.0070072597059
 20
-558.8150867551578
 30
0.0
  0
VERTEX
  5
24A5A
  8
1PHANTOM
 10
625.9805214062279
 20
-558.8127791991883
 30
0.0
  0
VERTEX
  5
24A5B
  8
1PHANTOM
 10
625.9540612928685
 20
-558.8100932633955
 30
0.0
  0
VERTEX
  5
24A5C
  8
1PHANTOM
 10
625.9276311204242
 20
-558.8070513427621
 30
0.0
  0
VERTEX
  5
24A5D
  8
1PHANTOM
 10
625.9012349477005
 20
-558.80367298095
 30
0.0
  0
VERTEX
  5
24A5E
  8
1PHANTOM
 10
625.8748759504696
 20
-558.7999599895129
 30
0.0
  0
VERTEX
  5
24A5F
  8
1PHANTOM
 10
625.848556965585
 20
-558.795907374207
 30
0.0
  0
VERTEX
  5
24A60
  8
1PHANTOM
 10
625.8222808292019
 20
-558.7915101267693
 30
0.0
  0
VERTEX
  5
24A61
  8
1PHANTOM
 10
625.7960503774759
 20
-558.7867632389367
 30
0.0
  0
VERTEX
  5
24A62
  8
1PHANTOM
 10
625.7698684529698
 20
-558.7816617173551
 30
0.0
  0
VERTEX
  5
24A63
  8
1PHANTOM
 10
625.7437387937409
 20
-558.776202652329
 30
0.0
  0
VERTEX
  5
24A64
  8
1PHANTOM
 10
625.7176669457615
 20
-558.7703873408593
 30
0.0
  0
VERTEX
  5
24A65
  8
1PHANTOM
 10
625.6916586726458
 20
-558.7642175863626
 30
0.0
  0
VERTEX
  5
24A66
  8
1PHANTOM
 10
625.6657197380082
 20
-558.7576951922559
 30
0.0
  0
VERTEX
  5
24A67
  8
1PHANTOM
 10
625.639855905463
 20
-558.7508219619559
 30
0.0
  0
VERTEX
  5
24A68
  8
1PHANTOM
 10
625.6140729386248
 20
-558.7435996988793
 30
0.0
  0
VERTEX
  5
24A69
  8
1PHANTOM
 10
625.5883766011078
 20
-558.7360302064427
 30
0.0
  0
VERTEX
  5
24A6A
  8
1PHANTOM
 10
625.5627720567281
 20
-558.7281148989717
 30
0.0
  0
VERTEX
  5
24A6B
  8
1PHANTOM
 10
625.5372619531418
 20
-558.7198535585508
 30
0.0
  0
VERTEX
  5
24A6C
  8
1PHANTOM
 10
625.5118482783124
 20
-558.7112455393195
 30
0.0
  0
VERTEX
  5
24A6D
  8
1PHANTOM
 10
625.4865330202013
 20
-558.7022901954156
 30
0.0
  0
VERTEX
  5
24A6E
  8
1PHANTOM
 10
625.4613181667692
 20
-558.6929868809772
 30
0.0
  0
VERTEX
  5
24A6F
  8
1PHANTOM
 10
625.4362057059772
 20
-558.6833349501421
 30
0.0
  0
VERTEX
  5
24A70
  8
1PHANTOM
 10
625.4111976257865
 20
-558.6733337570485
 30
0.0
  0
VERTEX
  5
24A71
  8
1PHANTOM
 10
625.3862960159356
 20
-558.6629827147121
 30
0.0
  0
VERTEX
  5
24A72
  8
1PHANTOM
 10
625.3615045777345
 20
-558.6522821684421
 30
0.0
  0
VERTEX
  5
24A73
  8
1PHANTOM
 10
625.336828300063
 20
-558.6412332084049
 30
0.0
  0
VERTEX
  5
24A74
  8
1PHANTOM
 10
625.312272207752
 20
-558.6298369455653
 30
0.0
  0
VERTEX
  5
24A75
  8
1PHANTOM
 10
625.2878413256333
 20
-558.6180944908881
 30
0.0
  0
VERTEX
  5
24A76
  8
1PHANTOM
 10
625.2635406785381
 20
-558.6060069553382
 30
0.0
  0
VERTEX
  5
24A77
  8
1PHANTOM
 10
625.2393752912981
 20
-558.5935754498801
 30
0.0
  0
VERTEX
  5
24A78
  8
1PHANTOM
 10
625.2153501887444
 20
-558.5808010854787
 30
0.0
  0
VERTEX
  5
24A79
  8
1PHANTOM
 10
625.1914703957087
 20
-558.5676849730988
 30
0.0
  0
VERTEX
  5
24A7A
  8
1PHANTOM
 10
625.1677409370225
 20
-558.5542282237052
 30
0.0
  0
VERTEX
  5
24A7B
  8
1PHANTOM
 10
625.144166837517
 20
-558.5404319482626
 30
0.0
  0
VERTEX
  5
24A7C
  8
1PHANTOM
 10
625.1207531220235
 20
-558.5262972577358
 30
0.0
  0
VERTEX
  5
24A7D
  8
1PHANTOM
 10
625.0975048153738
 20
-558.5118252630896
 30
0.0
  0
VERTEX
  5
24A7E
  8
1PHANTOM
 10
625.0744269423992
 20
-558.4970170752887
 30
0.0
  0
VERTEX
  5
24A7F
  8
1PHANTOM
 10
625.051524527931
 20
-558.4818738052979
 30
0.0
  0
VERTEX
  5
24A80
  8
1PHANTOM
 10
625.0288025944179
 20
-558.4663965671873
 30
0.0
  0
VERTEX
  5
24A81
  8
1PHANTOM
 10
625.0062660250792
 20
-558.4505866564739
 30
0.0
  0
VERTEX
  5
24A82
  8
1PHANTOM
 10
624.9839194894503
 20
-558.4344456471516
 30
0.0
  0
VERTEX
  5
24A83
  8
1PHANTOM
 10
624.961767638931
 20
-558.4179751368498
 30
0.0
  0
VERTEX
  5
24A84
  8
1PHANTOM
 10
624.9398151249212
 20
-558.4011767231972
 30
0.0
  0
VERTEX
  5
24A85
  8
1PHANTOM
 10
624.9180665988207
 20
-558.3840520038226
 30
0.0
  0
VERTEX
  5
24A86
  8
1PHANTOM
 10
624.8965267120294
 20
-558.3666025763551
 30
0.0
  0
VERTEX
  5
24A87
  8
1PHANTOM
 10
624.8752001159473
 20
-558.3488300384236
 30
0.0
  0
VERTEX
  5
24A88
  8
1PHANTOM
 10
624.8540914619741
 20
-558.330735987657
 30
0.0
  0
VERTEX
  5
24A89
  8
1PHANTOM
 10
624.8332054015099
 20
-558.3123220216842
 30
0.0
  0
VERTEX
  5
24A8A
  8
1PHANTOM
 10
624.8125465859544
 20
-558.2935897381341
 30
0.0
  0
VERTEX
  5
24A8B
  8
1PHANTOM
 10
624.7921196667073
 20
-558.2745407346356
 30
0.0
  0
VERTEX
  5
24A8C
  8
1PHANTOM
 10
624.7719292951688
 20
-558.2551766088178
 30
0.0
  0
VERTEX
  5
24A8D
  8
1PHANTOM
 10
624.7519801227386
 20
-558.2354989583096
 30
0.0
  0
VERTEX
  5
24A8E
  8
1PHANTOM
 10
624.7322768788638
 20
-558.2155096685623
 30
0.0
  0
VERTEX
  5
24A8F
  8
1PHANTOM
 10
624.7128246030654
 20
-558.1952117685153
 30
0.0
  0
VERTEX
  5
24A90
  8
1PHANTOM
 10
624.6936284118575
 20
-558.1746085710425
 30
0.0
  0
VERTEX
  5
24A91
  8
1PHANTOM
 10
624.6746934217541
 20
-558.1537033890183
 30
0.0
  0
VERTEX
  5
24A92
  8
1PHANTOM
 10
624.6560247492691
 20
-558.1324995353166
 30
0.0
  0
VERTEX
  5
24A93
  8
1PHANTOM
 10
624.6376275109167
 20
-558.1110003228114
 30
0.0
  0
VERTEX
  5
24A94
  8
1PHANTOM
 10
624.6195068232108
 20
-558.0892090643769
 30
0.0
  0
VERTEX
  5
24A95
  8
1PHANTOM
 10
624.6016678026654
 20
-558.0671290728869
 30
0.0
  0
VERTEX
  5
24A96
  8
1PHANTOM
 10
624.5841155657946
 20
-558.0447636612157
 30
0.0
  0
VERTEX
  5
24A97
  8
1PHANTOM
 10
624.5668552291123
 20
-558.0221161422372
 30
0.0
  0
VERTEX
  5
24A98
  8
1PHANTOM
 10
624.5498919091326
 20
-557.9991898288256
 30
0.0
  0
VERTEX
  5
24A99
  8
1PHANTOM
 10
624.5332307223696
 20
-557.9759880338547
 30
0.0
  0
VERTEX
  5
24A9A
  8
1PHANTOM
 10
624.5168767853371
 20
-557.952514070199
 30
0.0
  0
VERTEX
  5
24A9B
  8
1PHANTOM
 10
624.5008352145493
 20
-557.9287712507321
 30
0.0
  0
VERTEX
  5
24A9C
  8
1PHANTOM
 10
624.4851111380905
 20
-557.9047630093894
 30
0.0
  0
VERTEX
  5
24A9D
  8
1PHANTOM
 10
624.4697097926822
 20
-557.8804939167861
 30
0.0
  0
VERTEX
  5
24A9E
  8
1PHANTOM
 10
624.4546364745331
 20
-557.8559691659556
 30
0.0
  0
VERTEX
  5
24A9F
  8
1PHANTOM
 10
624.43989648046
 20
-557.8311939562934
 30
0.0
  0
VERTEX
  5
24AA0
  8
1PHANTOM
 10
624.4254951072796
 20
-557.8061734871958
 30
0.0
  0
VERTEX
  5
24AA1
  8
1PHANTOM
 10
624.4114376518087
 20
-557.7809129580584
 30
0.0
  0
VERTEX
  5
24AA2
  8
1PHANTOM
 10
624.397729410864
 20
-557.755417568277
 30
0.0
  0
VERTEX
  5
24AA3
  8
1PHANTOM
 10
624.3843756812623
 20
-557.7296925172477
 30
0.0
  0
VERTEX
  5
24AA4
  8
1PHANTOM
 10
624.3713817598206
 20
-557.7037430043661
 30
0.0
  0
VERTEX
  5
24AA5
  8
1PHANTOM
 10
624.3587529433552
 20
-557.6775742290281
 30
0.0
  0
VERTEX
  5
24AA6
  8
1PHANTOM
 10
624.346494528683
 20
-557.6511913906295
 30
0.0
  0
VERTEX
  5
24AA7
  8
1PHANTOM
 10
624.3346118126209
 20
-557.6245996885661
 30
0.0
  0
VERTEX
  5
24AA8
  8
1PHANTOM
 10
624.3231100919857
 20
-557.5978043222341
 30
0.0
  0
VERTEX
  5
24AA9
  8
1PHANTOM
 10
624.3119944641269
 20
-557.5708105327371
 30
0.0
  0
VERTEX
  5
24AAA
  8
1PHANTOM
 10
624.3012668907863
 20
-557.5436242168264
 30
0.0
  0
VERTEX
  5
24AAB
  8
1PHANTOM
 10
624.2909268402757
 20
-557.5162517926236
 30
0.0
  0
VERTEX
  5
24AAC
  8
1PHANTOM
 10
624.2809737119937
 20
-557.4886996926595
 30
0.0
  0
VERTEX
  5
24AAD
  8
1PHANTOM
 10
624.2714069053391
 20
-557.4609743494649
 30
0.0
  0
VERTEX
  5
24AAE
  8
1PHANTOM
 10
624.2622258197104
 20
-557.4330821955707
 30
0.0
  0
VERTEX
  5
24AAF
  8
1PHANTOM
 10
624.2534298545061
 20
-557.4050296635078
 30
0.0
  0
VERTEX
  5
24AB0
  8
1PHANTOM
 10
624.245018409125
 20
-557.3768231858069
 30
0.0
  0
VERTEX
  5
24AB1
  8
1PHANTOM
 10
624.2369908829655
 20
-557.3484691949989
 30
0.0
  0
VERTEX
  5
24AB2
  8
1PHANTOM
 10
624.2293472543356
 20
-557.3199741583236
 30
0.0
  0
VERTEX
  5
24AB3
  8
1PHANTOM
 10
624.2220976831201
 20
-557.291345153463
 30
0.0
  0
VERTEX
  5
24AB4
  8
1PHANTOM
 10
624.2152610249177
 20
-557.262589779455
 30
0.0
  0
VERTEX
  5
24AB5
  8
1PHANTOM
 10
624.2088564147435
 20
-557.2337156520906
 30
0.0
  0
VERTEX
  5
24AB6
  8
1PHANTOM
 10
624.2029029876122
 20
-557.2047303871606
 30
0.0
  0
VERTEX
  5
24AB7
  8
1PHANTOM
 10
624.1974198785389
 20
-557.1756416004558
 30
0.0
  0
VERTEX
  5
24AB8
  8
1PHANTOM
 10
624.1924262225382
 20
-557.146456907767
 30
0.0
  0
VERTEX
  5
24AB9
  8
1PHANTOM
 10
624.1879411546253
 20
-557.117183924885
 30
0.0
  0
VERTEX
  5
24ABA
  8
1PHANTOM
 10
624.1839838098147
 20
-557.0878302676006
 30
0.0
  0
VERTEX
  5
24ABB
  8
1PHANTOM
 10
624.1805689417513
 20
-557.0584035792241
 30
0.0
  0
VERTEX
  5
24ABC
  8
1PHANTOM
 10
624.1776631274532
 20
-557.0289118056626
 30
0.0
  0
VERTEX
  5
24ABD
  8
1PHANTOM
 10
624.1752031231034
 20
-556.9993630801278
 30
0.0
  0
VERTEX
  5
24ABE
  8
1PHANTOM
 10
624.1731252415663
 20
-556.9697655386159
 30
0.0
  0
VERTEX
  5
24ABF
  8
1PHANTOM
 10
624.1713657957063
 20
-556.940127317123
 30
0.0
  0
VERTEX
  5
24AC0
  8
1PHANTOM
 10
624.1698610983881
 20
-556.9104565516456
 30
0.0
  0
VERTEX
  5
24AC1
  8
1PHANTOM
 10
624.1685474624763
 20
-556.8807613781794
 30
0.0
  0
VERTEX
  5
24AC2
  8
1PHANTOM
 10
624.1673612008353
 20
-556.851049932721
 30
0.0
  0
VERTEX
  5
24AC3
  8
1PHANTOM
 10
624.1662386263298
 20
-556.8213303512664
 30
0.0
  0
SEQEND
  5
24E8F
  8
1PHANTOM
  0
POLYLINE
  5
23A96
  8
1PHANTOM
 66
     1
 10
0.0
 20
0.0
 30
0.0
  0
VERTEX
  5
24AC4
  8
1PHANTOM
 10
641.2662386263017
 20
-556.8213303512664
 30
0.0
  0
VERTEX
  5
24AC5
  8
1PHANTOM
 10
641.2657423956788
 20
-556.8473227232168
 30
0.0
  0
VERTEX
  5
24AC6
  8
1PHANTOM
 10
641.2651596619152
 20
-556.8733095721635
 30
0.0
  0
VERTEX
  5
24AC7
  8
1PHANTOM
 10
641.2644039218703
 20
-556.8992853751027
 30
0.0
  0
VERTEX
  5
24AC8
  8
1PHANTOM
 10
641.2633886724036
 20
-556.9252446090312
 30
0.0
  0
VERTEX
  5
24AC9
  8
1PHANTOM
 10
641.2620274160679
 20
-556.9511817509552
 30
0.0
  0
VERTEX
  5
24ACA
  8
1PHANTOM
 10
641.2602559790513
 20
-556.977091317704
 30
0.0
  0
VERTEX
  5
24ACB
  8
1PHANTOM
 10
641.2580831405368
 20
-557.0029679562472
 30
0.0
  0
VERTEX
  5
24ACC
  8
1PHANTOM
 10
641.2555325583069
 20
-557.0288063400958
 30
0.0
  0
VERTEX
  5
24ACD
  8
1PHANTOM
 10
641.2526278901435
 20
-557.0546011427614
 30
0.0
  0
VERTEX
  5
24ACE
  8
1PHANTOM
 10
641.2493927919816
 20
-557.0803470377656
 30
0.0
  0
VERTEX
  5
24ACF
  8
1PHANTOM
 10
641.2458450967081
 20
-557.1060387326544
 30
0.0
  0
VERTEX
  5
24AD0
  8
1PHANTOM
 10
641.2419839132245
 20
-557.1316710443759
 30
0.0
  0
VERTEX
  5
24AD1
  8
1PHANTOM
 10
641.2378045944125
 20
-557.1572388118248
 30
0.0
  0
VERTEX
  5
24AD2
  8
1PHANTOM
 10
641.2333024931537
 20
-557.1827368738955
 30
0.0
  0
VERTEX
  5
24AD3
  8
1PHANTOM
 10
641.2284729623444
 20
-557.208160069483
 30
0.0
  0
VERTEX
  5
24AD4
  8
1PHANTOM
 10
641.2233127815456
 20
-557.2335032958637
 30
0.0
  0
VERTEX
  5
24AD5
  8
1PHANTOM
 10
641.2178240697539
 20
-557.2587616688098
 30
0.0
  0
VERTEX
  5
24AD6
  8
1PHANTOM
 10
641.2120101948556
 20
-557.2839303552004
 30
0.0
  0
VERTEX
  5
24AD7
  8
1PHANTOM
 10
641.2058745247365
 20
-557.3090045219141
 30
0.0
  0
VERTEX
  5
24AD8
  8
1PHANTOM
 10
641.199420427283
 20
-557.3339793358296
 30
0.0
  0
VERTEX
  5
24AD9
  8
1PHANTOM
 10
641.1926511063236
 20
-557.3588499457585
 30
0.0
  0
VERTEX
  5
24ADA
  8
1PHANTOM
 10
641.1855689339654
 20
-557.3836114089172
 30
0.0
  0
VERTEX
  5
24ADB
  8
1PHANTOM
 10
641.1781760193765
 20
-557.4082587535659
 30
0.0
  0
VERTEX
  5
24ADC
  8
1PHANTOM
 10
641.1704744716221
 20
-557.4327870079524
 30
0.0
  0
VERTEX
  5
24ADD
  8
1PHANTOM
 10
641.1624663997676
 20
-557.4571912003256
 30
0.0
  0
VERTEX
  5
24ADE
  8
1PHANTOM
 10
641.1541539067989
 20
-557.4814664920114
 30
0.0
  0
VERTEX
  5
24ADF
  8
1PHANTOM
 10
641.1455390473773
 20
-557.505609102043
 30
0.0
  0
VERTEX
  5
24AE0
  8
1PHANTOM
 10
641.1366238531041
 20
-557.5296157541896
 30
0.0
  0
VERTEX
  5
24AE1
  8
1PHANTOM
 10
641.1274103554383
 20
-557.5534831753378
 30
0.0
  0
VERTEX
  5
24AE2
  8
1PHANTOM
 10
641.1179005858388
 20
-557.5772080923736
 30
0.0
  0
VERTEX
  5
24AE3
  8
1PHANTOM
 10
641.1080966179114
 20
-557.6007872148429
 30
0.0
  0
VERTEX
  5
24AE4
  8
1PHANTOM
 10
641.0980011601357
 20
-557.624216991086
 30
0.0
  0
VERTEX
  5
24AE5
  8
1PHANTOM
 10
641.0876174118915
 20
-557.6474936674731
 30
0.0
  0
VERTEX
  5
24AE6
  8
1PHANTOM
 10
641.0769485853127
 20
-557.6706134851269
 30
0.0
  0
VERTEX
  5
24AE7
  8
1PHANTOM
 10
641.0659978925331
 20
-557.6935726851698
 30
0.0
  0
VERTEX
  5
24AE8
  8
1PHANTOM
 10
641.0547685456862
 20
-557.7163675087247
 30
0.0
  0
VERTEX
  5
24AE9
  8
1PHANTOM
 10
641.0432637569061
 20
-557.7389941969141
 30
0.0
  0
VERTEX
  5
24AEA
  8
1PHANTOM
 10
641.0314867383261
 20
-557.7614489908608
 30
0.0
  0
VERTEX
  5
24AEB
  8
1PHANTOM
 10
641.0194407020803
 20
-557.7837281316876
 30
0.0
  0
VERTEX
  5
24AEC
  8
1PHANTOM
 10
641.0071288603024
 20
-557.8058278605167
 30
0.0
  0
VERTEX
  5
24AED
  8
1PHANTOM
 10
640.9945544251261
 20
-557.8277444184712
 30
0.0
  0
VERTEX
  5
24AEE
  8
1PHANTOM
 10
640.9817206086851
 20
-557.8494740466735
 30
0.0
  0
VERTEX
  5
24AEF
  8
1PHANTOM
 10
640.9686306231132
 20
-557.8710129862466
 30
0.0
  0
VERTEX
  5
24AF0
  8
1PHANTOM
 10
640.9552876805442
 20
-557.8923574783128
 30
0.0
  0
VERTEX
  5
24AF1
  8
1PHANTOM
 10
640.9416949931118
 20
-557.9135037639949
 30
0.0
  0
VERTEX
  5
24AF2
  8
1PHANTOM
 10
640.9278557822907
 20
-557.9344481381631
 30
0.0
  0
VERTEX
  5
24AF3
  8
1PHANTOM
 10
640.913773417952
 20
-557.9551877495533
 30
0.0
  0
VERTEX
  5
24AF4
  8
1PHANTOM
 10
640.8994513887825
 20
-557.9757204305604
 30
0.0
  0
VERTEX
  5
24AF5
  8
1PHANTOM
 10
640.8848931868016
 20
-557.9960440327576
 30
0.0
  0
VERTEX
  5
24AF6
  8
1PHANTOM
 10
640.8701023040293
 20
-558.016156407718
 30
0.0
  0
VERTEX
  5
24AF7
  8
1PHANTOM
 10
640.8550822324851
 20
-558.0360554070147
 30
0.0
  0
VERTEX
  5
24AF8
  8
1PHANTOM
 10
640.8398364641889
 20
-558.055738882221
 30
0.0
  0
VERTEX
  5
24AF9
  8
1PHANTOM
 10
640.8243684911602
 20
-558.0752046849101
 30
0.0
  0
VERTEX
  5
24AFA
  8
1PHANTOM
 10
640.8086818054188
 20
-558.094450666655
 30
0.0
  0
VERTEX
  5
24AFB
  8
1PHANTOM
 10
640.7927798989843
 20
-558.113474679029
 30
0.0
  0
VERTEX
  5
24AFC
  8
1PHANTOM
 10
640.7766662638767
 20
-558.1322745736051
 30
0.0
  0
VERTEX
  5
24AFD
  8
1PHANTOM
 10
640.7603443921155
 20
-558.1508482019567
 30
0.0
  0
VERTEX
  5
24AFE
  8
1PHANTOM
 10
640.7438177757202
 20
-558.1691934156567
 30
0.0
  0
VERTEX
  5
24AFF
  8
1PHANTOM
 10
640.7270899067108
 20
-558.1873080662783
 30
0.0
  0
VERTEX
  5
24B00
  8
1PHANTOM
 10
640.7101642771069
 20
-558.2051900053948
 30
0.0
  0
VERTEX
  5
24B01
  8
1PHANTOM
 10
640.6930443789283
 20
-558.2228370845794
 30
0.0
  0
VERTEX
  5
24B02
  8
1PHANTOM
 10
640.675733703169
 20
-558.2402471588305
 30
0.0
  0
VERTEX
  5
24B03
  8
1PHANTOM
 10
640.6582356396073
 20
-558.2574184212959
 30
0.0
  0
VERTEX
  5
24B04
  8
1PHANTOM
 10
640.6405533926687
 20
-558.2743496843541
 30
0.0
  0
VERTEX
  5
24B05
  8
1PHANTOM
 10
640.6226901469716
 20
-558.2910398265598
 30
0.0
  0
VERTEX
  5
24B06
  8
1PHANTOM
 10
640.6046490871335
 20
-558.3074877264678
 30
0.0
  0
VERTEX
  5
24B07
  8
1PHANTOM
 10
640.5864333977722
 20
-558.3236922626329
 30
0.0
  0
VERTEX
  5
24B08
  8
1PHANTOM
 10
640.5680462635058
 20
-558.3396523136098
 30
0.0
  0
VERTEX
  5
24B09
  8
1PHANTOM
 10
640.5494908689519
 20
-558.3553667579533
 30
0.0
  0
VERTEX
  5
24B0A
  8
1PHANTOM
 10
640.5307703987286
 20
-558.3708344742182
 30
0.0
  0
VERTEX
  5
24B0B
  8
1PHANTOM
 10
640.5118880374534
 20
-558.3860543409593
 30
0.0
  0
VERTEX
  5
24B0C
  8
1PHANTOM
 10
640.4928469697444
 20
-558.4010252367315
 30
0.0
  0
VERTEX
  5
24B0D
  8
1PHANTOM
 10
640.4736503802195
 20
-558.4157460400892
 30
0.0
  0
VERTEX
  5
24B0E
  8
1PHANTOM
 10
640.4543014534962
 20
-558.4302156295875
 30
0.0
  0
VERTEX
  5
24B0F
  8
1PHANTOM
 10
640.4348033741928
 20
-558.444432883781
 30
0.0
  0
VERTEX
  5
24B10
  8
1PHANTOM
 10
640.4151593269268
 20
-558.4583966812246
 30
0.0
  0
VERTEX
  5
24B11
  8
1PHANTOM
 10
640.395372496316
 20
-558.472105900473
 30
0.0
  0
VERTEX
  5
24B12
  8
1PHANTOM
 10
640.3754460669562
 20
-558.4855594201694
 30
0.0
  0
VERTEX
  5
24B13
  8
1PHANTOM
 10
640.3553831909549
 20
-558.4987562471811
 30
0.0
  0
VERTEX
  5
24B14
  8
1PHANTOM
 10
640.3351869229517
 20
-558.5116957730708
 30
0.0
  0
VERTEX
  5
24B15
  8
1PHANTOM
 10
640.3148602993839
 20
-558.5243774612435
 30
0.0
  0
VERTEX
  5
24B16
  8
1PHANTOM
 10
640.2944063566887
 20
-558.536800775104
 30
0.0
  0
VERTEX
  5
24B17
  8
1PHANTOM
 10
640.2738281313029
 20
-558.5489651780568
 30
0.0
  0
VERTEX
  5
24B18
  8
1PHANTOM
 10
640.2531286596641
 20
-558.5608701335074
 30
0.0
  0
VERTEX
  5
24B19
  8
1PHANTOM
 10
640.2323109782091
 20
-558.5725151048599
 30
0.0
  0
VERTEX
  5
24B1A
  8
1PHANTOM
 10
640.2113781233751
 20
-558.5838995555195
 30
0.0
  0
VERTEX
  5
24B1B
  8
1PHANTOM
 10
640.1903331315993
 20
-558.595022948891
 30
0.0
  0
VERTEX
  5
24B1C
  8
1PHANTOM
 10
640.1691790393193
 20
-558.6058847483791
 30
0.0
  0
VERTEX
  5
24B1D
  8
1PHANTOM
 10
640.1479188829717
 20
-558.6164844173888
 30
0.0
  0
VERTEX
  5
24B1E
  8
1PHANTOM
 10
640.1265556989938
 20
-558.6268214193249
 30
0.0
  0
VERTEX
  5
24B1F
  8
1PHANTOM
 10
640.1050925238229
 20
-558.6368952175922
 30
0.0
  0
VERTEX
  5
24B20
  8
1PHANTOM
 10
640.083532393896
 20
-558.6467052755953
 30
0.0
  0
VERTEX
  5
24B21
  8
1PHANTOM
 10
640.0618783456506
 20
-558.6562510567392
 30
0.0
  0
VERTEX
  5
24B22
  8
1PHANTOM
 10
640.0401334155234
 20
-558.6655320244289
 30
0.0
  0
VERTEX
  5
24B23
  8
1PHANTOM
 10
640.0183006414431
 20
-558.6745476252228
 30
0.0
  0
VERTEX
  5
24B24
  8
1PHANTOM
 10
639.9963830828834
 20
-558.6832970623121
 30
0.0
  0
VERTEX
  5
24B25
  8
1PHANTOM
 10
639.9743838155177
 20
-558.6917793558957
 30
0.0
  0
VERTEX
  5
24B26
  8
1PHANTOM
 10
639.9523059154146
 20
-558.6999935217096
 30
0.0
  0
VERTEX
  5
24B27
  8
1PHANTOM
 10
639.9301524586427
 20
-558.7079385754905
 30
0.0
  0
VERTEX
  5
24B28
  8
1PHANTOM
 10
639.907926521271
 20
-558.7156135329741
 30
0.0
  0
VERTEX
  5
24B29
  8
1PHANTOM
 10
639.8856311793676
 20
-558.7230174098969
 30
0.0
  0
VERTEX
  5
24B2A
  8
1PHANTOM
 10
639.8632695090014
 20
-558.7301492219954
 30
0.0
  0
VERTEX
  5
24B2B
  8
1PHANTOM
 10
639.8408445858053
 20
-558.7370079869021
 30
0.0
  0
VERTEX
  5
24B2C
  8
1PHANTOM
 10
639.8183592600983
 20
-558.7435937033113
 30
0.0
  0
VERTEX
  5
24B2D
  8
1PHANTOM
 10
639.7958157893162
 20
-558.7499089514439
 30
0.0
  0
VERTEX
  5
24B2E
  8
1PHANTOM
 10
639.7732163345331
 20
-558.7559567310976
 30
0.0
  0
VERTEX
  5
24B2F
  8
1PHANTOM
 10
639.7505630568232
 20
-558.7617400420701
 30
0.0
  0
VERTEX
  5
24B30
  8
1PHANTOM
 10
639.7278581172609
 20
-558.7672618841592
 30
0.0
  0
VERTEX
  5
24B31
  8
1PHANTOM
 10
639.7051036769201
 20
-558.7725252571628
 30
0.0
  0
VERTEX
  5
24B32
  8
1PHANTOM
 10
639.6823018968753
 20
-558.7775331608783
 30
0.0
  0
VERTEX
  5
24B33
  8
1PHANTOM
 10
639.6594549382004
 20
-558.782288595104
 30
0.0
  0
VERTEX
  5
24B34
  8
1PHANTOM
 10
639.6365649485227
 20
-558.7867930293887
 30
0.0
  0
VERTEX
  5
24B35
  8
1PHANTOM
 10
639.6136339952337
 20
-558.7910388025641
 30
0.0
  0
VERTEX
  5
24B36
  8
1PHANTOM
 10
639.59066411609
 20
-558.7950148811241
 30
0.0
  0
VERTEX
  5
24B37
  8
1PHANTOM
 10
639.5676573488013
 20
-558.7987102261839
 30
0.0
  0
VERTEX
  5
24B38
  8
1PHANTOM
 10
639.5446157310773
 20
-558.8021137988578
 30
0.0
  0
VERTEX
  5
24B39
  8
1PHANTOM
 10
639.5215413006276
 20
-558.8052145602611
 30
0.0
  0
VERTEX
  5
24B3A
  8
1PHANTOM
 10
639.4984360951619
 20
-558.8080014715088
 30
0.0
  0
VERTEX
  5
24B3B
  8
1PHANTOM
 10
639.4753021523899
 20
-558.8104634937154
 30
0.0
  0
VERTEX
  5
24B3C
  8
1PHANTOM
 10
639.4521415227673
 20
-558.8125902516343
 30
0.0
  0
VERTEX
  5
24B3D
  8
1PHANTOM
 10
639.4289566848726
 20
-558.8143936604016
 30
0.0
  0
VERTEX
  5
24B3E
  8
1PHANTOM
 10
639.4057506373126
 20
-558.8159127106437
 30
0.0
  0
VERTEX
  5
24B3F
  8
1PHANTOM
 10
639.3825264100393
 20
-558.8171880250069
 30
0.0
  0
VERTEX
  5
24B40
  8
1PHANTOM
 10
639.359287033005
 20
-558.8182602261377
 30
0.0
  0
VERTEX
  5
24B41
  8
1PHANTOM
 10
639.336035536162
 20
-558.8191699366826
 30
0.0
  0
VERTEX
  5
24B42
  8
1PHANTOM
 10
639.3127749494622
 20
-558.819957779288
 30
0.0
  0
VERTEX
  5
24B43
  8
1PHANTOM
 10
639.2895083028583
 20
-558.8206643766003
 30
0.0
  0
VERTEX
  5
24B44
  8
1PHANTOM
 10
639.2662386263019
 20
-558.8213303512664
 30
0.0
  0
SEQEND
  5
24E90
  8
1PHANTOM
  0
CIRCLE
  5
23ABB
  8
1PHANTOM
 10
632.7162386263159
 20
-553.8213303512664
 30
0.0
 40
1.65
  0
LINE
  5
23AC0
  8
1PHANTOM
 10
625.1662386263299
 20
-538.8213303512664
 30
0.0
 11
640.2662386263019
 21
-538.8213303512664
 31
0.0
  0
LINE
  5
23CAD
  8
01
  6
CONTINUOUS
 10
631.7162386232114
 20
-652.5713303522509
 30
0.0
 11
633.7162386232114
 21
-652.5713303522509
 31
0.0
  0
LINE
  5
23CB8
  8
1CENTER
 10
628.4662386232114
 20
-654.8213303438816
 30
0.0
 11
636.9662386232114
 21
-654.8213303522509
 31
0.0
  0
LINE
  5
23CBC
  8
01
  6
CONTINUOUS
 10
631.7162386232114
 20
-657.0713303522509
 30
0.0
 11
633.7162386232114
 21
-657.0713303522509
 31
0.0
  0
ARC
  5
23CBE
  8
01
 10
633.7162386232114
 20
-654.8213303522509
 30
0.0
 40
2.25
 50
0.0
 51
90.0
  0
ARC
  5
23CBF
  8
01
 10
633.7162386232114
 20
-654.8213303522509
 30
0.0
 40
2.25
 50
270.0
 51
0.0
  0
ARC
  5
23CC0
  8
01
 10
631.7162386232114
 20
-654.8213303522509
 30
0.0
 40
2.25
 50
90.0
 51
180.0
  0
ARC
  5
23CC1
  8
01
 10
631.7162386232114
 20
-654.8213303522509
 30
0.0
 40
2.25
 50
180.0
 51
270.0
  0
LINE
  5
23D7A
  8
1CENTER
 10
632.7162386232114
 20
-651.5713303522509
 30
0.0
 11
632.7162386232114
 21
-658.0713303522509
 31
0.0
  0
LINE
  5
23E7B
  8
1PHANTOM
 10
760.0162416192402
 20
-648.5563928084097
 30
0.0
 11
760.0162416164925
 21
-653.8213303517654
 31
0.0
  0
LINE
  5
23E7C
  8
1PHANTOM
 10
759.0162416164924
 20
-654.8213303512672
 30
0.0
 11
742.0162416153655
 21
-654.8213303512659
 31
0.0
  0
LINE
  5
23E7D
  8
1PHANTOM
 10
740.0162416153653
 20
-656.8213303512659
 30
0.0
 11
740.0162416153653
 21
-662.6213303512653
 31
0.0
  0
LINE
  5
23E7E
  8
1PHANTOM
 10
742.0162416153653
 20
-664.6213303512653
 30
0.0
 11
763.0162416153653
 21
-664.6213303512653
 31
0.0
  0
LINE
  5
23E7F
  8
1PHANTOM
 10
763.0162416153653
 20
-647.5213303512508
 30
0.0
 11
760.9987892127888
 21
-647.5565451139558
 31
0.0
  0
ARC
  5
23E80
  8
1PHANTOM
 10
761.0162416192402
 20
-648.556392809112
 30
0.0
 40
0.9999999999999996
 50
91.00000000080959
 51
179.9999999597579
  0
ARC
  5
23E81
  8
1PHANTOM
 10
742.0162416153653
 20
-656.8213303512659
 30
0.0
 40
1.999999999999999
 50
89.99999999999349
 51
180.0
  0
ARC
  5
23E82
  8
1PHANTOM
 10
742.0162416153653
 20
-662.6213303512653
 30
0.0
 40
1.999999999999999
 50
180.0
 51
270.0
  0
ARC
  5
23E83
  8
1PHANTOM
 10
759.0162416164925
 20
-653.8213303512672
 30
0.0
 40
0.9999999999999996
 50
269.9999999999935
 51
359.9999999714566
  0
LINE
  5
2412B
  8
1HATCH
 10
743.3662416153654
 20
-664.2213303612651
 30
0.0
 11
743.0162416153653
 21
-664.57133018719
 31
0.0
  0
LINE
  5
2412D
  8
1HATCH
 10
742.0162416153653
 20
-665.5713303512647
 30
0.0
 11
748.0162416153653
 21
-665.5713303512647
 31
0.0
  0
LINE
  5
2412E
  8
1HATCH
 10
743.0162416153653
 20
-658.2213303612651
 30
0.0
 11
747.0162416153653
 21
-658.2213303612651
 31
0.0
  0
LINE
  5
24130
  8
1HATCH
 10
746.6662416153654
 20
-657.8713303612648
 30
0.0
 11
746.6662416153654
 21
-664.2213303612651
 31
0.0
  0
LINE
  5
24131
  8
1HATCH
 10
743.3662416153654
 20
-657.8713303612648
 30
0.0
 11
743.3662416153654
 21
-664.2213303612651
 31
0.0
  0
LINE
  5
24132
  8
1CENTER
 10
745.0162416153653
 20
-655.8713303612648
 30
0.0
 11
745.0162416153653
 21
-667.8713303612648
 31
0.0
  0
LINE
  5
24439
  8
01
 10
619.916238015244
 20
-571.5213311738105
 30
0.0
 11
608.2162336760258
 21
-571.5213311738105
 31
0.0
  0
ARC
  5
2443A
  8
01
 10
608.2162371330954
 20
-572.0213303512666
 30
0.0
 40
0.5
 50
90.0
 51
180.0
  0
ARC
  5
2443B
  8
01
 10
642.0162371330953
 20
-591.1213303512664
 30
0.0
 40
1.0
 50
270.0
 51
0.0
  0
LINE
  5
2443C
  8
01
 10
608.2162336760258
 20
-592.1213297075362
 30
0.0
 11
642.0162395888067
 21
-592.1213297075362
 31
0.0
  0
ARC
  5
2443D
  8
01
 10
619.9162371330955
 20
-569.0213303512666
 30
0.0
 40
2.500000000000057
 50
270.0
 51
0.0
  0
ARC
  5
2443E
  8
01
 10
608.2162371330954
 20
-591.6213303512664
 30
0.0
 40
0.5
 50
180.0
 51
270.0
  0
LINE
  5
2443F
  8
01
 10
622.4162356310582
 20
-535.8213303512664
 30
0.0
 11
622.4162356310582
 21
-569.021329832706
 31
0.0
  0
LINE
  5
24441
  8
01
 10
622.4162356310582
 20
-535.8213303512664
 30
0.0
 11
643.0162416153646
 21
-535.8213303512664
 31
0.0
  0
LINE
  5
24442
  8
01
 10
643.0162416153646
 20
-591.1213314062686
 30
0.0
 11
643.0162416153646
 21
-535.8213303512664
 31
0.0
  0
LINE
  5
24444
  8
01
 10
607.7162401133273
 20
-591.1213314062686
 30
0.0
 11
607.7162401133273
 21
-572.5213294750781
 31
0.0
  0
LINE
  5
24448
  8
01
 10
607.7162401133273
 20
-572.5213294750781
 30
0.0
 11
607.7162401133273
 21
-571.8213288015456
 31
0.0
  0
LINE
  5
2444A
  8
01
 10
607.7162401133273
 20
-591.8213320798011
 30
0.0
 11
607.7162401133273
 21
-591.1213314062686
 31
0.0
  0
LINE
  5
24452
  8
01
 10
607.7162401133273
 20
-591.8213320798011
 30
0.0
 11
307.7162371330955
 21
-591.8213320798011
 31
0.0
  0
LINE
  5
24453
  8
01
 10
307.7162371330955
 20
-571.8213288015456
 30
0.0
 11
607.7162401133273
 21
-571.8213288015456
 31
0.0
  0
LINE
  5
24468
  8
1CENTER
 10
632.7162386232114
 20
-540.3213303512664
 30
0.0
 11
632.7162386232114
 21
-533.3213303512664
 31
0.0
  0
LINE
  5
244C6
  8
01
 10
282.2162387701071
 20
-539.8213303512664
 30
0.0
 11
283.2162384701071
 21
-538.8213303512664
 31
0.0
  0
LINE
  5
244C7
  8
01
 10
278.9162386201072
 20
-539.8213303512664
 30
0.0
 11
278.9162386201072
 21
-538.8213303512664
 31
0.0
  0
LINE
  5
244C8
  8
01
 10
278.9162386201072
 20
-538.8213303512664
 30
0.0
 11
286.5162386201071
 21
-538.8213303512664
 31
0.0
  0
LINE
  5
244C9
  8
01
 10
278.9162386201072
 20
-539.8213303512664
 30
0.0
 11
286.5162386201071
 21
-539.8213303512664
 31
0.0
  0
LINE
  5
244CA
  8
01
 10
286.5162386201071
 20
-539.8213303512664
 30
0.0
 11
286.5162386201071
 21
-538.8213303512664
 31
0.0
  0
POLYLINE
  5
244CC
  8
1PHANTOM
 66
     1
 10
0.0
 20
0.0
 30
0.0
  0
VERTEX
  5
24B45
  8
1PHANTOM
 10
275.5830732790716
 20
-558.7342841239157
 30
0.0
  0
VERTEX
  5
24B46
  8
1PHANTOM
 10
275.5812601879318
 20
-558.7337492690317
 30
0.0
  0
VERTEX
  5
24B47
  8
1PHANTOM
 10
275.5794481365713
 20
-558.7332108585064
 30
0.0
  0
VERTEX
  5
24B48
  8
1PHANTOM
 10
275.5776372038158
 20
-558.7326688416344
 30
0.0
  0
VERTEX
  5
24B49
  8
1PHANTOM
 10
275.575827420234
 20
-558.7321233437202
 30
0.0
  0
VERTEX
  5
24B4A
  8
1PHANTOM
 10
275.5740188163946
 20
-558.7315744900675
 30
0.0
  0
VERTEX
  5
24B4B
  8
1PHANTOM
 10
275.5722114228666
 20
-558.7310224059806
 30
0.0
  0
VERTEX
  5
24B4C
  8
1PHANTOM
 10
275.5704052702184
 20
-558.7304672167637
 30
0.0
  0
VERTEX
  5
24B4D
  8
1PHANTOM
 10
275.568600389019
 20
-558.7299090477209
 30
0.0
  0
VERTEX
  5
24B4E
  8
1PHANTOM
 10
275.5667968098372
 20
-558.7293480241563
 30
0.0
  0
VERTEX
  5
24B4F
  8
1PHANTOM
 10
275.5649945632416
 20
-558.7287842713741
 30
0.0
  0
VERTEX
  5
24B50
  8
1PHANTOM
 10
275.5631936798009
 20
-558.7282179146786
 30
0.0
  0
VERTEX
  5
24B51
  8
1PHANTOM
 10
275.561394190084
 20
-558.7276490793736
 30
0.0
  0
VERTEX
  5
24B52
  8
1PHANTOM
 10
275.5595961246596
 20
-558.7270778907633
 30
0.0
  0
VERTEX
  5
24B53
  8
1PHANTOM
 10
275.5577995140964
 20
-558.7265044741521
 30
0.0
  0
VERTEX
  5
24B54
  8
1PHANTOM
 10
275.5560043889632
 20
-558.7259289548441
 30
0.0
  0
VERTEX
  5
24B55
  8
1PHANTOM
 10
275.5542107798288
 20
-558.7253514581433
 30
0.0
  0
VERTEX
  5
24B56
  8
1PHANTOM
 10
275.5524187172619
 20
-558.7247721093538
 30
0.0
  0
VERTEX
  5
24B57
  8
1PHANTOM
 10
275.5506282318312
 20
-558.7241910337799
 30
0.0
  0
VERTEX
  5
24B58
  8
1PHANTOM
 10
275.5488393541056
 20
-558.7236083567255
 30
0.0
  0
VERTEX
  5
24B59
  8
1PHANTOM
 10
275.5470521096635
 20
-558.723024200967
 30
0.0
  0
VERTEX
  5
24B5A
  8
1PHANTOM
 10
275.5452664617791
 20
-558.7224386577152
 30
0.0
  0
VERTEX
  5
24B5B
  8
1PHANTOM
 10
275.5434823313923
 20
-558.7218517967337
 30
0.0
  0
VERTEX
  5
24B5C
  8
1PHANTOM
 10
275.5416996386347
 20
-558.721263687377
 30
0.0
  0
VERTEX
  5
24B5D
  8
1PHANTOM
 10
275.539918303638
 20
-558.720674398999
 30
0.0
  0
VERTEX
  5
24B5E
  8
1PHANTOM
 10
275.5381382465339
 20
-558.7200840009539
 30
0.0
  0
VERTEX
  5
24B5F
  8
1PHANTOM
 10
275.5363593874544
 20
-558.719492562596
 30
0.0
  0
VERTEX
  5
24B60
  8
1PHANTOM
 10
275.5345816465307
 20
-558.7189001532794
 30
0.0
  0
VERTEX
  5
24B61
  8
1PHANTOM
 10
275.5328049438949
 20
-558.7183068423584
 30
0.0
  0
VERTEX
  5
24B62
  8
1PHANTOM
 10
275.5310291996785
 20
-558.717712699187
 30
0.0
  0
VERTEX
  5
24B63
  8
1PHANTOM
 10
275.5292543340134
 20
-558.7171177931197
 30
0.0
  0
VERTEX
  5
24B64
  8
1PHANTOM
 10
275.5274802670312
 20
-558.7165221935105
 30
0.0
  0
VERTEX
  5
24B65
  8
1PHANTOM
 10
275.5257069188635
 20
-558.7159259697133
 30
0.0
  0
VERTEX
  5
24B66
  8
1PHANTOM
 10
275.5239342096422
 20
-558.7153291910829
 30
0.0
  0
VERTEX
  5
24B67
  8
1PHANTOM
 10
275.522162059499
 20
-558.7147319269731
 30
0.0
  0
VERTEX
  5
24B68
  8
1PHANTOM
 10
275.5203903885654
 20
-558.714134246738
 30
0.0
  0
VERTEX
  5
24B69
  8
1PHANTOM
 10
275.5186191169734
 20
-558.7135362197322
 30
0.0
  0
VERTEX
  5
24B6A
  8
1PHANTOM
 10
275.5168481648545
 20
-558.7129379153095
 30
0.0
  0
VERTEX
  5
24B6B
  8
1PHANTOM
 10
275.5150774523403
 20
-558.7123394028242
 30
0.0
  0
VERTEX
  5
24B6C
  8
1PHANTOM
 10
275.5133068995629
 20
-558.7117407516305
 30
0.0
  0
VERTEX
  5
24B6D
  8
1PHANTOM
 10
275.5115364266537
 20
-558.7111420310827
 30
0.0
  0
SEQEND
  5
24E91
  8
1PHANTOM
  0
LINE
  5
244CD
  8
1PHANTOM
 10
274.166238620121
 20
-535.8213303512664
 30
0.0
 11
274.166238620121
 21
-537.8213303512664
 31
0.0
  0
LINE
  5
244CE
  8
1PHANTOM
 10
291.2662386200931
 20
-537.8213303512664
 30
0.0
 11
291.2662386200931
 21
-535.8213303512664
 31
0.0
  0
POLYLINE
  5
244CF
  8
1PHANTOM
 66
     1
 10
0.0
 20
0.0
 30
0.0
  0
VERTEX
  5
24B6E
  8
1PHANTOM
 10
274.1662386201211
 20
-537.8213303512664
 30
0.0
  0
VERTEX
  5
24B6F
  8
1PHANTOM
 10
274.1664384876414
 20
-537.8410559874649
 30
0.0
  0
VERTEX
  5
24B70
  8
1PHANTOM
 10
274.1670420514386
 20
-537.8609400329233
 30
0.0
  0
VERTEX
  5
24B71
  8
1PHANTOM
 10
274.1680552533671
 20
-537.8809687580352
 30
0.0
  0
VERTEX
  5
24B72
  8
1PHANTOM
 10
274.1694840352814
 20
-537.9011284331945
 30
0.0
  0
VERTEX
  5
24B73
  8
1PHANTOM
 10
274.1713343390357
 20
-537.9214053287948
 30
0.0
  0
VERTEX
  5
24B74
  8
1PHANTOM
 10
274.1736121064847
 20
-537.9417857152295
 30
0.0
  0
VERTEX
  5
24B75
  8
1PHANTOM
 10
274.1763232794826
 20
-537.9622558628924
 30
0.0
  0
VERTEX
  5
24B76
  8
1PHANTOM
 10
274.1794737998841
 20
-537.9828020421772
 30
0.0
  0
VERTEX
  5
24B77
  8
1PHANTOM
 10
274.1830696095433
 20
-538.0034105234777
 30
0.0
  0
VERTEX
  5
24B78
  8
1PHANTOM
 10
274.1871166503147
 20
-538.024067577187
 30
0.0
  0
VERTEX
  5
24B79
  8
1PHANTOM
 10
274.1916208640529
 20
-538.0447594736992
 30
0.0
  0
VERTEX
  5
24B7A
  8
1PHANTOM
 10
274.1965881926122
 20
-538.0654724834078
 30
0.0
  0
VERTEX
  5
24B7B
  8
1PHANTOM
 10
274.202024577847
 20
-538.0861928767064
 30
0.0
  0
VERTEX
  5
24B7C
  8
1PHANTOM
 10
274.2079359616118
 20
-538.1069069239888
 30
0.0
  0
VERTEX
  5
24B7D
  8
1PHANTOM
 10
274.2143282857609
 20
-538.1276008956486
 30
0.0
  0
VERTEX
  5
24B7E
  8
1PHANTOM
 10
274.2212074921487
 20
-538.1482610620793
 30
0.0
  0
VERTEX
  5
24B7F
  8
1PHANTOM
 10
274.2285795226299
 20
-538.1688736936746
 30
0.0
  0
VERTEX
  5
24B80
  8
1PHANTOM
 10
274.2364503190586
 20
-538.1894250608283
 30
0.0
  0
VERTEX
  5
24B81
  8
1PHANTOM
 10
274.2448268160992
 20
-538.2098939392555
 30
0.0
  0
VERTEX
  5
24B82
  8
1PHANTOM
 10
274.2537076861234
 20
-538.2302573934946
 30
0.0
  0
VERTEX
  5
24B83
  8
1PHANTOM
 10
274.2630864775459
 20
-538.2504991271743
 30
0.0
  0
VERTEX
  5
24B84
  8
1PHANTOM
 10
274.2729567387819
 20
-538.2706028439223
 30
0.0
  0
VERTEX
  5
24B85
  8
1PHANTOM
 10
274.2833120182464
 20
-538.2905522473674
 30
0.0
  0
VERTEX
  5
24B86
  8
1PHANTOM
 10
274.2941458643546
 20
-538.3103310411376
 30
0.0
  0
VERTEX
  5
24B87
  8
1PHANTOM
 10
274.3054518255215
 20
-538.3299229288615
 30
0.0
  0
VERTEX
  5
24B88
  8
1PHANTOM
 10
274.317223450162
 20
-538.3493116141672
 30
0.0
  0
VERTEX
  5
24B89
  8
1PHANTOM
 10
274.3294542866914
 20
-538.368480800683
 30
0.0
  0
VERTEX
  5
24B8A
  8
1PHANTOM
 10
274.3421378835246
 20
-538.3874141920371
 30
0.0
  0
VERTEX
  5
24B8B
  8
1PHANTOM
 10
274.3552677890766
 20
-538.4060954918582
 30
0.0
  0
VERTEX
  5
24B8C
  8
1PHANTOM
 10
274.3688375517626
 20
-538.4245084037743
 30
0.0
  0
VERTEX
  5
24B8D
  8
1PHANTOM
 10
274.3828407199976
 20
-538.4426366314138
 30
0.0
  0
VERTEX
  5
24B8E
  8
1PHANTOM
 10
274.3972708421966
 20
-538.460463878405
 30
0.0
  0
VERTEX
  5
24B8F
  8
1PHANTOM
 10
274.4121214667748
 20
-538.4779738483762
 30
0.0
  0
VERTEX
  5
24B90
  8
1PHANTOM
 10
274.4273861421471
 20
-538.4951502449558
 30
0.0
  0
VERTEX
  5
24B91
  8
1PHANTOM
 10
274.4430584167286
 20
-538.5119767717719
 30
0.0
  0
VERTEX
  5
24B92
  8
1PHANTOM
 10
274.4591318389345
 20
-538.528437132453
 30
0.0
  0
VERTEX
  5
24B93
  8
1PHANTOM
 10
274.4755921996156
 20
-538.5445105546587
 30
0.0
  0
VERTEX
  5
24B94
  8
1PHANTOM
 10
274.4924187264317
 20
-538.5601828292404
 30
0.0
  0
VERTEX
  5
24B95
  8
1PHANTOM
 10
274.5095951230112
 20
-538.5754475046126
 30
0.0
  0
VERTEX
  5
24B96
  8
1PHANTOM
 10
274.5271050929824
 20
-538.5902981291908
 30
0.0
  0
VERTEX
  5
24B97
  8
1PHANTOM
 10
274.5449323399736
 20
-538.6047282513898
 30
0.0
  0
VERTEX
  5
24B98
  8
1PHANTOM
 10
274.5630605676131
 20
-538.6187314196249
 30
0.0
  0
VERTEX
  5
24B99
  8
1PHANTOM
 10
274.5814734795292
 20
-538.6323011823108
 30
0.0
  0
VERTEX
  5
24B9A
  8
1PHANTOM
 10
274.6001547793502
 20
-538.6454310878629
 30
0.0
  0
VERTEX
  5
24B9B
  8
1PHANTOM
 10
274.6190881707045
 20
-538.658114684696
 30
0.0
  0
VERTEX
  5
24B9C
  8
1PHANTOM
 10
274.6382573572203
 20
-538.6703455212254
 30
0.0
  0
VERTEX
  5
24B9D
  8
1PHANTOM
 10
274.657646042526
 20
-538.6821171458658
 30
0.0
  0
VERTEX
  5
24B9E
  8
1PHANTOM
 10
274.6772379302498
 20
-538.6934231070328
 30
0.0
  0
VERTEX
  5
24B9F
  8
1PHANTOM
 10
274.69701672402
 20
-538.7042569531409
 30
0.0
  0
VERTEX
  5
24BA0
  8
1PHANTOM
 10
274.7169661274651
 20
-538.7146122326055
 30
0.0
  0
VERTEX
  5
24BA1
  8
1PHANTOM
 10
274.7370698442132
 20
-538.7244824938415
 30
0.0
  0
VERTEX
  5
24BA2
  8
1PHANTOM
 10
274.7573115778927
 20
-538.7338612852641
 30
0.0
  0
VERTEX
  5
24BA3
  8
1PHANTOM
 10
274.777675032132
 20
-538.742742155288
 30
0.0
  0
VERTEX
  5
24BA4
  8
1PHANTOM
 10
274.7981439105591
 20
-538.7511186523288
 30
0.0
  0
VERTEX
  5
24BA5
  8
1PHANTOM
 10
274.8186952777128
 20
-538.7589894487576
 30
0.0
  0
VERTEX
  5
24BA6
  8
1PHANTOM
 10
274.8393079093081
 20
-538.7663614792386
 30
0.0
  0
VERTEX
  5
24BA7
  8
1PHANTOM
 10
274.8599680757388
 20
-538.7732406856264
 30
0.0
  0
VERTEX
  5
24BA8
  8
1PHANTOM
 10
274.8806620473986
 20
-538.7796330097757
 30
0.0
  0
VERTEX
  5
24BA9
  8
1PHANTOM
 10
274.901376094681
 20
-538.7855443935404
 30
0.0
  0
VERTEX
  5
24BAA
  8
1PHANTOM
 10
274.9220964879797
 20
-538.7909807787752
 30
0.0
  0
VERTEX
  5
24BAB
  8
1PHANTOM
 10
274.9428094976882
 20
-538.7959481073345
 30
0.0
  0
VERTEX
  5
24BAC
  8
1PHANTOM
 10
274.9635013942004
 20
-538.8004523210726
 30
0.0
  0
VERTEX
  5
24BAD
  8
1PHANTOM
 10
274.9841584479099
 20
-538.804499361844
 30
0.0
  0
VERTEX
  5
24BAE
  8
1PHANTOM
 10
275.0047669292102
 20
-538.8080951715034
 30
0.0
  0
VERTEX
  5
24BAF
  8
1PHANTOM
 10
275.025313108495
 20
-538.8112456919048
 30
0.0
  0
VERTEX
  5
24BB0
  8
1PHANTOM
 10
275.045783256158
 20
-538.8139568649028
 30
0.0
  0
VERTEX
  5
24BB1
  8
1PHANTOM
 10
275.0661636425927
 20
-538.8162346323518
 30
0.0
  0
VERTEX
  5
24BB2
  8
1PHANTOM
 10
275.0864405381929
 20
-538.8180849361062
 30
0.0
  0
VERTEX
  5
24BB3
  8
1PHANTOM
 10
275.1066002133522
 20
-538.8195137180204
 30
0.0
  0
VERTEX
  5
24BB4
  8
1PHANTOM
 10
275.1266289384643
 20
-538.8205269199489
 30
0.0
  0
VERTEX
  5
24BB5
  8
1PHANTOM
 10
275.1465129839226
 20
-538.8211304837461
 30
0.0
  0
VERTEX
  5
24BB6
  8
1PHANTOM
 10
275.166238620121
 20
-538.8213303512664
 30
0.0
  0
SEQEND
  5
24E92
  8
1PHANTOM
  0
POLYLINE
  5
244D0
  8
1PHANTOM
 66
     1
 10
0.0
 20
0.0
 30
0.0
  0
VERTEX
  5
24BB7
  8
1PHANTOM
 10
290.266238620093
 20
-538.8213303512664
 30
0.0
  0
VERTEX
  5
24BB8
  8
1PHANTOM
 10
290.2859642562914
 20
-538.8211304837461
 30
0.0
  0
VERTEX
  5
24BB9
  8
1PHANTOM
 10
290.3058483017497
 20
-538.8205269199489
 30
0.0
  0
VERTEX
  5
24BBA
  8
1PHANTOM
 10
290.3258770268618
 20
-538.8195137180204
 30
0.0
  0
VERTEX
  5
24BBB
  8
1PHANTOM
 10
290.3460367020211
 20
-538.8180849361062
 30
0.0
  0
VERTEX
  5
24BBC
  8
1PHANTOM
 10
290.3663135976213
 20
-538.8162346323518
 30
0.0
  0
VERTEX
  5
24BBD
  8
1PHANTOM
 10
290.386693984056
 20
-538.8139568649028
 30
0.0
  0
VERTEX
  5
24BBE
  8
1PHANTOM
 10
290.407164131719
 20
-538.8112456919048
 30
0.0
  0
VERTEX
  5
24BBF
  8
1PHANTOM
 10
290.4277103110038
 20
-538.8080951715034
 30
0.0
  0
VERTEX
  5
24BC0
  8
1PHANTOM
 10
290.4483187923041
 20
-538.804499361844
 30
0.0
  0
VERTEX
  5
24BC1
  8
1PHANTOM
 10
290.4689758460136
 20
-538.8004523210726
 30
0.0
  0
VERTEX
  5
24BC2
  8
1PHANTOM
 10
290.4896677425257
 20
-538.7959481073345
 30
0.0
  0
VERTEX
  5
24BC3
  8
1PHANTOM
 10
290.5103807522343
 20
-538.7909807787752
 30
0.0
  0
VERTEX
  5
24BC4
  8
1PHANTOM
 10
290.531101145533
 20
-538.7855443935404
 30
0.0
  0
VERTEX
  5
24BC5
  8
1PHANTOM
 10
290.5518151928154
 20
-538.7796330097757
 30
0.0
  0
VERTEX
  5
24BC6
  8
1PHANTOM
 10
290.5725091644751
 20
-538.7732406856264
 30
0.0
  0
VERTEX
  5
24BC7
  8
1PHANTOM
 10
290.5931693309058
 20
-538.7663614792386
 30
0.0
  0
VERTEX
  5
24BC8
  8
1PHANTOM
 10
290.6137819625012
 20
-538.7589894487576
 30
0.0
  0
VERTEX
  5
24BC9
  8
1PHANTOM
 10
290.6343333296547
 20
-538.7511186523288
 30
0.0
  0
VERTEX
  5
24BCA
  8
1PHANTOM
 10
290.6548022080819
 20
-538.742742155288
 30
0.0
  0
VERTEX
  5
24BCB
  8
1PHANTOM
 10
290.6751656623211
 20
-538.7338612852641
 30
0.0
  0
VERTEX
  5
24BCC
  8
1PHANTOM
 10
290.6954073960006
 20
-538.7244824938415
 30
0.0
  0
VERTEX
  5
24BCD
  8
1PHANTOM
 10
290.7155111127487
 20
-538.7146122326055
 30
0.0
  0
VERTEX
  5
24BCE
  8
1PHANTOM
 10
290.7354605161938
 20
-538.7042569531409
 30
0.0
  0
VERTEX
  5
24BCF
  8
1PHANTOM
 10
290.7552393099641
 20
-538.6934231070328
 30
0.0
  0
VERTEX
  5
24BD0
  8
1PHANTOM
 10
290.7748311976879
 20
-538.6821171458658
 30
0.0
  0
VERTEX
  5
24BD1
  8
1PHANTOM
 10
290.7942198829936
 20
-538.6703455212254
 30
0.0
  0
VERTEX
  5
24BD2
  8
1PHANTOM
 10
290.8133890695094
 20
-538.658114684696
 30
0.0
  0
VERTEX
  5
24BD3
  8
1PHANTOM
 10
290.8323224608637
 20
-538.6454310878629
 30
0.0
  0
VERTEX
  5
24BD4
  8
1PHANTOM
 10
290.8510037606847
 20
-538.6323011823108
 30
0.0
  0
VERTEX
  5
24BD5
  8
1PHANTOM
 10
290.8694166726008
 20
-538.6187314196249
 30
0.0
  0
VERTEX
  5
24BD6
  8
1PHANTOM
 10
290.8875449002404
 20
-538.6047282513898
 30
0.0
  0
VERTEX
  5
24BD7
  8
1PHANTOM
 10
290.9053721472316
 20
-538.5902981291908
 30
0.0
  0
VERTEX
  5
24BD8
  8
1PHANTOM
 10
290.9228821172027
 20
-538.5754475046126
 30
0.0
  0
VERTEX
  5
24BD9
  8
1PHANTOM
 10
290.9400585137823
 20
-538.5601828292404
 30
0.0
  0
VERTEX
  5
24BDA
  8
1PHANTOM
 10
290.9568850405984
 20
-538.5445105546587
 30
0.0
  0
VERTEX
  5
24BDB
  8
1PHANTOM
 10
290.9733454012795
 20
-538.528437132453
 30
0.0
  0
VERTEX
  5
24BDC
  8
1PHANTOM
 10
290.9894188234853
 20
-538.5119767717719
 30
0.0
  0
VERTEX
  5
24BDD
  8
1PHANTOM
 10
291.0050910980668
 20
-538.4951502449558
 30
0.0
  0
VERTEX
  5
24BDE
  8
1PHANTOM
 10
291.0203557734391
 20
-538.4779738483762
 30
0.0
  0
VERTEX
  5
24BDF
  8
1PHANTOM
 10
291.0352063980172
 20
-538.460463878405
 30
0.0
  0
VERTEX
  5
24BE0
  8
1PHANTOM
 10
291.0496365202163
 20
-538.4426366314138
 30
0.0
  0
VERTEX
  5
24BE1
  8
1PHANTOM
 10
291.0636396884513
 20
-538.4245084037743
 30
0.0
  0
VERTEX
  5
24BE2
  8
1PHANTOM
 10
291.0772094511373
 20
-538.4060954918582
 30
0.0
  0
VERTEX
  5
24BE3
  8
1PHANTOM
 10
291.0903393566894
 20
-538.3874141920371
 30
0.0
  0
VERTEX
  5
24BE4
  8
1PHANTOM
 10
291.1030229535225
 20
-538.368480800683
 30
0.0
  0
VERTEX
  5
24BE5
  8
1PHANTOM
 10
291.1152537900518
 20
-538.3493116141672
 30
0.0
  0
VERTEX
  5
24BE6
  8
1PHANTOM
 10
291.1270254146924
 20
-538.3299229288615
 30
0.0
  0
VERTEX
  5
24BE7
  8
1PHANTOM
 10
291.1383313758593
 20
-538.3103310411376
 30
0.0
  0
VERTEX
  5
24BE8
  8
1PHANTOM
 10
291.1491652219675
 20
-538.2905522473674
 30
0.0
  0
VERTEX
  5
24BE9
  8
1PHANTOM
 10
291.159520501432
 20
-538.2706028439223
 30
0.0
  0
VERTEX
  5
24BEA
  8
1PHANTOM
 10
291.169390762668
 20
-538.2504991271743
 30
0.0
  0
VERTEX
  5
24BEB
  8
1PHANTOM
 10
291.1787695540905
 20
-538.2302573934946
 30
0.0
  0
VERTEX
  5
24BEC
  8
1PHANTOM
 10
291.1876504241146
 20
-538.2098939392555
 30
0.0
  0
VERTEX
  5
24BED
  8
1PHANTOM
 10
291.1960269211554
 20
-538.1894250608283
 30
0.0
  0
VERTEX
  5
24BEE
  8
1PHANTOM
 10
291.203897717584
 20
-538.1688736936746
 30
0.0
  0
VERTEX
  5
24BEF
  8
1PHANTOM
 10
291.2112697480652
 20
-538.1482610620793
 30
0.0
  0
VERTEX
  5
24BF0
  8
1PHANTOM
 10
291.2181489544531
 20
-538.1276008956486
 30
0.0
  0
VERTEX
  5
24BF1
  8
1PHANTOM
 10
291.2245412786022
 20
-538.1069069239888
 30
0.0
  0
VERTEX
  5
24BF2
  8
1PHANTOM
 10
291.230452662367
 20
-538.0861928767064
 30
0.0
  0
VERTEX
  5
24BF3
  8
1PHANTOM
 10
291.2358890476018
 20
-538.0654724834078
 30
0.0
  0
VERTEX
  5
24BF4
  8
1PHANTOM
 10
291.240856376161
 20
-538.0447594736992
 30
0.0
  0
VERTEX
  5
24BF5
  8
1PHANTOM
 10
291.2453605898992
 20
-538.024067577187
 30
0.0
  0
VERTEX
  5
24BF6
  8
1PHANTOM
 10
291.2494076306707
 20
-538.0034105234777
 30
0.0
  0
VERTEX
  5
24BF7
  8
1PHANTOM
 10
291.25300344033
 20
-537.9828020421772
 30
0.0
  0
VERTEX
  5
24BF8
  8
1PHANTOM
 10
291.2561539607314
 20
-537.9622558628924
 30
0.0
  0
VERTEX
  5
24BF9
  8
1PHANTOM
 10
291.2588651337293
 20
-537.9417857152295
 30
0.0
  0
VERTEX
  5
24BFA
  8
1PHANTOM
 10
291.2611429011783
 20
-537.9214053287948
 30
0.0
  0
VERTEX
  5
24BFB
  8
1PHANTOM
 10
291.2629932049327
 20
-537.9011284331945
 30
0.0
  0
VERTEX
  5
24BFC
  8
1PHANTOM
 10
291.264421986847
 20
-537.8809687580352
 30
0.0
  0
VERTEX
  5
24BFD
  8
1PHANTOM
 10
291.2654351887755
 20
-537.8609400329233
 30
0.0
  0
VERTEX
  5
24BFE
  8
1PHANTOM
 10
291.2660387525727
 20
-537.8410559874649
 30
0.0
  0
VERTEX
  5
24BFF
  8
1PHANTOM
 10
291.2662386200931
 20
-537.8213303512664
 30
0.0
  0
SEQEND
  5
24E93
  8
1PHANTOM
  0
LINE
  5
244D1
  8
1PHANTOM
 10
276.166238620121
 20
-558.8213303512664
 30
0.0
 11
289.2662386200931
 21
-558.8213303512664
 31
0.0
  0
LINE
  5
244D2
  8
1PHANTOM
 10
274.1662386201211
 20
-537.8213303512664
 30
0.0
 11
274.166238620121
 21
-556.8213303512664
 31
0.0
  0
LINE
  5
244D3
  8
1PHANTOM
 10
291.2662386200931
 20
-556.8213303512664
 30
0.0
 11
291.2662386200931
 21
-537.8213303512664
 31
0.0
  0
POLYLINE
  5
244D4
  8
1PHANTOM
 66
     1
 10
0.0
 20
0.0
 30
0.0
  0
VERTEX
  5
24C00
  8
1PHANTOM
 10
289.2662386200931
 20
-558.8213303512664
 30
0.0
  0
VERTEX
  5
24C01
  8
1PHANTOM
 10
289.2927967675822
 20
-558.8208771643029
 30
0.0
  0
VERTEX
  5
24C02
  8
1PHANTOM
 10
289.3193515801425
 20
-558.820319958514
 30
0.0
  0
VERTEX
  5
24C03
  8
1PHANTOM
 10
289.3458997228452
 20
-558.8195547150737
 30
0.0
  0
VERTEX
  5
24C04
  8
1PHANTOM
 10
289.3724378607616
 20
-558.8184774151566
 30
0.0
  0
VERTEX
  5
24C05
  8
1PHANTOM
 10
289.3989625939176
 20
-558.8169935363211
 30
0.0
  0
VERTEX
  5
24C06
  8
1PHANTOM
 10
289.425469986717
 20
-558.8150867551578
 30
0.0
  0
VERTEX
  5
24C07
  8
1PHANTOM
 10
289.4519558401949
 20
-558.8127791991883
 30
0.0
  0
VERTEX
  5
24C08
  8
1PHANTOM
 10
289.4784159535544
 20
-558.8100932633955
 30
0.0
  0
VERTEX
  5
24C09
  8
1PHANTOM
 10
289.5048461259987
 20
-558.8070513427621
 30
0.0
  0
VERTEX
  5
24C0A
  8
1PHANTOM
 10
289.5312422987224
 20
-558.80367298095
 30
0.0
  0
VERTEX
  5
24C0B
  8
1PHANTOM
 10
289.5576012959534
 20
-558.7999599895129
 30
0.0
  0
VERTEX
  5
24C0C
  8
1PHANTOM
 10
289.583920280838
 20
-558.795907374207
 30
0.0
  0
VERTEX
  5
24C0D
  8
1PHANTOM
 10
289.6101964172209
 20
-558.7915101267693
 30
0.0
  0
VERTEX
  5
24C0E
  8
1PHANTOM
 10
289.6364268689468
 20
-558.7867632389367
 30
0.0
  0
VERTEX
  5
24C0F
  8
1PHANTOM
 10
289.6626087934532
 20
-558.7816617173551
 30
0.0
  0
VERTEX
  5
24C10
  8
1PHANTOM
 10
289.6887384526819
 20
-558.776202652329
 30
0.0
  0
VERTEX
  5
24C11
  8
1PHANTOM
 10
289.7148103006613
 20
-558.7703873408593
 30
0.0
  0
VERTEX
  5
24C12
  8
1PHANTOM
 10
289.7408185737771
 20
-558.7642175863626
 30
0.0
  0
VERTEX
  5
24C13
  8
1PHANTOM
 10
289.7667575084147
 20
-558.7576951922559
 30
0.0
  0
VERTEX
  5
24C14
  8
1PHANTOM
 10
289.7926213409598
 20
-558.7508219619559
 30
0.0
  0
VERTEX
  5
24C15
  8
1PHANTOM
 10
289.8184043077981
 20
-558.7435996988793
 30
0.0
  0
VERTEX
  5
24C16
  8
1PHANTOM
 10
289.844100645315
 20
-558.7360302064427
 30
0.0
  0
VERTEX
  5
24C17
  8
1PHANTOM
 10
289.8697051896948
 20
-558.7281148989717
 30
0.0
  0
VERTEX
  5
24C18
  8
1PHANTOM
 10
289.8952152932811
 20
-558.7198535585508
 30
0.0
  0
VERTEX
  5
24C19
  8
1PHANTOM
 10
289.9206289681104
 20
-558.7112455393195
 30
0.0
  0
VERTEX
  5
24C1A
  8
1PHANTOM
 10
289.9459442262216
 20
-558.7022901954156
 30
0.0
  0
VERTEX
  5
24C1B
  8
1PHANTOM
 10
289.9711590796537
 20
-558.6929868809772
 30
0.0
  0
VERTEX
  5
24C1C
  8
1PHANTOM
 10
289.9962715404456
 20
-558.6833349501421
 30
0.0
  0
VERTEX
  5
24C1D
  8
1PHANTOM
 10
290.0212796206364
 20
-558.6733337570485
 30
0.0
  0
VERTEX
  5
24C1E
  8
1PHANTOM
 10
290.0461812304873
 20
-558.6629827147121
 30
0.0
  0
VERTEX
  5
24C1F
  8
1PHANTOM
 10
290.0709726686883
 20
-558.6522821684421
 30
0.0
  0
VERTEX
  5
24C20
  8
1PHANTOM
 10
290.09564894636
 20
-558.6412332084049
 30
0.0
  0
VERTEX
  5
24C21
  8
1PHANTOM
 10
290.1202050386709
 20
-558.6298369455653
 30
0.0
  0
VERTEX
  5
24C22
  8
1PHANTOM
 10
290.1446359207896
 20
-558.6180944908881
 30
0.0
  0
VERTEX
  5
24C23
  8
1PHANTOM
 10
290.1689365678847
 20
-558.6060069553382
 30
0.0
  0
VERTEX
  5
24C24
  8
1PHANTOM
 10
290.1931019551248
 20
-558.5935754498801
 30
0.0
  0
VERTEX
  5
24C25
  8
1PHANTOM
 10
290.2171270576784
 20
-558.5808010854787
 30
0.0
  0
VERTEX
  5
24C26
  8
1PHANTOM
 10
290.2410068507141
 20
-558.5676849730988
 30
0.0
  0
VERTEX
  5
24C27
  8
1PHANTOM
 10
290.2647363094004
 20
-558.5542282237052
 30
0.0
  0
VERTEX
  5
24C28
  8
1PHANTOM
 10
290.288310408906
 20
-558.5404319482626
 30
0.0
  0
VERTEX
  5
24C29
  8
1PHANTOM
 10
290.3117241243993
 20
-558.5262972577358
 30
0.0
  0
VERTEX
  5
24C2A
  8
1PHANTOM
 10
290.3349724310491
 20
-558.5118252630896
 30
0.0
  0
VERTEX
  5
24C2B
  8
1PHANTOM
 10
290.3580503040237
 20
-558.4970170752887
 30
0.0
  0
VERTEX
  5
24C2C
  8
1PHANTOM
 10
290.3809527184919
 20
-558.4818738052979
 30
0.0
  0
VERTEX
  5
24C2D
  8
1PHANTOM
 10
290.403674652005
 20
-558.4663965671873
 30
0.0
  0
VERTEX
  5
24C2E
  8
1PHANTOM
 10
290.4262112213437
 20
-558.4505866564739
 30
0.0
  0
VERTEX
  5
24C2F
  8
1PHANTOM
 10
290.4485577569726
 20
-558.4344456471516
 30
0.0
  0
VERTEX
  5
24C30
  8
1PHANTOM
 10
290.470709607492
 20
-558.4179751368498
 30
0.0
  0
VERTEX
  5
24C31
  8
1PHANTOM
 10
290.4926621215018
 20
-558.4011767231972
 30
0.0
  0
VERTEX
  5
24C32
  8
1PHANTOM
 10
290.5144106476022
 20
-558.3840520038226
 30
0.0
  0
VERTEX
  5
24C33
  8
1PHANTOM
 10
290.5359505343934
 20
-558.3666025763551
 30
0.0
  0
VERTEX
  5
24C34
  8
1PHANTOM
 10
290.5572771304755
 20
-558.3488300384236
 30
0.0
  0
VERTEX
  5
24C35
  8
1PHANTOM
 10
290.5783857844486
 20
-558.330735987657
 30
0.0
  0
VERTEX
  5
24C36
  8
1PHANTOM
 10
290.5992718449129
 20
-558.3123220216842
 30
0.0
  0
VERTEX
  5
24C37
  8
1PHANTOM
 10
290.6199306604685
 20
-558.2935897381341
 30
0.0
  0
VERTEX
  5
24C38
  8
1PHANTOM
 10
290.6403575797156
 20
-558.2745407346356
 30
0.0
  0
VERTEX
  5
24C39
  8
1PHANTOM
 10
290.6605479512541
 20
-558.2551766088178
 30
0.0
  0
VERTEX
  5
24C3A
  8
1PHANTOM
 10
290.6804971236844
 20
-558.2354989583096
 30
0.0
  0
VERTEX
  5
24C3B
  8
1PHANTOM
 10
290.7002003675592
 20
-558.2155096685623
 30
0.0
  0
VERTEX
  5
24C3C
  8
1PHANTOM
 10
290.7196526433575
 20
-558.1952117685153
 30
0.0
  0
VERTEX
  5
24C3D
  8
1PHANTOM
 10
290.7388488345654
 20
-558.1746085710425
 30
0.0
  0
VERTEX
  5
24C3E
  8
1PHANTOM
 10
290.7577838246688
 20
-558.1537033890183
 30
0.0
  0
VERTEX
  5
24C3F
  8
1PHANTOM
 10
290.7764524971537
 20
-558.1324995353166
 30
0.0
  0
VERTEX
  5
24C40
  8
1PHANTOM
 10
290.7948497355061
 20
-558.1110003228114
 30
0.0
  0
VERTEX
  5
24C41
  8
1PHANTOM
 10
290.8129704232121
 20
-558.0892090643769
 30
0.0
  0
VERTEX
  5
24C42
  8
1PHANTOM
 10
290.8308094437575
 20
-558.0671290728869
 30
0.0
  0
VERTEX
  5
24C43
  8
1PHANTOM
 10
290.8483616806283
 20
-558.0447636612157
 30
0.0
  0
VERTEX
  5
24C44
  8
1PHANTOM
 10
290.8656220173106
 20
-558.0221161422372
 30
0.0
  0
VERTEX
  5
24C45
  8
1PHANTOM
 10
290.8825853372903
 20
-557.9991898288256
 30
0.0
  0
VERTEX
  5
24C46
  8
1PHANTOM
 10
290.8992465240533
 20
-557.9759880338547
 30
0.0
  0
VERTEX
  5
24C47
  8
1PHANTOM
 10
290.9156004610858
 20
-557.952514070199
 30
0.0
  0
VERTEX
  5
24C48
  8
1PHANTOM
 10
290.9316420318736
 20
-557.9287712507321
 30
0.0
  0
VERTEX
  5
24C49
  8
1PHANTOM
 10
290.9473661083324
 20
-557.9047630093894
 30
0.0
  0
VERTEX
  5
24C4A
  8
1PHANTOM
 10
290.9627674537408
 20
-557.8804939167861
 30
0.0
  0
VERTEX
  5
24C4B
  8
1PHANTOM
 10
290.9778407718898
 20
-557.8559691659556
 30
0.0
  0
VERTEX
  5
24C4C
  8
1PHANTOM
 10
290.9925807659629
 20
-557.8311939562934
 30
0.0
  0
VERTEX
  5
24C4D
  8
1PHANTOM
 10
291.0069821391433
 20
-557.8061734871958
 30
0.0
  0
VERTEX
  5
24C4E
  8
1PHANTOM
 10
291.0210395946141
 20
-557.7809129580584
 30
0.0
  0
VERTEX
  5
24C4F
  8
1PHANTOM
 10
291.0347478355588
 20
-557.755417568277
 30
0.0
  0
VERTEX
  5
24C50
  8
1PHANTOM
 10
291.0481015651604
 20
-557.7296925172477
 30
0.0
  0
VERTEX
  5
24C51
  8
1PHANTOM
 10
291.0610954866024
 20
-557.7037430043661
 30
0.0
  0
VERTEX
  5
24C52
  8
1PHANTOM
 10
291.0737243030678
 20
-557.6775742290281
 30
0.0
  0
VERTEX
  5
24C53
  8
1PHANTOM
 10
291.0859827177399
 20
-557.6511913906295
 30
0.0
  0
VERTEX
  5
24C54
  8
1PHANTOM
 10
291.0978654338019
 20
-557.6245996885661
 30
0.0
  0
VERTEX
  5
24C55
  8
1PHANTOM
 10
291.1093671544372
 20
-557.5978043222341
 30
0.0
  0
VERTEX
  5
24C56
  8
1PHANTOM
 10
291.120482782296
 20
-557.5708105327371
 30
0.0
  0
VERTEX
  5
24C57
  8
1PHANTOM
 10
291.1312103556366
 20
-557.5436242168264
 30
0.0
  0
VERTEX
  5
24C58
  8
1PHANTOM
 10
291.1415504061472
 20
-557.5162517926236
 30
0.0
  0
VERTEX
  5
24C59
  8
1PHANTOM
 10
291.1515035344291
 20
-557.4886996926595
 30
0.0
  0
VERTEX
  5
24C5A
  8
1PHANTOM
 10
291.1610703410838
 20
-557.4609743494649
 30
0.0
  0
VERTEX
  5
24C5B
  8
1PHANTOM
 10
291.1702514267125
 20
-557.4330821955707
 30
0.0
  0
VERTEX
  5
24C5C
  8
1PHANTOM
 10
291.1790473919168
 20
-557.4050296635078
 30
0.0
  0
VERTEX
  5
24C5D
  8
1PHANTOM
 10
291.1874588372979
 20
-557.3768231858069
 30
0.0
  0
VERTEX
  5
24C5E
  8
1PHANTOM
 10
291.1954863634572
 20
-557.3484691949989
 30
0.0
  0
VERTEX
  5
24C5F
  8
1PHANTOM
 10
291.2031299920873
 20
-557.3199741583236
 30
0.0
  0
VERTEX
  5
24C60
  8
1PHANTOM
 10
291.2103795633028
 20
-557.291345153463
 30
0.0
  0
VERTEX
  5
24C61
  8
1PHANTOM
 10
291.2172162215051
 20
-557.262589779455
 30
0.0
  0
VERTEX
  5
24C62
  8
1PHANTOM
 10
291.2236208316794
 20
-557.2337156520906
 30
0.0
  0
VERTEX
  5
24C63
  8
1PHANTOM
 10
291.2295742588107
 20
-557.2047303871606
 30
0.0
  0
VERTEX
  5
24C64
  8
1PHANTOM
 10
291.235057367884
 20
-557.1756416004558
 30
0.0
  0
VERTEX
  5
24C65
  8
1PHANTOM
 10
291.2400510238847
 20
-557.146456907767
 30
0.0
  0
VERTEX
  5
24C66
  8
1PHANTOM
 10
291.2445360917977
 20
-557.117183924885
 30
0.0
  0
VERTEX
  5
24C67
  8
1PHANTOM
 10
291.2484934366082
 20
-557.0878302676006
 30
0.0
  0
VERTEX
  5
24C68
  8
1PHANTOM
 10
291.2519083046717
 20
-557.0584035792241
 30
0.0
  0
VERTEX
  5
24C69
  8
1PHANTOM
 10
291.2548141189696
 20
-557.0289118056626
 30
0.0
  0
VERTEX
  5
24C6A
  8
1PHANTOM
 10
291.2572741233195
 20
-556.9993630801278
 30
0.0
  0
VERTEX
  5
24C6B
  8
1PHANTOM
 10
291.2593520048566
 20
-556.9697655386159
 30
0.0
  0
VERTEX
  5
24C6C
  8
1PHANTOM
 10
291.2611114507166
 20
-556.940127317123
 30
0.0
  0
VERTEX
  5
24C6D
  8
1PHANTOM
 10
291.2626161480347
 20
-556.9104565516456
 30
0.0
  0
VERTEX
  5
24C6E
  8
1PHANTOM
 10
291.2639297839466
 20
-556.8807613781794
 30
0.0
  0
VERTEX
  5
24C6F
  8
1PHANTOM
 10
291.2651160455875
 20
-556.851049932721
 30
0.0
  0
VERTEX
  5
24C70
  8
1PHANTOM
 10
291.2662386200931
 20
-556.8213303512664
 30
0.0
  0
SEQEND
  5
24E94
  8
1PHANTOM
  0
POLYLINE
  5
244D5
  8
1PHANTOM
 66
     1
 10
0.0
 20
0.0
 30
0.0
  0
VERTEX
  5
24C71
  8
1PHANTOM
 10
274.1662386201211
 20
-556.8213303512664
 30
0.0
  0
VERTEX
  5
24C72
  8
1PHANTOM
 10
274.1667348507441
 20
-556.8473227232168
 30
0.0
  0
VERTEX
  5
24C73
  8
1PHANTOM
 10
274.1673175845077
 20
-556.8733095721635
 30
0.0
  0
VERTEX
  5
24C74
  8
1PHANTOM
 10
274.1680733245526
 20
-556.8992853751027
 30
0.0
  0
VERTEX
  5
24C75
  8
1PHANTOM
 10
274.1690885740193
 20
-556.9252446090312
 30
0.0
  0
VERTEX
  5
24C76
  8
1PHANTOM
 10
274.1704498303549
 20
-556.9511817509552
 30
0.0
  0
VERTEX
  5
24C77
  8
1PHANTOM
 10
274.1722212673717
 20
-556.977091317704
 30
0.0
  0
VERTEX
  5
24C78
  8
1PHANTOM
 10
274.1743941058861
 20
-557.0029679562472
 30
0.0
  0
VERTEX
  5
24C79
  8
1PHANTOM
 10
274.176944688116
 20
-557.0288063400958
 30
0.0
  0
VERTEX
  5
24C7A
  8
1PHANTOM
 10
274.1798493562794
 20
-557.0546011427614
 30
0.0
  0
VERTEX
  5
24C7B
  8
1PHANTOM
 10
274.1830844544414
 20
-557.0803470377656
 30
0.0
  0
VERTEX
  5
24C7C
  8
1PHANTOM
 10
274.1866321497147
 20
-557.1060387326544
 30
0.0
  0
VERTEX
  5
24C7D
  8
1PHANTOM
 10
274.1904933331983
 20
-557.1316710443759
 30
0.0
  0
VERTEX
  5
24C7E
  8
1PHANTOM
 10
274.1946726520104
 20
-557.1572388118248
 30
0.0
  0
VERTEX
  5
24C7F
  8
1PHANTOM
 10
274.1991747532692
 20
-557.1827368738955
 30
0.0
  0
VERTEX
  5
24C80
  8
1PHANTOM
 10
274.2040042840785
 20
-557.208160069483
 30
0.0
  0
VERTEX
  5
24C81
  8
1PHANTOM
 10
274.2091644648773
 20
-557.2335032958637
 30
0.0
  0
VERTEX
  5
24C82
  8
1PHANTOM
 10
274.2146531766689
 20
-557.2587616688098
 30
0.0
  0
VERTEX
  5
24C83
  8
1PHANTOM
 10
274.2204670515674
 20
-557.2839303552004
 30
0.0
  0
VERTEX
  5
24C84
  8
1PHANTOM
 10
274.2266027216863
 20
-557.3090045219141
 30
0.0
  0
VERTEX
  5
24C85
  8
1PHANTOM
 10
274.2330568191398
 20
-557.3339793358296
 30
0.0
  0
VERTEX
  5
24C86
  8
1PHANTOM
 10
274.2398261400992
 20
-557.3588499457585
 30
0.0
  0
VERTEX
  5
24C87
  8
1PHANTOM
 10
274.2469083124573
 20
-557.3836114089172
 30
0.0
  0
VERTEX
  5
24C88
  8
1PHANTOM
 10
274.2543012270464
 20
-557.4082587535659
 30
0.0
  0
VERTEX
  5
24C89
  8
1PHANTOM
 10
274.2620027748009
 20
-557.4327870079524
 30
0.0
  0
VERTEX
  5
24C8A
  8
1PHANTOM
 10
274.2700108466552
 20
-557.4571912003256
 30
0.0
  0
VERTEX
  5
24C8B
  8
1PHANTOM
 10
274.278323339624
 20
-557.4814664920114
 30
0.0
  0
VERTEX
  5
24C8C
  8
1PHANTOM
 10
274.2869381990456
 20
-557.505609102043
 30
0.0
  0
VERTEX
  5
24C8D
  8
1PHANTOM
 10
274.2958533933187
 20
-557.5296157541896
 30
0.0
  0
VERTEX
  5
24C8E
  8
1PHANTOM
 10
274.3050668909846
 20
-557.5534831753378
 30
0.0
  0
VERTEX
  5
24C8F
  8
1PHANTOM
 10
274.3145766605841
 20
-557.5772080923736
 30
0.0
  0
VERTEX
  5
24C90
  8
1PHANTOM
 10
274.3243806285115
 20
-557.6007872148429
 30
0.0
  0
VERTEX
  5
24C91
  8
1PHANTOM
 10
274.3344760862872
 20
-557.624216991086
 30
0.0
  0
VERTEX
  5
24C92
  8
1PHANTOM
 10
274.3448598345313
 20
-557.6474936674731
 30
0.0
  0
VERTEX
  5
24C93
  8
1PHANTOM
 10
274.3555286611101
 20
-557.6706134851269
 30
0.0
  0
VERTEX
  5
24C94
  8
1PHANTOM
 10
274.3664793538898
 20
-557.6935726851698
 30
0.0
  0
VERTEX
  5
24C95
  8
1PHANTOM
 10
274.3777087007367
 20
-557.7163675087247
 30
0.0
  0
VERTEX
  5
24C96
  8
1PHANTOM
 10
274.3892134895169
 20
-557.7389941969141
 30
0.0
  0
VERTEX
  5
24C97
  8
1PHANTOM
 10
274.4009905080967
 20
-557.7614489908608
 30
0.0
  0
VERTEX
  5
24C98
  8
1PHANTOM
 10
274.4130365443426
 20
-557.7837281316876
 30
0.0
  0
VERTEX
  5
24C99
  8
1PHANTOM
 10
274.4253483861204
 20
-557.8058278605167
 30
0.0
  0
VERTEX
  5
24C9A
  8
1PHANTOM
 10
274.4379228212968
 20
-557.8277444184712
 30
0.0
  0
VERTEX
  5
24C9B
  8
1PHANTOM
 10
274.4507566377378
 20
-557.8494740466735
 30
0.0
  0
VERTEX
  5
24C9C
  8
1PHANTOM
 10
274.4638466233096
 20
-557.8710129862466
 30
0.0
  0
VERTEX
  5
24C9D
  8
1PHANTOM
 10
274.4771895658787
 20
-557.8923574783128
 30
0.0
  0
VERTEX
  5
24C9E
  8
1PHANTOM
 10
274.4907822533111
 20
-557.9135037639949
 30
0.0
  0
VERTEX
  5
24C9F
  8
1PHANTOM
 10
274.5046214641322
 20
-557.9344481381631
 30
0.0
  0
VERTEX
  5
24CA0
  8
1PHANTOM
 10
274.5187038284708
 20
-557.9551877495533
 30
0.0
  0
VERTEX
  5
24CA1
  8
1PHANTOM
 10
274.5330258576404
 20
-557.9757204305604
 30
0.0
  0
VERTEX
  5
24CA2
  8
1PHANTOM
 10
274.5475840596213
 20
-557.9960440327576
 30
0.0
  0
VERTEX
  5
24CA3
  8
1PHANTOM
 10
274.5623749423936
 20
-558.016156407718
 30
0.0
  0
VERTEX
  5
24CA4
  8
1PHANTOM
 10
274.5773950139377
 20
-558.0360554070147
 30
0.0
  0
VERTEX
  5
24CA5
  8
1PHANTOM
 10
274.592640782234
 20
-558.055738882221
 30
0.0
  0
VERTEX
  5
24CA6
  8
1PHANTOM
 10
274.6081087552626
 20
-558.0752046849101
 30
0.0
  0
VERTEX
  5
24CA7
  8
1PHANTOM
 10
274.6237954410041
 20
-558.094450666655
 30
0.0
  0
VERTEX
  5
24CA8
  8
1PHANTOM
 10
274.6396973474384
 20
-558.113474679029
 30
0.0
  0
VERTEX
  5
24CA9
  8
1PHANTOM
 10
274.6558109825461
 20
-558.1322745736051
 30
0.0
  0
VERTEX
  5
24CAA
  8
1PHANTOM
 10
274.6721328543074
 20
-558.1508482019567
 30
0.0
  0
VERTEX
  5
24CAB
  8
1PHANTOM
 10
274.6886594707027
 20
-558.1691934156567
 30
0.0
  0
VERTEX
  5
24CAC
  8
1PHANTOM
 10
274.7053873397121
 20
-558.1873080662783
 30
0.0
  0
VERTEX
  5
24CAD
  8
1PHANTOM
 10
274.722312969316
 20
-558.2051900053948
 30
0.0
  0
VERTEX
  5
24CAE
  8
1PHANTOM
 10
274.7394328674947
 20
-558.2228370845794
 30
0.0
  0
VERTEX
  5
24CAF
  8
1PHANTOM
 10
274.7567435432538
 20
-558.2402471588305
 30
0.0
  0
VERTEX
  5
24CB0
  8
1PHANTOM
 10
274.7742416068156
 20
-558.2574184212959
 30
0.0
  0
VERTEX
  5
24CB1
  8
1PHANTOM
 10
274.7919238537541
 20
-558.2743496843541
 30
0.0
  0
VERTEX
  5
24CB2
  8
1PHANTOM
 10
274.8097870994513
 20
-558.2910398265598
 30
0.0
  0
VERTEX
  5
24CB3
  8
1PHANTOM
 10
274.8278281592894
 20
-558.3074877264678
 30
0.0
  0
VERTEX
  5
24CB4
  8
1PHANTOM
 10
274.8460438486506
 20
-558.3236922626329
 30
0.0
  0
VERTEX
  5
24CB5
  8
1PHANTOM
 10
274.8644309829171
 20
-558.3396523136098
 30
0.0
  0
VERTEX
  5
24CB6
  8
1PHANTOM
 10
274.882986377471
 20
-558.3553667579533
 30
0.0
  0
VERTEX
  5
24CB7
  8
1PHANTOM
 10
274.9017068476944
 20
-558.3708344742182
 30
0.0
  0
VERTEX
  5
24CB8
  8
1PHANTOM
 10
274.9205892089694
 20
-558.3860543409593
 30
0.0
  0
VERTEX
  5
24CB9
  8
1PHANTOM
 10
274.9396302766784
 20
-558.4010252367315
 30
0.0
  0
VERTEX
  5
24CBA
  8
1PHANTOM
 10
274.9588268662034
 20
-558.4157460400892
 30
0.0
  0
VERTEX
  5
24CBB
  8
1PHANTOM
 10
274.9781757929265
 20
-558.4302156295875
 30
0.0
  0
VERTEX
  5
24CBC
  8
1PHANTOM
 10
274.9976738722302
 20
-558.444432883781
 30
0.0
  0
VERTEX
  5
24CBD
  8
1PHANTOM
 10
275.0173179194962
 20
-558.4583966812246
 30
0.0
  0
VERTEX
  5
24CBE
  8
1PHANTOM
 10
275.0371047501069
 20
-558.472105900473
 30
0.0
  0
VERTEX
  5
24CBF
  8
1PHANTOM
 10
275.0570311794667
 20
-558.4855594201694
 30
0.0
  0
VERTEX
  5
24CC0
  8
1PHANTOM
 10
275.077094055468
 20
-558.4987562471811
 30
0.0
  0
VERTEX
  5
24CC1
  8
1PHANTOM
 10
275.097290323471
 20
-558.5116957730708
 30
0.0
  0
VERTEX
  5
24CC2
  8
1PHANTOM
 10
275.1176169470388
 20
-558.5243774612435
 30
0.0
  0
VERTEX
  5
24CC3
  8
1PHANTOM
 10
275.1380708897342
 20
-558.536800775104
 30
0.0
  0
VERTEX
  5
24CC4
  8
1PHANTOM
 10
275.1586491151199
 20
-558.5489651780568
 30
0.0
  0
VERTEX
  5
24CC5
  8
1PHANTOM
 10
275.1793485867589
 20
-558.5608701335074
 30
0.0
  0
VERTEX
  5
24CC6
  8
1PHANTOM
 10
275.2001662682139
 20
-558.5725151048599
 30
0.0
  0
VERTEX
  5
24CC7
  8
1PHANTOM
 10
275.2210991230478
 20
-558.5838995555195
 30
0.0
  0
VERTEX
  5
24CC8
  8
1PHANTOM
 10
275.2421441148234
 20
-558.595022948891
 30
0.0
  0
VERTEX
  5
24CC9
  8
1PHANTOM
 10
275.2632982071036
 20
-558.6058847483791
 30
0.0
  0
VERTEX
  5
24CCA
  8
1PHANTOM
 10
275.2845583634513
 20
-558.6164844173888
 30
0.0
  0
VERTEX
  5
24CCB
  8
1PHANTOM
 10
275.305921547429
 20
-558.6268214193249
 30
0.0
  0
VERTEX
  5
24CCC
  8
1PHANTOM
 10
275.3273847226
 20
-558.6368952175922
 30
0.0
  0
VERTEX
  5
24CCD
  8
1PHANTOM
 10
275.3489448525268
 20
-558.6467052755953
 30
0.0
  0
VERTEX
  5
24CCE
  8
1PHANTOM
 10
275.3705989007723
 20
-558.6562510567392
 30
0.0
  0
VERTEX
  5
24CCF
  8
1PHANTOM
 10
275.3923438308995
 20
-558.6655320244289
 30
0.0
  0
VERTEX
  5
24CD0
  8
1PHANTOM
 10
275.4141766049797
 20
-558.6745476252228
 30
0.0
  0
VERTEX
  5
24CD1
  8
1PHANTOM
 10
275.4360941635395
 20
-558.6832970623121
 30
0.0
  0
VERTEX
  5
24CD2
  8
1PHANTOM
 10
275.4580934309051
 20
-558.6917793558957
 30
0.0
  0
VERTEX
  5
24CD3
  8
1PHANTOM
 10
275.4801713310083
 20
-558.6999935217096
 30
0.0
  0
VERTEX
  5
24CD4
  8
1PHANTOM
 10
275.5023247877801
 20
-558.7079385754905
 30
0.0
  0
VERTEX
  5
24CD5
  8
1PHANTOM
 10
275.524550725152
 20
-558.7156135329741
 30
0.0
  0
VERTEX
  5
24CD6
  8
1PHANTOM
 10
275.5468460670554
 20
-558.7230174098969
 30
0.0
  0
VERTEX
  5
24CD7
  8
1PHANTOM
 10
275.5692077374216
 20
-558.7301492219954
 30
0.0
  0
VERTEX
  5
24CD8
  8
1PHANTOM
 10
275.5916326606176
 20
-558.7370079869021
 30
0.0
  0
VERTEX
  5
24CD9
  8
1PHANTOM
 10
275.6141179863246
 20
-558.7435937033113
 30
0.0
  0
VERTEX
  5
24CDA
  8
1PHANTOM
 10
275.6366614571068
 20
-558.7499089514439
 30
0.0
  0
VERTEX
  5
24CDB
  8
1PHANTOM
 10
275.6592609118898
 20
-558.7559567310976
 30
0.0
  0
VERTEX
  5
24CDC
  8
1PHANTOM
 10
275.6819141895996
 20
-558.7617400420701
 30
0.0
  0
VERTEX
  5
24CDD
  8
1PHANTOM
 10
275.704619129162
 20
-558.7672618841592
 30
0.0
  0
VERTEX
  5
24CDE
  8
1PHANTOM
 10
275.7273735695027
 20
-558.7725252571628
 30
0.0
  0
VERTEX
  5
24CDF
  8
1PHANTOM
 10
275.7501753495475
 20
-558.7775331608783
 30
0.0
  0
VERTEX
  5
24CE0
  8
1PHANTOM
 10
275.7730223082224
 20
-558.782288595104
 30
0.0
  0
VERTEX
  5
24CE1
  8
1PHANTOM
 10
275.7959122979
 20
-558.7867930293887
 30
0.0
  0
VERTEX
  5
24CE2
  8
1PHANTOM
 10
275.8188432511892
 20
-558.7910388025641
 30
0.0
  0
VERTEX
  5
24CE3
  8
1PHANTOM
 10
275.8418131303329
 20
-558.7950148811241
 30
0.0
  0
VERTEX
  5
24CE4
  8
1PHANTOM
 10
275.8648198976216
 20
-558.7987102261839
 30
0.0
  0
VERTEX
  5
24CE5
  8
1PHANTOM
 10
275.8878615153456
 20
-558.8021137988578
 30
0.0
  0
VERTEX
  5
24CE6
  8
1PHANTOM
 10
275.9109359457953
 20
-558.8052145602611
 30
0.0
  0
VERTEX
  5
24CE7
  8
1PHANTOM
 10
275.934041151261
 20
-558.8080014715088
 30
0.0
  0
VERTEX
  5
24CE8
  8
1PHANTOM
 10
275.9571750940331
 20
-558.8104634937154
 30
0.0
  0
VERTEX
  5
24CE9
  8
1PHANTOM
 10
275.9803357236557
 20
-558.8125902516343
 30
0.0
  0
VERTEX
  5
24CEA
  8
1PHANTOM
 10
276.0035205615503
 20
-558.8143936604016
 30
0.0
  0
VERTEX
  5
24CEB
  8
1PHANTOM
 10
276.0267266091104
 20
-558.8159127106437
 30
0.0
  0
VERTEX
  5
24CEC
  8
1PHANTOM
 10
276.0499508363836
 20
-558.8171880250069
 30
0.0
  0
VERTEX
  5
24CED
  8
1PHANTOM
 10
276.0731902134178
 20
-558.8182602261377
 30
0.0
  0
VERTEX
  5
24CEE
  8
1PHANTOM
 10
276.0964417102609
 20
-558.8191699366826
 30
0.0
  0
VERTEX
  5
24CEF
  8
1PHANTOM
 10
276.1197022969607
 20
-558.819957779288
 30
0.0
  0
VERTEX
  5
24CF0
  8
1PHANTOM
 10
276.1429689435648
 20
-558.8206643766003
 30
0.0
  0
VERTEX
  5
24CF1
  8
1PHANTOM
 10
276.166238620121
 20
-558.8213303512664
 30
0.0
  0
SEQEND
  5
24E95
  8
1PHANTOM
  0
CIRCLE
  5
244D6
  8
1PHANTOM
 10
282.716238620107
 20
-553.8213303512664
 30
0.0
 40
1.65
  0
LINE
  5
244D7
  8
1PHANTOM
 10
290.266238620093
 20
-538.8213303512664
 30
0.0
 11
275.166238620121
 21
-538.8213303512664
 31
0.0
  0
LINE
  5
244D8
  8
01
 10
295.5162392311789
 20
-571.5213311738105
 30
0.0
 11
307.2162435703971
 21
-571.5213311738105
 31
0.0
  0
ARC
  5
244D9
  8
01
 10
307.2162401133274
 20
-572.0213303512666
 30
0.0
 40
0.5
 50
0.0
 51
90.0
  0
ARC
  5
244DA
  8
01
 10
273.4162401133276
 20
-591.1213303512664
 30
0.0
 40
1.0
 50
180.0
 51
270.0
  0
LINE
  5
244DB
  8
01
 10
307.2162435703971
 20
-592.1213297075362
 30
0.0
 11
273.4162376576162
 21
-592.1213297075362
 31
0.0
  0
ARC
  5
244DC
  8
01
 10
295.5162401133274
 20
-569.0213303512666
 30
0.0
 40
2.500000000000057
 50
180.0
 51
270.0
  0
ARC
  5
244DD
  8
01
 10
307.2162401133274
 20
-591.6213303512664
 30
0.0
 40
0.5
 50
270.0
 51
0.0
  0
LINE
  5
244DE
  8
01
 10
293.0162416153647
 20
-535.8213303512664
 30
0.0
 11
293.0162416153647
 21
-569.021329832706
 31
0.0
  0
LINE
  5
244DF
  8
01
 10
293.0162416153647
 20
-535.8213303512664
 30
0.0
 11
272.4162356310583
 21
-535.8213303512664
 31
0.0
  0
LINE
  5
244E0
  8
01
 10
272.4162356310583
 20
-591.1213314062686
 30
0.0
 11
272.4162356310583
 21
-535.8213303512664
 31
0.0
  0
LINE
  5
244E1
  8
01
 10
307.7162371330955
 20
-591.1213314062686
 30
0.0
 11
307.7162371330955
 21
-572.5213294750781
 31
0.0
  0
LINE
  5
244E2
  8
01
 10
307.7162371330955
 20
-572.5213294750781
 30
0.0
 11
307.7162371330955
 21
-571.8213288015456
 31
0.0
  0
LINE
  5
244E3
  8
01
 10
307.7162371330955
 20
-591.8213320798011
 30
0.0
 11
307.7162371330955
 21
-591.1213314062686
 31
0.0
  0
LINE
  5
244E6
  8
1CENTER
 10
282.7162386232114
 20
-540.3213303512664
 30
0.0
 11
282.7162386232114
 21
-533.3213303512664
 31
0.0
  0
LINE
  5
24561
  8
01
 10
607.7162416153651
 20
-665.1213303512659
 30
0.0
 11
607.7162416153651
 21
-665.6213303512659
 31
0.0
  0
ARC
  5
24562
  8
01
 10
608.2162416153653
 20
-665.6213303512659
 30
0.0
 40
0.5000000000000568
 50
180.0
 51
270.0
  0
ARC
  5
24563
  8
01
 10
642.0162416153653
 20
-646.5213303512669
 30
0.0
 40
1.0
 50
0.0
 51
90.0
  0
LINE
  5
24564
  8
01
 10
642.0162416153653
 20
-645.5213303512669
 30
0.0
 11
608.2162416153653
 21
-645.5213303512669
 31
0.0
  0
LINE
  5
24565
  8
01
 10
607.7162416153651
 20
-646.0213303512669
 30
0.0
 11
607.7162416153651
 21
-646.5213303512669
 31
0.0
  0
ARC
  5
24566
  8
01
 10
608.2162416153653
 20
-646.0213303512669
 30
0.0
 40
0.5000000000000568
 50
90.0
 51
180.0
  0
ARC
  5
24567
  8
01
 10
642.0162416153653
 20
-665.1213303512659
 30
0.0
 40
1.0
 50
270.0
 51
0.0
  0
LINE
  5
24568
  8
01
 10
608.2162416153653
 20
-666.1213303512659
 30
0.0
 11
642.0162416153653
 21
-666.1213303512659
 31
0.0
  0
LINE
  5
24569
  8
01
 10
643.0162416153653
 20
-665.1213303512659
 30
0.0
 11
643.0162416153653
 21
-646.5213303512669
 31
0.0
  0
LINE
  5
2456A
  8
01
 10
607.7162416153651
 20
-646.5213303512669
 30
0.0
 11
607.7162416153651
 21
-665.1213303512659
 31
0.0
  0
LINE
  5
24590
  8
01
  6
CONTINUOUS
 10
283.7162386232114
 20
-652.5713303522509
 30
0.0
 11
281.7162386232114
 21
-652.5713303522509
 31
0.0
  0
LINE
  5
24591
  8
1CENTER
 10
286.9662386232114
 20
-654.8213303438816
 30
0.0
 11
278.4662386232114
 21
-654.8213303522509
 31
0.0
  0
LINE
  5
24593
  8
01
  6
CONTINUOUS
 10
283.7162386232114
 20
-657.0713303522509
 30
0.0
 11
281.7162386232114
 21
-657.0713303522509
 31
0.0
  0
ARC
  5
24595
  8
01
 10
281.7162386232114
 20
-654.8213303522509
 30
0.0
 40
2.25
 50
90.0
 51
180.0
  0
ARC
  5
24596
  8
01
 10
281.7162386232114
 20
-654.8213303522509
 30
0.0
 40
2.25
 50
180.0
 51
270.0
  0
ARC
  5
24597
  8
01
 10
283.7162386232114
 20
-654.8213303522509
 30
0.0
 40
2.25
 50
0.0
 51
90.0
  0
ARC
  5
24598
  8
01
 10
283.7162386232114
 20
-654.8213303522509
 30
0.0
 40
2.25
 50
270.0
 51
0.0
  0
LINE
  5
24599
  8
1CENTER
 10
282.7162386232114
 20
-651.5713303522509
 30
0.0
 11
282.7162386232114
 21
-658.0713303522509
 31
0.0
  0
LINE
  5
2459A
  8
01
 10
307.7162356310578
 20
-665.1213303512659
 30
0.0
 11
307.7162356310578
 21
-665.6213303512659
 31
0.0
  0
ARC
  5
2459B
  8
01
 10
307.2162356310575
 20
-665.6213303512659
 30
0.0
 40
0.5000000000000568
 50
270.0
 51
0.0
  0
ARC
  5
2459C
  8
01
 10
273.4162356310576
 20
-646.5213303512669
 30
0.0
 40
1.0
 50
90.0
 51
180.0
  0
LINE
  5
2459D
  8
01
 10
273.4162356310576
 20
-645.5213303512669
 30
0.0
 11
307.2162356310575
 21
-645.5213303512669
 31
0.0
  0
LINE
  5
2459E
  8
01
 10
307.7162356310578
 20
-646.0213303512669
 30
0.0
 11
307.7162356310578
 21
-646.5213303512669
 31
0.0
  0
ARC
  5
2459F
  8
01
 10
307.2162356310575
 20
-646.0213303512669
 30
0.0
 40
0.5000000000000568
 50
0.0
 51
90.0
  0
ARC
  5
245A0
  8
01
 10
273.4162356310576
 20
-665.1213303512659
 30
0.0
 40
1.0
 50
180.0
 51
270.0
  0
LINE
  5
245A1
  8
01
 10
307.2162356310575
 20
-666.1213303512659
 30
0.0
 11
273.4162356310576
 21
-666.1213303512659
 31
0.0
  0
LINE
  5
245A2
  8
01
 10
272.4162356310576
 20
-665.1213303512659
 30
0.0
 11
272.4162356310576
 21
-646.5213303512669
 31
0.0
  0
LINE
  5
245A3
  8
01
 10
307.7162356310578
 20
-646.5213303512669
 30
0.0
 11
307.7162356310578
 21
-665.1213303512659
 31
0.0
  0
LINE
  5
245A4
  8
01
 10
607.7162416153651
 20
-665.8213319903941
 30
0.0
 11
307.7162386351333
 21
-665.8213319903941
 31
0.0
  0
LINE
  5
245A5
  8
01
 10
307.7162386351333
 20
-645.8213287121387
 30
0.0
 11
607.7162416153651
 21
-645.8213287121387
 31
0.0
  0
LINE
  5
245A6
  8
01
 10
607.7162416153651
 20
-645.8213287121387
 30
0.0
 11
607.7162416153651
 21
-665.8213319903941
 31
0.0
  0
LINE
  5
245A7
  8
01
 10
307.7162386351333
 20
-645.8213287121387
 30
0.0
 11
307.7162386351333
 21
-665.8213319903941
 31
0.0
  0
LINE
  5
245EF
  8
01
 10
707.7162416153651
 20
-666.1213303512648
 30
0.0
 11
763.0162416153653
 21
-666.1213303512648
 31
0.0
  0
LINE
  5
245F0
  8
01
 10
763.0162416153653
 20
-645.5213303512658
 30
0.0
 11
763.0162416153653
 21
-666.1213303512648
 31
0.0
  0
LINE
  5
245F1
  8
01
 10
763.0162416153653
 20
-645.5213303512658
 30
0.0
 11
707.7162416153651
 21
-645.5213303512658
 31
0.0
  0
ARC
  5
245F3
  8
01
 10
707.7162416153651
 20
-665.1213303512648
 30
0.0
 40
1.0
 50
180.0
 51
270.0
  0
LINE
  5
245F4
  8
01
 10
706.7162416153651
 20
-646.5213303512658
 30
0.0
 11
706.7162416153651
 21
-665.1213303512648
 31
0.0
  0
ARC
  5
245F5
  8
01
 10
707.7162416153651
 20
-646.5213303512658
 30
0.0
 40
1.0
 50
90.0
 51
180.0
  0
LINE
  5
24816
  8
1HATCH
 10
746.6662416153652
 20
-664.2213303612651
 30
0.0
 11
747.0162416153653
 21
-664.57133018719
 31
0.0
  0
TEXT
  5
24828
  8
01
  6
CONTINUOUS
 10
769.7537571261878
 20
-611.3902613041461
 30
0.0
 40
3.5
  1
PB
  0
TEXT
  5
24829
  8
01
  6
CONTINUOUS
 10
782.889175271353
 20
-611.3902613041461
 30
0.0
 40
3.5
  1
合板9mm以上
  0
LINE
  5
2482A
  8
01
 10
743.0162416153654
 20
-658.2213303612649
 30
0.0
 11
743.0162416153654
 21
-664.5713301871909
 31
0.0
  0
LINE
  5
2482B
  8
01
 10
743.0162416153654
 20
-664.5713301871909
 30
0.0
 11
742.0162416153654
 21
-665.571330261265
 31
0.0
  0
LINE
  5
2482C
  8
01
 10
742.0162416153654
 20
-665.5713302612648
 30
0.0
 11
742.0162416153654
 21
-665.8713303612649
 31
0.0
  0
LINE
  5
2482D
  8
01
 10
742.0162416153654
 20
-665.8713303612649
 30
0.0
 11
748.0162416153654
 21
-665.8713303612649
 31
0.0
  0
LINE
  5
2482E
  8
01
 10
748.0162416153654
 20
-665.5713303512649
 30
0.0
 11
748.0162416153654
 21
-665.8713303612649
 31
0.0
  0
LINE
  5
2482F
  8
01
 10
747.0162416153654
 20
-664.5713301871909
 30
0.0
 11
748.0162416603654
 21
-665.5713303062649
 31
0.0
  0
LINE
  5
24830
  8
01
 10
747.0162416153654
 20
-658.2213303612649
 30
0.0
 11
747.0162416153654
 21
-664.5713301871909
 31
0.0
  0
LINE
  5
24831
  8
01
 10
746.6662416153653
 20
-657.8713303612649
 30
0.0
 11
747.0162416153654
 21
-658.2213303612649
 31
0.0
  0
LINE
  5
24832
  8
01
 10
743.3662416153654
 20
-657.8713303612649
 30
0.0
 11
746.6662416153653
 21
-657.8713303612649
 31
0.0
  0
LINE
  5
24833
  8
01
 10
743.0162416153654
 20
-658.2213303612649
 30
0.0
 11
743.3662416153654
 21
-657.8713303612649
 31
0.0
  0
LINE
  5
24834
  8
1DIM1
 10
282.7162386232114
 20
-658.0713303522509
 30
0.0
 11
282.7162386232114
 21
-704.4213303512674
 31
0.0
1001
ACAD
1000
DSTYLE
1002
{
1070
    40
1040
3.0
1070
    45
1040
0.5
1002
}
  0
LINE
  5
24835
  8
1DIM1
 10
632.7162386232114
 20
-658.0713303522509
 30
0.0
 11
632.7162386232114
 21
-704.4213303512674
 31
0.0
1001
ACAD
1000
DSTYLE
1002
{
1070
    40
1040
3.0
1070
    45
1040
0.5
1002
}
  0
LINE
  5
24836
  8
1DIM1
 10
288.7162386232114
 20
-701.4213303512674
 30
0.0
 11
626.7162386232114
 21
-701.4213303512674
 31
0.0
1001
ACAD
1000
DSTYLE
1002
{
1070
    40
1040
3.0
1070
    45
1040
0.5
1002
}
  0
SOLID
  5
2483A
  8
1DIM
 10
592.5377303133876
 20
-644.17141288937
 30
0.0
 11
593.7162416153651
 21
-645.8213287121387
 31
0.0
 12
592.0663257925964
 22
-644.6428174101611
 32
0.0
 13
592.0663257925964
 23
-644.6428174101611
 33
0.0
1001
ACAD
1000
DSTYLE
1002
{
1070
    45
1040
0.5
1002
}
  0
LINE
  5
2483B
  8
1DIM
 10
592.302028052992
 20
-644.4071151497656
 30
0.0
 11
579.7162416153651
 21
-631.8213287121387
 31
0.0
1001
ACAD
1000
DSTYLE
1002
{
1070
    45
1040
0.5
1002
}
  0
LINE
  5
2483C
  8
1DIM
 10
579.7162416153651
 20
-631.8213287121387
 30
0.0
 11
556.9495749486985
 21
-631.8213287121387
 31
0.0
1001
ACAD
1000
DSTYLE
1002
{
1070
    45
1040
0.5
1002
}
  0
TEXT
  5
2483D
  8
1DIM
  6
CONTINUOUS
 10
557.416241615365
 20
-631.3213287121387
 30
0.0
 40
3.5
  1
材質：真鍮
  0
LINE
  5
2483E
  8
1DIM
 10
544.2458307863246
 20
-591.8213302916618
 30
0.0
 11
543.2458307863246
 21
-591.8213302916618
 31
0.0
1001
ACAD
1000
DSTYLE
1002
{
1070
    70
1070
     0
1070
    69
1070
     0
1070
    45
1040
0.5
1002
}
  0
LINE
  5
2483F
  8
1DIM
 10
544.2458307863246
 20
-571.821330410871
 30
0.0
 11
543.2458307863246
 21
-571.821330410871
 31
0.0
1001
ACAD
1000
DSTYLE
1002
{
1070
    70
1070
     0
1070
    69
1070
     0
1070
    45
1040
0.5
1002
}
  0
LINE
  5
24840
  8
1DIM
 10
544.2458307863246
 20
-571.821330410871
 30
0.0
 11
544.2458307863246
 21
-562.7546637442042
 31
0.0
1001
ACAD
1000
DSTYLE
1002
{
1070
    70
1070
     0
1070
    69
1070
     0
1070
    45
1040
0.5
1002
}
  0
LINE
  5
24841
  8
1DIM
 10
544.2458307863246
 20
-589.8213302916618
 30
0.0
 11
544.2458307863246
 21
-573.821330410871
 31
0.0
1001
ACAD
1000
DSTYLE
1002
{
1070
    70
1070
     0
1070
    69
1070
     0
1070
    45
1040
0.5
1002
}
  0
LINE
  5
24845
  8
1DIM
 10
706.7162416153651
 20
-665.1213303512648
 30
0.0
 11
706.7162416153651
 21
-686.4931567659847
 31
0.0
1001
ACAD
1000
DSTYLE
1002
{
1070
    45
1040
0.5
1002
}
  0
LINE
  5
24846
  8
1DIM
 10
763.0162416153653
 20
-667.1213303512653
 30
0.0
 11
763.0162416153653
 21
-686.4931567659847
 31
0.0
1001
ACAD
1000
DSTYLE
1002
{
1070
    45
1040
0.5
1002
}
  0
LINE
  5
24847
  8
1DIM
 10
708.7162416153651
 20
-685.4931567659847
 30
0.0
 11
761.0162416153653
 21
-685.4931567659847
 31
0.0
1001
ACAD
1000
DSTYLE
1002
{
1070
    45
1040
0.5
1002
}
  0
LINE
  5
2484B
  8
1DIM
 10
763.0162416153653
 20
-675.4931567659847
 30
0.0
 11
763.0162416153653
 21
-674.4931567659847
 31
0.0
1001
ACAD
1000
DSTYLE
1002
{
1070
    45
1040
0.5
1002
}
  0
LINE
  5
2484C
  8
1DIM
 10
745.0162416153653
 20
-667.8713303612648
 30
0.0
 11
745.0162416153653
 21
-676.4931567659847
 31
0.0
1001
ACAD
1000
DSTYLE
1002
{
1070
    45
1040
0.5
1002
}
  0
LINE
  5
2484D
  8
1DIM
 10
761.0162416153653
 20
-675.4931567659847
 30
0.0
 11
747.0162416153653
 21
-675.4931567659847
 31
0.0
1001
ACAD
1000
DSTYLE
1002
{
1070
    45
1040
0.5
1002
}
  0
LINE
  5
24851
  8
1DIM
 10
795.4470365337955
 20
-654.8213303481621
 30
0.0
 11
805.5162416153653
 21
-654.8213303481621
 31
0.0
1001
ACAD
1000
DSTYLE
1002
{
1070
    45
1040
0.5
1070
   271
1070
     0
1002
}
  0
LINE
  5
24852
  8
1DIM
 10
763.0162416153653
 20
-645.5213303512658
 30
0.0
 11
805.5162416153653
 21
-645.5213303512658
 31
0.0
1001
ACAD
1000
DSTYLE
1002
{
1070
    45
1040
0.5
1070
   271
1070
     0
1002
}
  0
LINE
  5
24853
  8
1DIM
 10
804.5162416153653
 20
-652.8213303481621
 30
0.0
 11
804.5162416153653
 21
-647.5213303512658
 31
0.0
1001
ACAD
1000
DSTYLE
1002
{
1070
    45
1040
0.5
1070
   271
1070
     0
1002
}
  0
LINE
  5
24857
  8
1DIM1
 10
272.4162356310576
 20
-665.1213303512659
 30
0.0
 11
272.4162356310576
 21
-734.4213303512677
 31
0.0
1001
ACAD
1000
DSTYLE
1002
{
1070
    40
1040
3.0
1070
    45
1040
0.5
1002
}
  0
LINE
  5
24858
  8
1DIM1
 10
643.0162416153653
 20
-652.9748735941021
 30
0.0
 11
643.0162416153653
 21
-734.4213303512677
 31
0.0
1001
ACAD
1000
DSTYLE
1002
{
1070
    40
1040
3.0
1070
    45
1040
0.5
1002
}
  0
LINE
  5
24859
  8
1DIM1
 10
278.4162356310576
 20
-731.4213303512677
 30
0.0
 11
637.0162416153653
 21
-731.4213303512677
 31
0.0
1001
ACAD
1000
DSTYLE
1002
{
1070
    40
1040
3.0
1070
    45
1040
0.5
1002
}
  0
LINE
  5
2485D
  8
1DIM
 10
763.0162416153653
 20
-666.1213303512648
 30
0.0
 11
815.5162416153653
 21
-666.1213303512648
 31
0.0
1001
ACAD
1000
DSTYLE
1002
{
1070
    45
1040
0.5
1002
}
  0
LINE
  5
2485E
  8
1DIM
 10
763.0162416153653
 20
-645.5213303512658
 30
0.0
 11
815.5162416153653
 21
-645.5213303512658
 31
0.0
1001
ACAD
1000
DSTYLE
1002
{
1070
    45
1040
0.5
1002
}
  0
LINE
  5
2485F
  8
1DIM
 10
814.5162416153653
 20
-664.1213303512648
 30
0.0
 11
814.5162416153653
 21
-647.5213303512658
 31
0.0
1001
ACAD
1000
DSTYLE
1002
{
1070
    45
1040
0.5
1002
}
  0
LINE
  5
24863
  8
1DIM
 10
643.0162416153646
 20
-535.8213303512664
 30
0.0
 11
643.0162416153646
 21
-499.8213303512664
 31
0.0
1001
ACAD
1000
DSTYLE
1002
{
1070
    45
1040
0.5
1002
}
  0
LINE
  5
24864
  8
1DIM
 10
622.4162356310582
 20
-535.8213303512664
 30
0.0
 11
622.4162356310582
 21
-499.8213303512664
 31
0.0
1001
ACAD
1000
DSTYLE
1002
{
1070
    45
1040
0.5
1002
}
  0
LINE
  5
24865
  8
1DIM
 10
641.0162416153646
 20
-500.8213303512664
 30
0.0
 11
624.4162356310582
 21
-500.8213303512664
 31
0.0
1001
ACAD
1000
DSTYLE
1002
{
1070
    45
1040
0.5
1002
}
  0
SOLID
  5
24869
  8
1DIM
 10
766.6708479197656
 20
-624.9354292138304
 30
0.0
 11
765.9299131930727
 21
-626.8227889680616
 31
0.0
 12
766.0186807169505
 22
-624.7971455054019
 32
0.0
 13
766.0186807169505
 23
-624.7971455054019
 33
0.0
1001
ACAD
1000
DSTYLE
1002
{
1070
    45
1040
0.5
1002
}
  0
LINE
  5
2486A
  8
1DIM
 10
766.344764318358
 20
-624.8662873596161
 30
0.0
 11
769.0537571261877
 21
-612.0902613041461
 31
0.0
1001
ACAD
1000
DSTYLE
1002
{
1070
    45
1040
0.5
1002
}
  0
SOLID
  5
2486B
  8
1DIM
 10
779.8062660649308
 20
-624.9354292138304
 30
0.0
 11
779.0653313382379
 21
-626.8227889680616
 31
0.0
 12
779.1540988621157
 22
-624.7971455054019
 32
0.0
 13
779.1540988621157
 23
-624.7971455054019
 33
0.0
1001
ACAD
1000
DSTYLE
1002
{
1070
    45
1040
0.5
1002
}
  0
LINE
  5
2486C
  8
1DIM
 10
779.4801824635232
 20
-624.8662873596161
 30
0.0
 11
782.189175271353
 21
-612.0902613041461
 31
0.0
1001
ACAD
1000
DSTYLE
1002
{
1070
    45
1040
0.5
1002
}
  0
LINE
  5
2486D
  8
0
 10
632.7162851591094
 20
-504.8213303514287
 30
0.0
 11
631.2162851591094
 21
-510.1213268612904
 31
0.0
  0
LINE
  5
2486E
  8
0
 10
631.2162851591094
 20
-510.1213268612904
 30
0.0
 11
631.2162851591096
 21
-539.8213268611823
 31
0.0
  0
LINE
  5
2486F
  8
0
 10
632.7162851591094
 20
-504.8213303514287
 30
0.0
 11
634.2162851591095
 21
-510.1213338416741
 31
0.0
  0
LINE
  5
24870
  8
0
 10
629.2162386232116
 20
-539.8213222074842
 30
0.0
 11
636.2162386232114
 21
-539.8213384950486
 31
0.0
  0
LINE
  5
24871
  8
0
 10
634.2162851591095
 20
-510.1213338416741
 30
0.0
 11
634.2162851591096
 21
-539.821333841567
 31
0.0
  0
LINE
  5
24872
  8
0
 10
629.2162386232116
 20
-539.8213222074842
 30
0.0
 11
629.2162386232114
 21
-540.9213256976795
 31
0.0
  0
ARC
  5
24873
  8
0
 10
630.7162386232114
 20
-540.9213256976795
 30
0.0
 40
1.5
 50
180.0
 51
269.9998666844662
  0
LINE
  5
24874
  8
0
 10
636.2162386232114
 20
-539.8213384950486
 30
0.0
 11
636.2162386232114
 21
-540.9213350048592
 31
0.0
  0
LINE
  5
24875
  8
0
 10
630.716235133019
 20
-542.4213256976755
 30
0.0
 11
634.716235133019
 21
-542.4213350048551
 31
0.0
  0
ARC
  5
24876
  8
0
 10
634.7162386232114
 20
-540.9213350048592
 30
0.0
 40
1.5
 50
269.9998666844662
 51
0.0
  0
LINE
  5
24877
  8
1CENTER
 10
632.7162386232114
 20
-503.3905354339634
 30
0.0
 11
632.7162386232114
 21
-543.4916067605752
 31
0.0
  0
LINE
  5
24878
  8
0
 10
631.6219148092164
 20
-506.9213278051066
 30
0.0
 11
633.5842498980918
 21
-506.1213323710556
 31
0.0
  0
LINE
  5
24879
  8
0
 10
633.5842498980918
 20
-506.1213323710556
 30
0.0
 11
632.9959733230494
 21
-505.8095625148035
 31
0.0
  0
LINE
  5
2487A
  8
0
 10
630.7162851591094
 20
-529.3213256978966
 30
0.0
 11
634.7162851591094
 21
-528.5213350050783
 31
0.0
  0
LINE
  5
2487B
  8
0
 10
630.7162851591094
 20
-518.1213256978922
 30
0.0
 11
634.7162851591094
 21
-517.3213350050696
 31
0.0
  0
LINE
  5
2487C
  8
0
 10
630.7162851591094
 20
-514.9213256978921
 30
0.0
 11
634.7162851591094
 21
-514.1213350050696
 31
0.0
  0
LINE
  5
2487D
  8
0
 10
634.7162851591094
 20
-514.1213350050696
 30
0.0
 11
634.2162851591094
 21
-514.0213338416723
 31
0.0
  0
LINE
  5
2487E
  8
0
 10
631.2162851591094
 20
-513.4213268612893
 30
0.0
 11
630.7162851591094
 21
-513.3213256978921
 31
0.0
  0
LINE
  5
2487F
  8
0
 10
634.7162851591094
 20
-517.3213350050696
 30
0.0
 11
634.2162851591094
 21
-517.2213338416724
 31
0.0
  0
LINE
  5
24880
  8
0
 10
634.7162851591094
 20
-515.7213350050695
 30
0.0
 11
634.2162851591094
 21
-515.6213338416724
 31
0.0
  0
LINE
  5
24881
  8
0
 10
631.2162851591094
 20
-515.0213268612893
 30
0.0
 11
630.7162851591094
 21
-514.9213256978921
 31
0.0
  0
LINE
  5
24882
  8
0
 10
631.2162851591094
 20
-516.6213268612892
 30
0.0
 11
630.7162851591094
 21
-516.521325697892
 31
0.0
  0
LINE
  5
24883
  8
0
 10
630.7162851591094
 20
-516.521325697892
 30
0.0
 11
634.7162851591094
 21
-515.7213350050695
 31
0.0
  0
LINE
  5
24884
  8
0
 10
634.0370640024986
 20
-507.7213334246612
 30
0.0
 11
633.4853145386953
 21
-507.5385692820332
 31
0.0
  0
LINE
  5
24885
  8
0
 10
634.7162851591094
 20
-510.9213350050695
 30
0.0
 11
634.2162851591094
 21
-510.8213338416724
 31
0.0
  0
LINE
  5
24886
  8
0
 10
634.7162851591094
 20
-512.5213350050695
 30
0.0
 11
634.2162851591094
 21
-512.4213338416725
 31
0.0
  0
LINE
  5
24887
  8
0
 10
634.4898781069054
 20
-509.3213344782669
 30
0.0
 11
633.9532843716343
 21
-509.192063780637
 31
0.0
  0
LINE
  5
24888
  8
0
 10
631.6371997563181
 20
-508.6340962638524
 30
0.0
 11
631.1691013011681
 21
-508.5213267515023
 31
0.0
  0
LINE
  5
24889
  8
0
 10
631.2162851591094
 20
-511.8213268612892
 30
0.0
 11
630.7162851591094
 21
-511.7213256978921
 31
0.0
  0
LINE
  5
2488A
  8
0
 10
631.2162851591094
 20
-510.2213268612893
 30
0.0
 11
630.7162851591094
 21
-510.1213256978922
 31
0.0
  0
LINE
  5
2488B
  8
0
 10
632.0790866498475
 20
-507.072763601547
 30
0.0
 11
631.6219148092164
 21
-506.9213278051066
 31
0.0
  0
LINE
  5
2488C
  8
0
 10
631.1691013011681
 20
-508.5213267515023
 30
0.0
 11
634.0370640024986
 21
-507.7213334246612
 31
0.0
  0
LINE
  5
2488D
  8
0
 10
630.7162851591094
 20
-511.7213256978921
 30
0.0
 11
634.7162851591094
 21
-510.9213350050695
 31
0.0
  0
LINE
  5
2488E
  8
0
 10
630.7162851591094
 20
-510.1213256978922
 30
0.0
 11
634.4898781069054
 21
-509.3213344782669
 31
0.0
  0
LINE
  5
2488F
  8
0
 10
630.7162851591094
 20
-513.3213256978921
 30
0.0
 11
634.7162851591094
 21
-512.5213350050695
 31
0.0
  0
LINE
  5
24890
  8
0
 10
630.7162851591094
 20
-526.1213256978965
 30
0.0
 11
634.7162851591094
 21
-525.3213350050783
 31
0.0
  0
LINE
  5
24891
  8
0
 10
634.7162851591094
 20
-525.3213350050783
 30
0.0
 11
634.2162851591094
 21
-525.2213338416806
 31
0.0
  0
LINE
  5
24892
  8
0
 10
631.2162851591094
 20
-524.6213268612898
 30
0.0
 11
630.7162851591094
 21
-524.5213256978922
 31
0.0
  0
LINE
  5
24893
  8
0
 10
634.7162851591094
 20
-526.9213350050784
 30
0.0
 11
634.2162851591094
 21
-526.8213338416807
 31
0.0
  0
LINE
  5
24894
  8
0
 10
634.7162851591094
 20
-528.5213350050783
 30
0.0
 11
634.2162851591094
 21
-528.4213338416806
 31
0.0
  0
LINE
  5
24895
  8
0
 10
631.2162851591094
 20
-526.2213268612942
 30
0.0
 11
630.7162851591094
 21
-526.1213256978965
 31
0.0
  0
LINE
  5
24896
  8
0
 10
631.2162851591094
 20
-527.8213268612943
 30
0.0
 11
630.7162851591094
 21
-527.7213256978966
 31
0.0
  0
LINE
  5
24897
  8
0
 10
630.7162851591094
 20
-527.7213256978966
 30
0.0
 11
634.7162851591094
 21
-526.9213350050784
 31
0.0
  0
LINE
  5
24898
  8
0
 10
634.7162851591094
 20
-520.5213350050739
 30
0.0
 11
634.2162851591094
 21
-520.4213338416762
 31
0.0
  0
LINE
  5
24899
  8
0
 10
634.7162851591094
 20
-518.9213350050695
 30
0.0
 11
634.2162851591094
 21
-518.8213338416724
 31
0.0
  0
LINE
  5
2489A
  8
0
 10
634.7162851591094
 20
-523.7213350050739
 30
0.0
 11
634.2162851591094
 21
-523.6213338416762
 31
0.0
  0
LINE
  5
2489B
  8
0
 10
634.7162851591094
 20
-522.121335005074
 30
0.0
 11
634.2162851591094
 21
-522.0213338416763
 31
0.0
  0
LINE
  5
2489C
  8
0
 10
631.2162851591094
 20
-518.2213268612893
 30
0.0
 11
630.7162851591094
 21
-518.1213256978922
 31
0.0
  0
LINE
  5
2489D
  8
0
 10
631.2162851591094
 20
-519.8213268612899
 30
0.0
 11
630.7162851591094
 21
-519.7213256978921
 31
0.0
  0
LINE
  5
2489E
  8
0
 10
631.2162851591094
 20
-523.0213268612899
 30
0.0
 11
630.7162851591094
 21
-522.9213256978923
 31
0.0
  0
LINE
  5
2489F
  8
0
 10
631.2162851591094
 20
-521.4213268612898
 30
0.0
 11
630.7162851591094
 21
-521.3213256978921
 31
0.0
  0
LINE
  5
248A0
  8
0
 10
630.7162851591094
 20
-521.3213256978921
 30
0.0
 11
634.7162851591094
 21
-520.5213350050739
 31
0.0
  0
LINE
  5
248A1
  8
0
 10
630.7162851591094
 20
-519.7213256978921
 30
0.0
 11
634.7162851591094
 21
-518.9213350050695
 31
0.0
  0
LINE
  5
248A2
  8
0
 10
630.7162851591094
 20
-522.9213256978923
 30
0.0
 11
634.7162851591094
 21
-522.121335005074
 31
0.0
  0
LINE
  5
248A3
  8
0
 10
630.7162851591094
 20
-524.5213256978922
 30
0.0
 11
634.7162851591094
 21
-523.7213350050739
 31
0.0
  0
LINE
  5
248A4
  8
0
 10
631.2162851591094
 20
-534.2213268612984
 30
0.0
 11
630.7162851591094
 21
-534.1213256979007
 31
0.0
  0
LINE
  5
248A5
  8
0
 10
630.7162851591094
 20
-534.1213256979007
 30
0.0
 11
634.7162851591094
 21
-533.3213350050825
 31
0.0
  0
LINE
  5
248A6
  8
0
 10
634.7162851591094
 20
-533.3213350050825
 30
0.0
 11
634.2162851591094
 21
-533.2213338416848
 31
0.0
  0
LINE
  5
248A7
  8
0
 10
631.2162851591094
 20
-532.6213268612985
 30
0.0
 11
630.7162851591094
 21
-532.5213256979008
 31
0.0
  0
LINE
  5
248A8
  8
0
 10
631.2162851591094
 20
-531.0213268612986
 30
0.0
 11
630.7162851591094
 21
-530.9213256979009
 31
0.0
  0
LINE
  5
248A9
  8
0
 10
630.7162851591094
 20
-530.9213256979009
 30
0.0
 11
634.7162851591094
 21
-530.1213350050826
 31
0.0
  0
LINE
  5
248AA
  8
0
 10
634.7162851591094
 20
-531.7213350050826
 30
0.0
 11
634.2162851591094
 21
-531.6213338416849
 31
0.0
  0
LINE
  5
248AB
  8
0
 10
634.7162851591094
 20
-530.1213350050826
 30
0.0
 11
634.2162851591094
 21
-530.021333841685
 31
0.0
  0
LINE
  5
248AC
  8
0
 10
630.7162851591094
 20
-532.5213256979008
 30
0.0
 11
634.7162851591094
 21
-531.7213350050826
 31
0.0
  0
LINE
  5
248AD
  8
0
 10
631.2162851591094
 20
-529.4213268612942
 30
0.0
 11
630.7162851591094
 21
-529.3213256978966
 31
0.0
  0
LINE
  5
248AE
  8
0
 10
631.2162851591094
 20
-535.8213268612983
 30
0.0
 11
630.7162851591094
 21
-535.7213256979006
 31
0.0
  0
LINE
  5
248AF
  8
0
 10
630.7162851591094
 20
-535.7213256979006
 30
0.0
 11
634.7162851591094
 21
-534.9213350050824
 31
0.0
  0
LINE
  5
248B0
  8
0
 10
634.7162851591094
 20
-534.9213350050824
 30
0.0
 11
634.2162851591094
 21
-534.8213338416847
 31
0.0
  0
LINE
  5
248B1
  8
0
 10
631.2162851591094
 20
-537.4213268612982
 30
0.0
 11
630.7162851591094
 21
-537.3213256979005
 31
0.0
  0
LINE
  5
248B2
  8
0
 10
630.7162851591094
 20
-537.3213256979005
 30
0.0
 11
634.7162851591094
 21
-536.5213350050823
 31
0.0
  0
LINE
  5
248B3
  8
0
 10
634.7162851591094
 20
-536.5213350050823
 30
0.0
 11
634.2162851591094
 21
-536.4213338416846
 31
0.0
  0
LINE
  5
248B4
  8
0
 10
631.2162851591094
 20
-539.0213268612981
 30
0.0
 11
630.7162851591094
 21
-538.9213256979004
 31
0.0
  0
LINE
  5
248B5
  8
0
 10
630.7162851591094
 20
-538.9213256979004
 30
0.0
 11
634.7162851591094
 21
-538.1213350050822
 31
0.0
  0
LINE
  5
248B6
  8
0
 10
634.7162851591094
 20
-538.1213350050822
 30
0.0
 11
634.2162851591094
 21
-538.0213338416845
 31
0.0
  0
LINE
  5
248B7
  8
0
 10
794.0162416163301
 20
-654.82137688406
 30
0.0
 11
788.7162451064685
 21
-653.32137688406
 31
0.0
  0
LINE
  5
248B8
  8
0
 10
788.7162451064685
 20
-653.32137688406
 30
0.0
 11
759.0162451065765
 21
-653.3213768840602
 31
0.0
  0
LINE
  5
248B9
  8
0
 10
794.0162416163301
 20
-654.82137688406
 30
0.0
 11
788.7162381260848
 21
-656.3213768840601
 31
0.0
  0
LINE
  5
248BA
  8
0
 10
759.0162497602747
 20
-651.3213303481622
 30
0.0
 11
759.0162334727103
 21
-658.3213303481621
 31
0.0
  0
LINE
  5
248BB
  8
0
 10
788.7162381260848
 20
-656.3213768840601
 30
0.0
 11
759.0162381261919
 21
-656.3213768840602
 31
0.0
  0
LINE
  5
248BC
  8
0
 10
759.0162497602747
 20
-651.3213303481622
 30
0.0
 11
757.9162462700793
 21
-651.3213303481621
 31
0.0
  0
ARC
  5
248BD
  8
0
 10
757.9162462700793
 20
-652.8213303481621
 30
0.0
 40
1.5
 50
90.0
 51
179.9998666844663
  0
LINE
  5
248BE
  8
0
 10
759.0162334727103
 20
-658.3213303481621
 30
0.0
 11
757.9162369628997
 21
-658.3213303481621
 31
0.0
  0
LINE
  5
248BF
  8
0
 10
756.4162462700834
 20
-652.8213268579697
 30
0.0
 11
756.4162369629038
 21
-656.8213268579697
 31
0.0
  0
ARC
  5
248C0
  8
0
 10
757.9162369628997
 20
-656.8213303481621
 30
0.0
 40
1.5
 50
179.9998666844663
 51
270.0
  0
LINE
  5
248C1
  8
1CENTER
 10
795.4470365337955
 20
-654.8213303481621
 30
0.0
 11
755.3459652071837
 21
-654.8213303481621
 31
0.0
  0
LINE
  5
248C2
  8
0
 10
791.9162441626523
 20
-653.727006534167
 30
0.0
 11
792.7162395967033
 21
-655.6893416230424
 31
0.0
  0
LINE
  5
248C3
  8
0
 10
792.7162395967033
 20
-655.6893416230424
 30
0.0
 11
793.0280094529554
 21
-655.101065048
 31
0.0
  0
LINE
  5
248C4
  8
0
 10
769.5162462698623
 20
-652.82137688406
 30
0.0
 11
770.3162369626806
 21
-656.82137688406
 31
0.0
  0
LINE
  5
248C5
  8
0
 10
780.7162462698667
 20
-652.82137688406
 30
0.0
 11
781.5162369626893
 21
-656.82137688406
 31
0.0
  0
LINE
  5
248C6
  8
0
 10
783.9162462698667
 20
-652.82137688406
 30
0.0
 11
784.7162369626893
 21
-656.82137688406
 31
0.0
  0
LINE
  5
248C7
  8
0
 10
784.7162369626893
 20
-656.82137688406
 30
0.0
 11
784.8162381260865
 21
-656.32137688406
 31
0.0
  0
LINE
  5
248C8
  8
0
 10
785.4162451064695
 20
-653.32137688406
 30
0.0
 11
785.5162462698668
 21
-652.82137688406
 31
0.0
  0
LINE
  5
248C9
  8
0
 10
781.5162369626893
 20
-656.82137688406
 30
0.0
 11
781.6162381260865
 21
-656.32137688406
 31
0.0
  0
LINE
  5
248CA
  8
0
 10
783.1162369626894
 20
-656.82137688406
 30
0.0
 11
783.2162381260865
 21
-656.32137688406
 31
0.0
  0
LINE
  5
248CB
  8
0
 10
783.8162451064696
 20
-653.32137688406
 30
0.0
 11
783.9162462698667
 21
-652.82137688406
 31
0.0
  0
LINE
  5
248CC
  8
0
 10
782.2162451064697
 20
-653.32137688406
 30
0.0
 11
782.3162462698668
 21
-652.82137688406
 31
0.0
  0
LINE
  5
248CD
  8
0
 10
782.3162462698668
 20
-652.82137688406
 30
0.0
 11
783.1162369626894
 21
-656.82137688406
 31
0.0
  0
LINE
  5
248CE
  8
0
 10
791.1162385430977
 20
-656.1421557274492
 30
0.0
 11
791.2990026857257
 21
-655.590406263646
 31
0.0
  0
LINE
  5
248CF
  8
0
 10
787.9162369626894
 20
-656.82137688406
 30
0.0
 11
788.0162381260865
 21
-656.32137688406
 31
0.0
  0
LINE
  5
248D0
  8
0
 10
786.3162369626893
 20
-656.82137688406
 30
0.0
 11
786.4162381260863
 21
-656.32137688406
 31
0.0
  0
LINE
  5
248D1
  8
0
 10
789.516237489492
 20
-656.594969831856
 30
0.0
 11
789.6455081871219
 21
-656.0583760965849
 31
0.0
  0
LINE
  5
248D2
  8
0
 10
790.2034757039065
 20
-653.7422914812687
 30
0.0
 11
790.3162452162566
 21
-653.2741930261187
 31
0.0
  0
LINE
  5
248D3
  8
0
 10
787.0162451064697
 20
-653.32137688406
 30
0.0
 11
787.1162462698668
 21
-652.82137688406
 31
0.0
  0
LINE
  5
248D4
  8
0
 10
788.6162451064696
 20
-653.32137688406
 30
0.0
 11
788.7162462698667
 21
-652.82137688406
 31
0.0
  0
LINE
  5
248D5
  8
0
 10
791.7648083662119
 20
-654.1841783747981
 30
0.0
 11
791.9162441626523
 21
-653.727006534167
 31
0.0
  0
LINE
  5
248D6
  8
0
 10
790.3162452162566
 20
-653.2741930261187
 30
0.0
 11
791.1162385430977
 21
-656.1421557274492
 31
0.0
  0
LINE
  5
248D7
  8
0
 10
787.1162462698668
 20
-652.82137688406
 30
0.0
 11
787.9162369626894
 21
-656.82137688406
 31
0.0
  0
LINE
  5
248D8
  8
0
 10
788.7162462698667
 20
-652.82137688406
 30
0.0
 11
789.516237489492
 21
-656.594969831856
 31
0.0
  0
LINE
  5
248D9
  8
0
 10
785.5162462698668
 20
-652.82137688406
 30
0.0
 11
786.3162369626893
 21
-656.82137688406
 31
0.0
  0
LINE
  5
248DA
  8
0
 10
772.7162462698624
 20
-652.82137688406
 30
0.0
 11
773.5162369626806
 21
-656.82137688406
 31
0.0
  0
LINE
  5
248DB
  8
0
 10
773.5162369626806
 20
-656.82137688406
 30
0.0
 11
773.6162381260783
 21
-656.32137688406
 31
0.0
  0
LINE
  5
248DC
  8
0
 10
774.216245106469
 20
-653.32137688406
 30
0.0
 11
774.3162462698667
 21
-652.82137688406
 31
0.0
  0
LINE
  5
248DD
  8
0
 10
771.9162369626805
 20
-656.82137688406
 30
0.0
 11
772.0162381260782
 21
-656.32137688406
 31
0.0
  0
LINE
  5
248DE
  8
0
 10
770.3162369626806
 20
-656.82137688406
 30
0.0
 11
770.4162381260783
 21
-656.32137688406
 31
0.0
  0
LINE
  5
248DF
  8
0
 10
772.6162451064647
 20
-653.32137688406
 30
0.0
 11
772.7162462698624
 21
-652.82137688406
 31
0.0
  0
LINE
  5
248E0
  8
0
 10
771.0162451064646
 20
-653.32137688406
 30
0.0
 11
771.1162462698622
 21
-652.82137688406
 31
0.0
  0
LINE
  5
248E1
  8
0
 10
771.1162462698622
 20
-652.82137688406
 30
0.0
 11
771.9162369626805
 21
-656.82137688406
 31
0.0
  0
LINE
  5
248E2
  8
0
 10
778.316236962685
 20
-656.82137688406
 30
0.0
 11
778.4162381260827
 21
-656.32137688406
 31
0.0
  0
LINE
  5
248E3
  8
0
 10
779.9162369626894
 20
-656.82137688406
 30
0.0
 11
780.0162381260865
 21
-656.32137688406
 31
0.0
  0
LINE
  5
248E4
  8
0
 10
775.116236962685
 20
-656.82137688406
 30
0.0
 11
775.2162381260827
 21
-656.32137688406
 31
0.0
  0
LINE
  5
248E5
  8
0
 10
776.7162369626849
 20
-656.82137688406
 30
0.0
 11
776.8162381260826
 21
-656.32137688406
 31
0.0
  0
LINE
  5
248E6
  8
0
 10
780.6162451064696
 20
-653.32137688406
 30
0.0
 11
780.7162462698667
 21
-652.82137688406
 31
0.0
  0
LINE
  5
248E7
  8
0
 10
779.016245106469
 20
-653.32137688406
 30
0.0
 11
779.1162462698668
 21
-652.82137688406
 31
0.0
  0
LINE
  5
248E8
  8
0
 10
775.816245106469
 20
-653.32137688406
 30
0.0
 11
775.9162462698666
 21
-652.82137688406
 31
0.0
  0
LINE
  5
248E9
  8
0
 10
777.4162451064691
 20
-653.32137688406
 30
0.0
 11
777.5162462698668
 21
-652.82137688406
 31
0.0
  0
LINE
  5
248EA
  8
0
 10
777.5162462698668
 20
-652.82137688406
 30
0.0
 11
778.316236962685
 21
-656.82137688406
 31
0.0
  0
LINE
  5
248EB
  8
0
 10
779.1162462698668
 20
-652.82137688406
 30
0.0
 11
779.9162369626894
 21
-656.82137688406
 31
0.0
  0
LINE
  5
248EC
  8
0
 10
775.9162462698666
 20
-652.82137688406
 30
0.0
 11
776.7162369626849
 21
-656.82137688406
 31
0.0
  0
LINE
  5
248ED
  8
0
 10
774.3162462698667
 20
-652.82137688406
 30
0.0
 11
775.116236962685
 21
-656.82137688406
 31
0.0
  0
LINE
  5
248EE
  8
0
 10
764.6162451064605
 20
-653.32137688406
 30
0.0
 11
764.7162462698582
 21
-652.82137688406
 31
0.0
  0
LINE
  5
248EF
  8
0
 10
764.7162462698582
 20
-652.82137688406
 30
0.0
 11
765.5162369626764
 21
-656.82137688406
 31
0.0
  0
LINE
  5
248F0
  8
0
 10
765.5162369626764
 20
-656.82137688406
 30
0.0
 11
765.6162381260741
 21
-656.32137688406
 31
0.0
  0
LINE
  5
248F1
  8
0
 10
766.2162451064604
 20
-653.32137688406
 30
0.0
 11
766.3162462698581
 21
-652.82137688406
 31
0.0
  0
LINE
  5
248F2
  8
0
 10
767.8162451064603
 20
-653.32137688406
 30
0.0
 11
767.916246269858
 21
-652.82137688406
 31
0.0
  0
LINE
  5
248F3
  8
0
 10
767.916246269858
 20
-652.82137688406
 30
0.0
 11
768.7162369626762
 21
-656.82137688406
 31
0.0
  0
LINE
  5
248F4
  8
0
 10
767.1162369626763
 20
-656.82137688406
 30
0.0
 11
767.216238126074
 21
-656.32137688406
 31
0.0
  0
LINE
  5
248F5
  8
0
 10
768.7162369626762
 20
-656.82137688406
 30
0.0
 11
768.8162381260739
 21
-656.32137688406
 31
0.0
  0
LINE
  5
248F6
  8
0
 10
766.3162462698581
 20
-652.82137688406
 30
0.0
 11
767.1162369626763
 21
-656.82137688406
 31
0.0
  0
LINE
  5
248F7
  8
0
 10
769.4162451064647
 20
-653.32137688406
 30
0.0
 11
769.5162462698623
 21
-652.82137688406
 31
0.0
  0
LINE
  5
248F8
  8
0
 10
763.0162451064606
 20
-653.32137688406
 30
0.0
 11
763.1162462698583
 21
-652.82137688406
 31
0.0
  0
LINE
  5
248F9
  8
0
 10
763.1162462698583
 20
-652.82137688406
 30
0.0
 11
763.9162369626765
 21
-656.82137688406
 31
0.0
  0
LINE
  5
248FA
  8
0
 10
763.9162369626765
 20
-656.82137688406
 30
0.0
 11
764.0162381260742
 21
-656.32137688406
 31
0.0
  0
LINE
  5
248FB
  8
0
 10
761.4162451064607
 20
-653.32137688406
 30
0.0
 11
761.5162462698584
 21
-652.82137688406
 31
0.0
  0
LINE
  5
248FC
  8
0
 10
761.5162462698584
 20
-652.82137688406
 30
0.0
 11
762.3162369626766
 21
-656.82137688406
 31
0.0
  0
LINE
  5
248FD
  8
0
 10
762.3162369626766
 20
-656.82137688406
 30
0.0
 11
762.4162381260743
 21
-656.32137688406
 31
0.0
  0
LINE
  5
248FE
  8
0
 10
759.8162451064608
 20
-653.32137688406
 30
0.0
 11
759.9162462698584
 21
-652.82137688406
 31
0.0
  0
LINE
  5
248FF
  8
0
 10
759.9162462698584
 20
-652.82137688406
 30
0.0
 11
760.7162369626767
 21
-656.82137688406
 31
0.0
  0
LINE
  5
24900
  8
0
 10
760.7162369626767
 20
-656.82137688406
 30
0.0
 11
760.8162381260744
 21
-656.32137688406
 31
0.0
  0
SOLID
  5
24901
  8
1DIM
 10
634.3661544459801
 20
-644.3428190492893
 30
0.0
 11
632.7162386232114
 21
-645.5213303512669
 31
0.0
 12
633.894749925189
 22
-643.8714145284982
 32
0.0
 13
633.894749925189
 23
-643.8714145284982
 33
0.0
1001
ACAD
1000
DSTYLE
1002
{
1070
    45
1040
0.5
1002
}
  0
LINE
  5
24902
  8
1DIM
 10
634.1304521855845
 20
-644.1071167888938
 30
0.0
 11
646.7162386232114
 21
-631.5213303512669
 31
0.0
1001
ACAD
1000
DSTYLE
1002
{
1070
    45
1040
0.5
1002
}
  0
LINE
  5
24903
  8
1DIM
 10
646.7162386232114
 20
-631.5213303512669
 30
0.0
 11
693.9829052898781
 21
-631.5213303512669
 31
0.0
1001
ACAD
1000
DSTYLE
1002
{
1070
    45
1040
0.5
1002
}
  0
TEXT
  5
24904
  8
1DIM
  6
CONTINUOUS
 10
648.4829052898781
 20
-631.0213303512669
 30
0.0
 40
3.5
  1
材質：亜鉛ダイキャスト
  0
LINE
  5
24905
  8
0
 10
282.7161920873135
 20
-504.8213303514287
 30
0.0
 11
284.2161920873135
 21
-510.1213268612904
 31
0.0
  0
LINE
  5
24906
  8
0
 10
284.2161920873135
 20
-510.1213268612904
 30
0.0
 11
284.2161920873133
 21
-539.8213268611823
 31
0.0
  0
LINE
  5
24907
  8
0
 10
282.7161920873135
 20
-504.8213303514287
 30
0.0
 11
281.2161920873134
 21
-510.1213338416741
 31
0.0
  0
LINE
  5
24908
  8
0
 10
286.2162386232113
 20
-539.8213222074842
 30
0.0
 11
279.2162386232114
 21
-539.8213384950486
 31
0.0
  0
LINE
  5
24909
  8
0
 10
281.2161920873134
 20
-510.1213338416741
 30
0.0
 11
281.2161920873133
 21
-539.821333841567
 31
0.0
  0
LINE
  5
2490A
  8
0
 10
286.2162386232113
 20
-539.8213222074842
 30
0.0
 11
286.2162386232114
 21
-540.9213256976795
 31
0.0
  0
ARC
  5
2490B
  8
0
 10
284.7162386232114
 20
-540.9213256976795
 30
0.0
 40
1.5
 50
270.0001333155316
 51
0.0
  0
LINE
  5
2490C
  8
0
 10
279.2162386232114
 20
-539.8213384950486
 30
0.0
 11
279.2162386232114
 21
-540.9213350048592
 31
0.0
  0
LINE
  5
2490D
  8
0
 10
284.7162421134038
 20
-542.4213256976755
 30
0.0
 11
280.7162421134038
 21
-542.4213350048551
 31
0.0
  0
ARC
  5
2490E
  8
0
 10
280.7162386232114
 20
-540.9213350048592
 30
0.0
 40
1.5
 50
180.0
 51
270.0001333155316
  0
LINE
  5
2490F
  8
1CENTER
 10
282.7162386232114
 20
-503.3905354339634
 30
0.0
 11
282.7162386232114
 21
-543.4916067605752
 31
0.0
  0
LINE
  5
24910
  8
0
 10
283.8105624372065
 20
-506.9213278051066
 30
0.0
 11
281.8482273483311
 21
-506.1213323710556
 31
0.0
  0
LINE
  5
24911
  8
0
 10
281.8482273483311
 20
-506.1213323710556
 30
0.0
 11
282.4365039233735
 21
-505.8095625148035
 31
0.0
  0
LINE
  5
24912
  8
0
 10
284.7161920873135
 20
-529.3213256978966
 30
0.0
 11
280.7161920873135
 21
-528.5213350050783
 31
0.0
  0
LINE
  5
24913
  8
0
 10
284.7161920873135
 20
-518.1213256978922
 30
0.0
 11
280.7161920873135
 21
-517.3213350050696
 31
0.0
  0
LINE
  5
24914
  8
0
 10
284.7161920873135
 20
-514.9213256978921
 30
0.0
 11
280.7161920873135
 21
-514.1213350050696
 31
0.0
  0
LINE
  5
24915
  8
0
 10
280.7161920873135
 20
-514.1213350050696
 30
0.0
 11
281.2161920873135
 21
-514.0213338416723
 31
0.0
  0
LINE
  5
24916
  8
0
 10
284.2161920873135
 20
-513.4213268612893
 30
0.0
 11
284.7161920873135
 21
-513.3213256978921
 31
0.0
  0
LINE
  5
24917
  8
0
 10
280.7161920873135
 20
-517.3213350050696
 30
0.0
 11
281.2161920873135
 21
-517.2213338416724
 31
0.0
  0
LINE
  5
24918
  8
0
 10
280.7161920873135
 20
-515.7213350050695
 30
0.0
 11
281.2161920873135
 21
-515.6213338416724
 31
0.0
  0
LINE
  5
24919
  8
0
 10
284.2161920873135
 20
-515.0213268612893
 30
0.0
 11
284.7161920873135
 21
-514.9213256978921
 31
0.0
  0
LINE
  5
2491A
  8
0
 10
284.2161920873135
 20
-516.6213268612892
 30
0.0
 11
284.7161920873135
 21
-516.521325697892
 31
0.0
  0
LINE
  5
2491B
  8
0
 10
284.7161920873135
 20
-516.521325697892
 30
0.0
 11
280.7161920873135
 21
-515.7213350050695
 31
0.0
  0
LINE
  5
2491C
  8
0
 10
281.3954132439243
 20
-507.7213334246612
 30
0.0
 11
281.9471627077276
 21
-507.5385692820332
 31
0.0
  0
LINE
  5
2491D
  8
0
 10
280.7161920873135
 20
-510.9213350050695
 30
0.0
 11
281.2161920873135
 21
-510.8213338416724
 31
0.0
  0
LINE
  5
2491E
  8
0
 10
280.7161920873135
 20
-512.5213350050695
 30
0.0
 11
281.2161920873135
 21
-512.4213338416725
 31
0.0
  0
LINE
  5
2491F
  8
0
 10
280.9425991395175
 20
-509.3213344782669
 30
0.0
 11
281.4791928747886
 21
-509.192063780637
 31
0.0
  0
LINE
  5
24920
  8
0
 10
283.7952774901048
 20
-508.6340962638524
 30
0.0
 11
284.2633759452548
 21
-508.5213267515023
 31
0.0
  0
LINE
  5
24921
  8
0
 10
284.2161920873135
 20
-511.8213268612892
 30
0.0
 11
284.7161920873135
 21
-511.7213256978921
 31
0.0
  0
LINE
  5
24922
  8
0
 10
284.2161920873135
 20
-510.2213268612893
 30
0.0
 11
284.7161920873135
 21
-510.1213256978922
 31
0.0
  0
LINE
  5
24923
  8
0
 10
283.3533905965754
 20
-507.072763601547
 30
0.0
 11
283.8105624372065
 21
-506.9213278051066
 31
0.0
  0
LINE
  5
24924
  8
0
 10
284.2633759452548
 20
-508.5213267515023
 30
0.0
 11
281.3954132439243
 21
-507.7213334246612
 31
0.0
  0
LINE
  5
24925
  8
0
 10
284.7161920873135
 20
-511.7213256978921
 30
0.0
 11
280.7161920873135
 21
-510.9213350050695
 31
0.0
  0
LINE
  5
24926
  8
0
 10
284.7161920873135
 20
-510.1213256978922
 30
0.0
 11
280.9425991395175
 21
-509.3213344782669
 31
0.0
  0
LINE
  5
24927
  8
0
 10
284.7161920873135
 20
-513.3213256978921
 30
0.0
 11
280.7161920873135
 21
-512.5213350050695
 31
0.0
  0
LINE
  5
24928
  8
0
 10
284.7161920873135
 20
-526.1213256978965
 30
0.0
 11
280.7161920873135
 21
-525.3213350050783
 31
0.0
  0
LINE
  5
24929
  8
0
 10
280.7161920873135
 20
-525.3213350050783
 30
0.0
 11
281.2161920873135
 21
-525.2213338416806
 31
0.0
  0
LINE
  5
2492A
  8
0
 10
284.2161920873135
 20
-524.6213268612898
 30
0.0
 11
284.7161920873135
 21
-524.5213256978922
 31
0.0
  0
LINE
  5
2492B
  8
0
 10
280.7161920873135
 20
-526.9213350050784
 30
0.0
 11
281.2161920873135
 21
-526.8213338416807
 31
0.0
  0
LINE
  5
2492C
  8
0
 10
280.7161920873135
 20
-528.5213350050783
 30
0.0
 11
281.2161920873135
 21
-528.4213338416806
 31
0.0
  0
LINE
  5
2492D
  8
0
 10
284.2161920873135
 20
-526.2213268612942
 30
0.0
 11
284.7161920873135
 21
-526.1213256978965
 31
0.0
  0
LINE
  5
2492E
  8
0
 10
284.2161920873135
 20
-527.8213268612943
 30
0.0
 11
284.7161920873135
 21
-527.7213256978966
 31
0.0
  0
LINE
  5
2492F
  8
0
 10
284.7161920873135
 20
-527.7213256978966
 30
0.0
 11
280.7161920873135
 21
-526.9213350050784
 31
0.0
  0
LINE
  5
24930
  8
0
 10
280.7161920873135
 20
-520.5213350050739
 30
0.0
 11
281.2161920873135
 21
-520.4213338416762
 31
0.0
  0
LINE
  5
24931
  8
0
 10
280.7161920873135
 20
-518.9213350050695
 30
0.0
 11
281.2161920873135
 21
-518.8213338416724
 31
0.0
  0
LINE
  5
24932
  8
0
 10
280.7161920873135
 20
-523.7213350050739
 30
0.0
 11
281.2161920873135
 21
-523.6213338416762
 31
0.0
  0
LINE
  5
24933
  8
0
 10
280.7161920873135
 20
-522.121335005074
 30
0.0
 11
281.2161920873135
 21
-522.0213338416763
 31
0.0
  0
LINE
  5
24934
  8
0
 10
284.2161920873135
 20
-518.2213268612893
 30
0.0
 11
284.7161920873135
 21
-518.1213256978922
 31
0.0
  0
LINE
  5
24935
  8
0
 10
284.2161920873135
 20
-519.8213268612899
 30
0.0
 11
284.7161920873135
 21
-519.7213256978921
 31
0.0
  0
LINE
  5
24936
  8
0
 10
284.2161920873135
 20
-523.0213268612899
 30
0.0
 11
284.7161920873135
 21
-522.9213256978923
 31
0.0
  0
LINE
  5
24937
  8
0
 10
284.2161920873135
 20
-521.4213268612898
 30
0.0
 11
284.7161920873135
 21
-521.3213256978921
 31
0.0
  0
LINE
  5
24938
  8
0
 10
284.7161920873135
 20
-521.3213256978921
 30
0.0
 11
280.7161920873135
 21
-520.5213350050739
 31
0.0
  0
LINE
  5
24939
  8
0
 10
284.7161920873135
 20
-519.7213256978921
 30
0.0
 11
280.7161920873135
 21
-518.9213350050695
 31
0.0
  0
LINE
  5
2493A
  8
0
 10
284.7161920873135
 20
-522.9213256978923
 30
0.0
 11
280.7161920873135
 21
-522.121335005074
 31
0.0
  0
LINE
  5
2493B
  8
0
 10
284.7161920873135
 20
-524.5213256978922
 30
0.0
 11
280.7161920873135
 21
-523.7213350050739
 31
0.0
  0
LINE
  5
2493C
  8
0
 10
284.2161920873135
 20
-534.2213268612984
 30
0.0
 11
284.7161920873135
 21
-534.1213256979007
 31
0.0
  0
LINE
  5
2493D
  8
0
 10
284.7161920873135
 20
-534.1213256979007
 30
0.0
 11
280.7161920873135
 21
-533.3213350050825
 31
0.0
  0
LINE
  5
2493E
  8
0
 10
280.7161920873135
 20
-533.3213350050825
 30
0.0
 11
281.2161920873135
 21
-533.2213338416848
 31
0.0
  0
LINE
  5
2493F
  8
0
 10
284.2161920873135
 20
-532.6213268612985
 30
0.0
 11
284.7161920873135
 21
-532.5213256979008
 31
0.0
  0
LINE
  5
24940
  8
0
 10
284.2161920873135
 20
-531.0213268612986
 30
0.0
 11
284.7161920873135
 21
-530.9213256979009
 31
0.0
  0
LINE
  5
24941
  8
0
 10
284.7161920873135
 20
-530.9213256979009
 30
0.0
 11
280.7161920873135
 21
-530.1213350050826
 31
0.0
  0
LINE
  5
24942
  8
0
 10
280.7161920873135
 20
-531.7213350050826
 30
0.0
 11
281.2161920873135
 21
-531.6213338416849
 31
0.0
  0
LINE
  5
24943
  8
0
 10
280.7161920873135
 20
-530.1213350050826
 30
0.0
 11
281.2161920873135
 21
-530.021333841685
 31
0.0
  0
LINE
  5
24944
  8
0
 10
284.7161920873135
 20
-532.5213256979008
 30
0.0
 11
280.7161920873135
 21
-531.7213350050826
 31
0.0
  0
LINE
  5
24945
  8
0
 10
284.2161920873135
 20
-529.4213268612942
 30
0.0
 11
284.7161920873135
 21
-529.3213256978966
 31
0.0
  0
LINE
  5
24946
  8
0
 10
284.2161920873135
 20
-535.8213268612983
 30
0.0
 11
284.7161920873135
 21
-535.7213256979006
 31
0.0
  0
LINE
  5
24947
  8
0
 10
284.7161920873135
 20
-535.7213256979006
 30
0.0
 11
280.7161920873135
 21
-534.9213350050824
 31
0.0
  0
LINE
  5
24948
  8
0
 10
280.7161920873135
 20
-534.9213350050824
 30
0.0
 11
281.2161920873135
 21
-534.8213338416847
 31
0.0
  0
LINE
  5
24949
  8
0
 10
284.2161920873135
 20
-537.4213268612982
 30
0.0
 11
284.7161920873135
 21
-537.3213256979005
 31
0.0
  0
LINE
  5
2494A
  8
0
 10
284.7161920873135
 20
-537.3213256979005
 30
0.0
 11
280.7161920873135
 21
-536.5213350050823
 31
0.0
  0
LINE
  5
2494B
  8
0
 10
280.7161920873135
 20
-536.5213350050823
 30
0.0
 11
281.2161920873135
 21
-536.4213338416846
 31
0.0
  0
LINE
  5
2494C
  8
0
 10
284.2161920873135
 20
-539.0213268612981
 30
0.0
 11
284.7161920873135
 21
-538.9213256979004
 31
0.0
  0
LINE
  5
2494D
  8
0
 10
284.7161920873135
 20
-538.9213256979004
 30
0.0
 11
280.7161920873135
 21
-538.1213350050822
 31
0.0
  0
LINE
  5
2494E
  8
0
 10
280.7161920873135
 20
-538.1213350050822
 30
0.0
 11
281.2161920873135
 21
-538.0213338416845
 31
0.0
  0
LINE
  5
2494F
  8
1DIM
 10
544.2458307863246
 20
-665.8213285929294
 30
0.0
 11
543.2458307863246
 21
-665.8213285929294
 31
0.0
1001
ACAD
1000
DSTYLE
1002
{
1070
    70
1070
     0
1070
    69
1070
     0
1070
    45
1040
0.5
1002
}
  0
LINE
  5
24950
  8
1DIM
 10
544.2458307863246
 20
-645.8213287121387
 30
0.0
 11
543.2458307863246
 21
-645.8213287121387
 31
0.0
1001
ACAD
1000
DSTYLE
1002
{
1070
    70
1070
     0
1070
    69
1070
     0
1070
    45
1040
0.5
1002
}
  0
LINE
  5
24951
  8
1DIM
 10
544.2458307863246
 20
-645.8213287121387
 30
0.0
 11
544.2458307863246
 21
-636.7546620454718
 31
0.0
1001
ACAD
1000
DSTYLE
1002
{
1070
    70
1070
     0
1070
    69
1070
     0
1070
    45
1040
0.5
1002
}
  0
LINE
  5
24952
  8
1DIM
 10
544.2458307863246
 20
-663.8213285929294
 30
0.0
 11
544.2458307863246
 21
-647.8213287121387
 31
0.0
1001
ACAD
1000
DSTYLE
1002
{
1070
    70
1070
     0
1070
    69
1070
     0
1070
    45
1040
0.5
1002
}
  0
LINE
  5
24956
  8
0
  6
BYBLOCK
 10
288.7162386232114
 20
-703.0290254912675
 30
0.0
 11
282.7162386232114
 21
-701.4213303512674
 31
0.0
  0
LINE
  5
24957
  8
0
  6
BYBLOCK
 10
282.7162386232114
 20
-701.4213303512674
 30
0.0
 11
288.7162386232114
 21
-699.8136352112674
 31
0.0
  0
LINE
  5
24958
  8
0
  6
BYBLOCK
 10
282.7162386232114
 20
-701.4213303512674
 30
0.0
 11
288.7162386232114
 21
-701.4213303512674
 31
0.0
  0
LINE
  5
24959
  8
0
  6
BYBLOCK
 10
626.7162386232114
 20
-699.8136352112674
 30
0.0
 11
632.7162386232114
 21
-701.4213303512674
 31
0.0
  0
LINE
  5
2495A
  8
0
  6
BYBLOCK
 10
632.7162386232114
 20
-701.4213303512674
 30
0.0
 11
626.7162386232114
 21
-703.0290254912675
 31
0.0
  0
LINE
  5
2495B
  8
0
  6
BYBLOCK
 10
632.7162386232114
 20
-701.4213303512674
 30
0.0
 11
626.7162386232114
 21
-701.4213303512674
 31
0.0
  0
TEXT
  5
2495C
  8
1DIM1
  6
CONTINUOUS
 10
439.0860302898781
 20
-699.3213303512674
 30
0.0
 40
10.5
  1
P350
1001
ACAD
1000
DSTYLE
1002
{
1070
    40
1040
3.0
1070
    45
1040
0.5
1002
}
  0
LINE
  5
2495D
  8
0
  6
BYBLOCK
 10
544.7817291663247
 20
-589.8213302916618
 30
0.0
 11
544.2458307863246
 21
-591.8213302916618
 31
0.0
  0
LINE
  5
2495E
  8
0
  6
BYBLOCK
 10
544.2458307863246
 20
-591.8213302916618
 30
0.0
 11
543.7099324063246
 21
-589.8213302916618
 31
0.0
  0
LINE
  5
2495F
  8
0
  6
BYBLOCK
 10
544.2458307863246
 20
-591.8213302916618
 30
0.0
 11
544.2458307863246
 21
-589.8213302916618
 31
0.0
  0
LINE
  5
24960
  8
0
  6
BYBLOCK
 10
543.7099324063246
 20
-573.821330410871
 30
0.0
 11
544.2458307863246
 21
-571.821330410871
 31
0.0
  0
LINE
  5
24961
  8
0
  6
BYBLOCK
 10
544.2458307863246
 20
-571.821330410871
 30
0.0
 11
544.7817291663247
 21
-573.821330410871
 31
0.0
  0
LINE
  5
24962
  8
0
  6
BYBLOCK
 10
544.2458307863246
 20
-571.821330410871
 30
0.0
 11
544.2458307863246
 21
-573.821330410871
 31
0.0
  0
TEXT
  5
24963
  8
1DIM
  6
CONTINUOUS
 10
543.5458307863246
 20
-568.9859137442041
 30
0.0
 40
3.5
  1
20
 50
90.0
1001
ACAD
1000
DSTYLE
1002
{
1070
    70
1070
     0
1070
    69
1070
     0
1070
    45
1040
0.5
1002
}
  0
LINE
  5
24964
  8
0
  6
BYBLOCK
 10
708.7162416153651
 20
-686.0290551459848
 30
0.0
 11
706.7162416153651
 21
-685.4931567659847
 31
0.0
  0
LINE
  5
24965
  8
0
  6
BYBLOCK
 10
706.7162416153651
 20
-685.4931567659847
 30
0.0
 11
708.7162416153651
 21
-684.9572583859847
 31
0.0
  0
LINE
  5
24966
  8
0
  6
BYBLOCK
 10
706.7162416153651
 20
-685.4931567659847
 30
0.0
 11
708.7162416153651
 21
-685.4931567659847
 31
0.0
  0
LINE
  5
24967
  8
0
  6
BYBLOCK
 10
761.0162416153653
 20
-684.9572583859847
 30
0.0
 11
763.0162416153653
 21
-685.4931567659847
 31
0.0
  0
LINE
  5
24968
  8
0
  6
BYBLOCK
 10
763.0162416153653
 20
-685.4931567659847
 30
0.0
 11
761.0162416153653
 21
-686.0290551459848
 31
0.0
  0
LINE
  5
24969
  8
0
  6
BYBLOCK
 10
763.0162416153653
 20
-685.4931567659847
 30
0.0
 11
761.0162416153653
 21
-685.4931567659847
 31
0.0
  0
TEXT
  5
2496A
  8
1DIM
  6
CONTINUOUS
 10
729.0919360598097
 20
-684.7931567659846
 30
0.0
 40
3.5
  1
56.5
1001
ACAD
1000
DSTYLE
1002
{
1070
    45
1040
0.5
1002
}
  0
LINE
  5
2496B
  8
0
  6
BYBLOCK
 10
761.0162416153653
 20
-674.9572583859847
 30
0.0
 11
763.0162416153653
 21
-675.4931567659847
 31
0.0
  0
LINE
  5
2496C
  8
0
  6
BYBLOCK
 10
763.0162416153653
 20
-675.4931567659847
 30
0.0
 11
761.0162416153653
 21
-676.0290551459848
 31
0.0
  0
LINE
  5
2496D
  8
0
  6
BYBLOCK
 10
763.0162416153653
 20
-675.4931567659847
 30
0.0
 11
761.0162416153653
 21
-675.4931567659847
 31
0.0
  0
LINE
  5
2496E
  8
0
  6
BYBLOCK
 10
747.0162416153653
 20
-676.0290551459848
 30
0.0
 11
745.0162416153653
 21
-675.4931567659847
 31
0.0
  0
LINE
  5
2496F
  8
0
  6
BYBLOCK
 10
745.0162416153653
 20
-675.4931567659847
 30
0.0
 11
747.0162416153653
 21
-674.9572583859847
 31
0.0
  0
LINE
  5
24970
  8
0
  6
BYBLOCK
 10
745.0162416153653
 20
-675.4931567659847
 30
0.0
 11
747.0162416153653
 21
-675.4931567659847
 31
0.0
  0
TEXT
  5
24971
  8
1DIM
  6
CONTINUOUS
 10
751.6829082820319
 20
-674.7931567659847
 30
0.0
 40
3.5
  1
18
1001
ACAD
1000
DSTYLE
1002
{
1070
    45
1040
0.5
1002
}
  0
LINE
  5
24972
  8
0
  6
BYBLOCK
 10
805.0521399953653
 20
-652.8213303481621
 30
0.0
 11
804.5162416153653
 21
-654.8213303481621
 31
0.0
  0
LINE
  5
24973
  8
0
  6
BYBLOCK
 10
804.5162416153653
 20
-654.8213303481621
 30
0.0
 11
803.9803432353652
 21
-652.8213303481621
 31
0.0
  0
LINE
  5
24974
  8
0
  6
BYBLOCK
 10
804.5162416153653
 20
-654.8213303481621
 30
0.0
 11
804.5162416153653
 21
-652.8213303481621
 31
0.0
  0
LINE
  5
24975
  8
0
  6
BYBLOCK
 10
803.9803432353652
 20
-647.5213303512658
 30
0.0
 11
804.5162416153653
 21
-645.5213303512658
 31
0.0
  0
LINE
  5
24976
  8
0
  6
BYBLOCK
 10
804.5162416153653
 20
-645.5213303512658
 30
0.0
 11
805.0521399953653
 21
-647.5213303512658
 31
0.0
  0
LINE
  5
24977
  8
0
  6
BYBLOCK
 10
804.5162416153653
 20
-645.5213303512658
 30
0.0
 11
804.5162416153653
 21
-647.5213303512658
 31
0.0
  0
TEXT
  5
24978
  8
1DIM
  6
CONTINUOUS
 10
803.8162416153652
 20
-652.2859136830472
 30
0.0
 40
3.5
  1
10
 50
90.0
1001
ACAD
1000
DSTYLE
1002
{
1070
    45
1040
0.5
1070
   271
1070
     0
1002
}
  0
LINE
  5
24979
  8
0
  6
BYBLOCK
 10
278.4162356310576
 20
-733.0290254912677
 30
0.0
 11
272.4162356310576
 21
-731.4213303512677
 31
0.0
  0
LINE
  5
2497A
  8
0
  6
BYBLOCK
 10
272.4162356310576
 20
-731.4213303512677
 30
0.0
 11
278.4162356310576
 21
-729.8136352112676
 31
0.0
  0
LINE
  5
2497B
  8
0
  6
BYBLOCK
 10
272.4162356310576
 20
-731.4213303512677
 30
0.0
 11
278.4162356310576
 21
-731.4213303512677
 31
0.0
  0
LINE
  5
2497C
  8
0
  6
BYBLOCK
 10
637.0162416153653
 20
-729.8136352112676
 30
0.0
 11
643.0162416153653
 21
-731.4213303512677
 31
0.0
  0
LINE
  5
2497D
  8
0
  6
BYBLOCK
 10
643.0162416153653
 20
-731.4213303512677
 30
0.0
 11
637.0162416153653
 21
-733.0290254912677
 31
0.0
  0
LINE
  5
2497E
  8
0
  6
BYBLOCK
 10
643.0162416153653
 20
-731.4213303512677
 30
0.0
 11
637.0162416153653
 21
-731.4213303512677
 31
0.0
  0
TEXT
  5
2497F
  8
1DIM1
  6
CONTINUOUS
 10
437.5912386232114
 20
-729.3213303512676
 30
0.0
 40
10.5
  1
370.5
1001
ACAD
1000
DSTYLE
1002
{
1070
    40
1040
3.0
1070
    45
1040
0.5
1002
}
  0
LINE
  5
24980
  8
0
  6
BYBLOCK
 10
815.0521399953653
 20
-664.1213303512648
 30
0.0
 11
814.5162416153653
 21
-666.1213303512648
 31
0.0
  0
LINE
  5
24981
  8
0
  6
BYBLOCK
 10
814.5162416153653
 20
-666.1213303512648
 30
0.0
 11
813.9803432353652
 21
-664.1213303512648
 31
0.0
  0
LINE
  5
24982
  8
0
  6
BYBLOCK
 10
814.5162416153653
 20
-666.1213303512648
 30
0.0
 11
814.5162416153653
 21
-664.1213303512648
 31
0.0
  0
LINE
  5
24983
  8
0
  6
BYBLOCK
 10
813.9803432353652
 20
-647.5213303512658
 30
0.0
 11
814.5162416153653
 21
-645.5213303512658
 31
0.0
  0
LINE
  5
24984
  8
0
  6
BYBLOCK
 10
814.5162416153653
 20
-645.5213303512658
 30
0.0
 11
815.0521399953653
 21
-647.5213303512658
 31
0.0
  0
LINE
  5
24985
  8
0
  6
BYBLOCK
 10
814.5162416153653
 20
-645.5213303512658
 30
0.0
 11
814.5162416153653
 21
-647.5213303512658
 31
0.0
  0
TEXT
  5
24986
  8
1DIM
  6
CONTINUOUS
 10
813.8162416153654
 20
-660.7796636845986
 30
0.0
 40
3.5
  1
20.5
 50
90.0
1001
ACAD
1000
DSTYLE
1002
{
1070
    45
1040
0.5
1002
}
  0
LINE
  5
24987
  8
0
  6
BYBLOCK
 10
641.0162416153646
 20
-500.2854319712664
 30
0.0
 11
643.0162416153646
 21
-500.8213303512664
 31
0.0
  0
LINE
  5
24988
  8
0
  6
BYBLOCK
 10
643.0162416153646
 20
-500.8213303512664
 30
0.0
 11
641.0162416153646
 21
-501.3572287312664
 31
0.0
  0
LINE
  5
24989
  8
0
  6
BYBLOCK
 10
643.0162416153646
 20
-500.8213303512664
 30
0.0
 11
641.0162416153646
 21
-500.8213303512664
 31
0.0
  0
LINE
  5
2498A
  8
0
  6
BYBLOCK
 10
624.4162356310582
 20
-501.3572287312664
 30
0.0
 11
622.4162356310582
 21
-500.8213303512664
 31
0.0
  0
LINE
  5
2498B
  8
0
  6
BYBLOCK
 10
622.4162356310582
 20
-500.8213303512664
 30
0.0
 11
624.4162356310582
 21
-500.2854319712664
 31
0.0
  0
LINE
  5
2498C
  8
0
  6
BYBLOCK
 10
622.4162356310582
 20
-500.8213303512664
 30
0.0
 11
624.4162356310582
 21
-500.8213303512664
 31
0.0
  0
TEXT
  5
2498D
  8
1DIM
  6
CONTINUOUS
 10
627.7579052898781
 20
-500.1213303512664
 30
0.0
 40
3.5
  1
20.5
1001
ACAD
1000
DSTYLE
1002
{
1070
    45
1040
0.5
1002
}
  0
LINE
  5
2498E
  8
0
  6
BYBLOCK
 10
544.7817291663247
 20
-663.8213285929294
 30
0.0
 11
544.2458307863246
 21
-665.8213285929294
 31
0.0
  0
LINE
  5
2498F
  8
0
  6
BYBLOCK
 10
544.2458307863246
 20
-665.8213285929294
 30
0.0
 11
543.7099324063246
 21
-663.8213285929294
 31
0.0
  0
LINE
  5
24990
  8
0
  6
BYBLOCK
 10
544.2458307863246
 20
-665.8213285929294
 30
0.0
 11
544.2458307863246
 21
-663.8213285929294
 31
0.0
  0
LINE
  5
24991
  8
0
  6
BYBLOCK
 10
543.7099324063246
 20
-647.8213287121387
 30
0.0
 11
544.2458307863246
 21
-645.8213287121387
 31
0.0
  0
LINE
  5
24992
  8
0
  6
BYBLOCK
 10
544.2458307863246
 20
-645.8213287121387
 30
0.0
 11
544.7817291663247
 21
-647.8213287121387
 31
0.0
  0
LINE
  5
24993
  8
0
  6
BYBLOCK
 10
544.2458307863246
 20
-645.8213287121387
 30
0.0
 11
544.2458307863246
 21
-647.8213287121387
 31
0.0
  0
TEXT
  5
24994
  8
1DIM
  6
CONTINUOUS
 10
543.5458307863246
 20
-642.9859120454718
 30
0.0
 40
3.5
  1
20
 50
90.0
1001
ACAD
1000
DSTYLE
1002
{
1070
    70
1070
     0
1070
    69
1070
     0
1070
    45
1040
0.5
1002
}
  0
VIEWPORT
  5
57
 67
     1
  8
0
 10
0.0
 20
0.0
 30
0.0
 40
522.4048442906575
 41
297.0
 68
     1
 69
     1
1001
ACAD
1000
MVIEW
1002
{
1070
    16
1010
0.0
1020
0.0
1030
0.0
1010
0.0
1020
0.0
1030
1.0
1040
0.0
1040
297.0
1040
-4.171999999925333
1040
12.83903210976956
1040
50.0
1040
0.0
1040
0.0
1070
    16
1070
   100
1070
     0
1070
     1
1070
     0
1070
     0
1070
     0
1070
     0
1040
0.0
1040
0.0
1040
0.0
1040
10.0
1040
10.0
1040
10.0
1040
10.0
1070
     0
1002
{
1002
}
1002
}
  0
ENDSEC
  0
EOF
